  0
SECTION
  2
HEADER
  9
$ACADVER
  1
AC1015
  9
$ACADMAINTVER
 70
    20
  9
$DWGCODEPAGE
  3
ANSI_1252
  9
$INSBASE
 10
0.0
 20
0.0
 30
0.0
  9
$EXTMIN
 10
-0.0002514408107288
 20
-0.0001591899371789
 30
-0.0000004574423482
  9
$EXTMAX
 10
16.49025167118742
 20
10.44015933579119
 30
0.0300004578614689
  9
$LIMMIN
 10
0.0
 20
0.0
  9
$LIMMAX
 10
12.0
 20
9.0
  9
$ORTHOMODE
 70
     0
  9
$REGENMODE
 70
     1
  9
$FILLMODE
 70
     1
  9
$QTEXTMODE
 70
     0
  9
$MIRRTEXT
 70
     0
  9
$LTSCALE
 40
1.0
  9
$ATTMODE
 70
     1
  9
$TEXTSIZE
 40
0.125
  9
$TRACEWID
 40
0.05
  9
$TEXTSTYLE
  7
ROMANS
  9
$CLAYER
  8
0
  9
$CELTYPE
  6
ByLayer
  9
$CECOLOR
 62
   256
  9
$CELTSCALE
 40
1.0
  9
$DISPSILH
 70
     0
  9
$DIMSCALE
 40
1.0
  9
$DIMASZ
 40
0.18
  9
$DIMEXO
 40
0.0625
  9
$DIMDLI
 40
0.38
  9
$DIMRND
 40
0.0
  9
$DIMDLE
 40
0.0
  9
$DIMEXE
 40
0.125
  9
$DIMTP
 40
0.0
  9
$DIMTM
 40
0.0
  9
$DIMTXT
 40
0.125
  9
$DIMCEN
 40
0.09
  9
$DIMTSZ
 40
0.0
  9
$DIMTOL
 70
     0
  9
$DIMLIM
 70
     0
  9
$DIMTIH
 70
     1
  9
$DIMTOH
 70
     1
  9
$DIMSE1
 70
     0
  9
$DIMSE2
 70
     0
  9
$DIMTAD
 70
     0
  9
$DIMZIN
 70
     0
  9
$DIMBLK
  1

  9
$DIMASO
 70
     1
  9
$DIMSHO
 70
     1
  9
$DIMPOST
  1

  9
$DIMAPOST
  1

  9
$DIMALT
 70
     0
  9
$DIMALTD
 70
     2
  9
$DIMALTF
 40
25.4
  9
$DIMLFAC
 40
1.0
  9
$DIMTOFL
 70
     0
  9
$DIMTVP
 40
0.0
  9
$DIMTIX
 70
     0
  9
$DIMSOXD
 70
     0
  9
$DIMSAH
 70
     0
  9
$DIMBLK1
  1

  9
$DIMBLK2
  1

  9
$DIMSTYLE
  2
Standard
  9
$DIMCLRD
 70
   256
  9
$DIMCLRE
 70
   256
  9
$DIMCLRT
 70
   256
  9
$DIMTFAC
 40
1.0
  9
$DIMGAP
 40
0.09
  9
$DIMJUST
 70
     0
  9
$DIMSD1
 70
     0
  9
$DIMSD2
 70
     0
  9
$DIMTOLJ
 70
     1
  9
$DIMTZIN
 70
     0
  9
$DIMALTZ
 70
     0
  9
$DIMALTTZ
 70
     0
  9
$DIMUPT
 70
     0
  9
$DIMDEC
 70
     4
  9
$DIMTDEC
 70
     4
  9
$DIMALTU
 70
     2
  9
$DIMALTTD
 70
     2
  9
$DIMTXSTY
  7
arial
  9
$DIMAUNIT
 70
     0
  9
$DIMADEC
 70
     0
  9
$DIMALTRND
 40
0.0
  9
$DIMAZIN
 70
     0
  9
$DIMDSEP
 70
    46
  9
$DIMATFIT
 70
     3
  9
$DIMFRAC
 70
     0
  9
$DIMLDRBLK
  1

  9
$DIMLUNIT
 70
     2
  9
$DIMLWD
 70
    -1
  9
$DIMLWE
 70
    -1
  9
$DIMTMOVE
 70
     2
  9
$LUNITS
 70
     2
  9
$LUPREC
 70
     3
  9
$SKETCHINC
 40
0.1
  9
$FILLETRAD
 40
0.0
  9
$AUNITS
 70
     0
  9
$AUPREC
 70
     0
  9
$MENU
  1
ACAD
  9
$ELEVATION
 40
0.0
  9
$PELEVATION
 40
0.0
  9
$THICKNESS
 40
0.0
  9
$LIMCHECK
 70
     0
  9
$CHAMFERA
 40
0.0
  9
$CHAMFERB
 40
0.0
  9
$CHAMFERC
 40
0.0
  9
$CHAMFERD
 40
0.0
  9
$SKPOLY
 70
     0
  9
$TDCREATE
 40
2449623.426764237
  9
$TDUCREATE
 40
2449623.676764236
  9
$TDUPDATE
 40
2456042.440467454
  9
$TDUUPDATE
 40
2456042.690467454
  9
$TDINDWG
 40
0.4722373148
  9
$TDUSRTIMER
 40
0.4722373148
  9
$USRTIMER
 70
     1
  9
$ANGBASE
 50
0.0
  9
$ANGDIR
 70
     0
  9
$PDMODE
 70
     0
  9
$PDSIZE
 40
0.0
  9
$PLINEWID
 40
0.0
  9
$SPLFRAME
 70
     0
  9
$SPLINETYPE
 70
     6
  9
$SPLINESEGS
 70
     8
  9
$HANDSEED
  5
499
  9
$SURFTAB1
 70
     6
  9
$SURFTAB2
 70
     6
  9
$SURFTYPE
 70
     6
  9
$SURFU
 70
     6
  9
$SURFV
 70
     6
  9
$UCSBASE
  2

  9
$UCSNAME
  2

  9
$UCSORG
 10
0.0
 20
0.0
 30
0.0
  9
$UCSXDIR
 10
1.0
 20
0.0
 30
0.0
  9
$UCSYDIR
 10
0.0
 20
1.0
 30
0.0
  9
$UCSORTHOREF
  2

  9
$UCSORTHOVIEW
 70
     0
  9
$UCSORGTOP
 10
0.0
 20
0.0
 30
0.0
  9
$UCSORGBOTTOM
 10
0.0
 20
0.0
 30
0.0
  9
$UCSORGLEFT
 10
0.0
 20
0.0
 30
0.0
  9
$UCSORGRIGHT
 10
0.0
 20
0.0
 30
0.0
  9
$UCSORGFRONT
 10
0.0
 20
0.0
 30
0.0
  9
$UCSORGBACK
 10
0.0
 20
0.0
 30
0.0
  9
$PUCSBASE
  2

  9
$PUCSNAME
  2

  9
$PUCSORG
 10
0.0
 20
0.0
 30
0.0
  9
$PUCSXDIR
 10
1.0
 20
0.0
 30
0.0
  9
$PUCSYDIR
 10
0.0
 20
1.0
 30
0.0
  9
$PUCSORTHOREF
  2

  9
$PUCSORTHOVIEW
 70
     0
  9
$PUCSORGTOP
 10
0.0
 20
0.0
 30
0.0
  9
$PUCSORGBOTTOM
 10
0.0
 20
0.0
 30
0.0
  9
$PUCSORGLEFT
 10
0.0
 20
0.0
 30
0.0
  9
$PUCSORGRIGHT
 10
0.0
 20
0.0
 30
0.0
  9
$PUCSORGFRONT
 10
0.0
 20
0.0
 30
0.0
  9
$PUCSORGBACK
 10
0.0
 20
0.0
 30
0.0
  9
$USERI1
 70
     0
  9
$USERI2
 70
     0
  9
$USERI3
 70
     0
  9
$USERI4
 70
     0
  9
$USERI5
 70
     0
  9
$USERR1
 40
0.0
  9
$USERR2
 40
0.0
  9
$USERR3
 40
0.0
  9
$USERR4
 40
0.0
  9
$USERR5
 40
0.0
  9
$WORLDVIEW
 70
     1
  9
$SHADEDGE
 70
     3
  9
$SHADEDIF
 70
    70
  9
$TILEMODE
 70
     1
  9
$MAXACTVP
 70
    16
  9
$PINSBASE
 10
0.0
 20
0.0
 30
0.0
  9
$PLIMCHECK
 70
     0
  9
$PEXTMIN
 10
1.000000000000000E+20
 20
1.000000000000000E+20
 30
1.000000000000000E+20
  9
$PEXTMAX
 10
-1.000000000000000E+20
 20
-1.000000000000000E+20
 30
-1.000000000000000E+20
  9
$PLIMMIN
 10
0.0
 20
0.0
  9
$PLIMMAX
 10
12.0
 20
9.0
  9
$UNITMODE
 70
     0
  9
$VISRETAIN
 70
     0
  9
$PLINEGEN
 70
     1
  9
$PSLTSCALE
 70
     1
  9
$TREEDEPTH
 70
  3020
  9
$CMLSTYLE
  2
Standard
  9
$CMLJUST
 70
     0
  9
$CMLSCALE
 40
1.0
  9
$PROXYGRAPHICS
 70
     1
  9
$MEASUREMENT
 70
     0
  9
$CELWEIGHT
370
    -1
  9
$ENDCAPS
280
     0
  9
$JOINSTYLE
280
     0
  9
$LWDISPLAY
290
     0
  9
$INSUNITS
 70
     0
  9
$HYPERLINKBASE
  1

  9
$STYLESHEET
  1
monochrome.ctb
  9
$XEDIT
290
     1
  9
$CEPSNTYPE
380
     0
  9
$PSTYLEMODE
290
     1
  9
$FINGERPRINTGUID
  2
{F399D0BE-DD09-4714-903D-8A8FCA4B67F4}
  9
$VERSIONGUID
  2
{9C1ABE74-1651-4E7D-89E7-C85D0D47AEF2}
  9
$EXTNAMES
290
     1
  9
$PSVPSCALE
 40
0.0
  9
$OLESTARTUP
290
     1
  0
ENDSEC
  0
SECTION
  2
CLASSES
  0
CLASS
  1
ACDBDICTIONARYWDFLT
  2
AcDbDictionaryWithDefault
  3
ObjectDBX Classes
 90
        0
280
     0
281
     0
  0
CLASS
  1
ACDBPLACEHOLDER
  2
AcDbPlaceHolder
  3
ObjectDBX Classes
 90
        0
280
     0
281
     0
  0
CLASS
  1
LAYOUT
  2
AcDbLayout
  3
ObjectDBX Classes
 90
        0
280
     0
281
     0
  0
CLASS
  1
DICTIONARYVAR
  2
AcDbDictionaryVar
  3
ObjectDBX Classes
 90
        0
280
     0
281
     0
  0
CLASS
  1
MATERIAL
  2
AcDbMaterial
  3
ObjectDBX Classes
 90
     1153
280
     0
281
     0
  0
CLASS
  1
VISUALSTYLE
  2
AcDbVisualStyle
  3
ObjectDBX Classes
 90
     4095
280
     0
281
     0
  0
CLASS
  1
TABLESTYLE
  2
AcDbTableStyle
  3
ObjectDBX Classes
 90
     4095
280
     0
281
     0
  0
CLASS
  1
SCALE
  2
AcDbScale
  3
ObjectDBX Classes
 90
     1153
280
     0
281
     0
  0
CLASS
  1
MLEADERSTYLE
  2
AcDbMLeaderStyle
  3
ACDB_MLEADERSTYLE_CLASS
 90
     4095
280
     0
281
     0
  0
CLASS
  1
EXACXREFPANELOBJECT
  2
ExAcXREFPanelObject
  3
EXAC_ESW
 90
     1025
280
     0
281
     0
  0
CLASS
  1
NPOCOLLECTION
  2
AcDbImpNonPersistentObjectsCollection
  3
ObjectDBX Classes
 90
     1153
280
     0
281
     0
  0
CLASS
  1
CELLSTYLEMAP
  2
AcDbCellStyleMap
  3
ObjectDBX Classes
 90
     1152
280
     0
281
     0
  0
CLASS
  1
SORTENTSTABLE
  2
AcDbSortentsTable
  3
ObjectDBX Classes
 90
        0
280
     0
281
     0
  0
CLASS
  1
PLOTSETTINGS
  2
AcDbPlotSettings
  3
ObjectDBX Classes
 90
    32768
280
     0
281
     0
  0
ENDSEC
  0
SECTION
  2
TABLES
  0
TABLE
  2
VPORT
  5
277
102
{ACAD_XDICTIONARY
360
2F4
102
}
330
0
100
AcDbSymbolTable
 70
     1
  0
VPORT
  5
314
330
277
100
AcDbSymbolTableRecord
100
AcDbViewportTableRecord
  2
*Active
 70
     0
 10
0.0
 20
0.0
 11
1.0
 21
1.0
 12
8.245000115188346
 22
5.220000072927006
 13
0.0
 23
0.0
 14
0.14
 24
0.14
 15
0.0
 25
0.0
 16
0.0
 26
0.0
 36
1.0
 17
0.0
 27
0.0
 37
0.0
 40
10.51852315887989
 41
2.362499999999999
 42
50.0
 43
0.0
 44
0.0
 50
0.0
 51
0.0
 71
     0
 72
  1000
 73
     1
 74
     1
 75
     0
 76
     0
 77
     0
 78
     0
281
     0
 65
     1
110
0.0
120
0.0
130
0.0
111
1.0
121
0.0
131
0.0
112
0.0
122
1.0
132
0.0
 79
     0
146
0.0
1001
ACAD_NAV_VCDISPLAY
1070
     3
  0
ENDTAB
  0
TABLE
  2
LTYPE
  5
272
330
0
100
AcDbSymbolTable
 70
     1
  0
LTYPE
  5
273
330
272
100
AcDbSymbolTableRecord
100
AcDbLinetypeTableRecord
  2
ByBlock
 70
     0
  3

 72
    65
 73
     0
 40
0.0
  0
LTYPE
  5
274
330
272
100
AcDbSymbolTableRecord
100
AcDbLinetypeTableRecord
  2
ByLayer
 70
     0
  3

 72
    65
 73
     0
 40
0.0
  0
LTYPE
  5
14
330
272
100
AcDbSymbolTableRecord
100
AcDbLinetypeTableRecord
  2
CONTINUOUS
 70
     0
  3
Solid line
 72
    65
 73
     0
 40
0.0
  0
ENDTAB
  0
TABLE
  2
LAYER
  5
26C
102
{ACAD_XDICTIONARY
360
26D
102
}
330
0
100
AcDbSymbolTable
 70
    24
  0
LAYER
  5
4
330
26C
100
AcDbSymbolTableRecord
100
AcDbLayerTableRecord
  2
0
 70
     0
 62
     7
  6
CONTINUOUS
370
    -3
390
5
  0
LAYER
  5
16
330
26C
100
AcDbSymbolTableRecord
100
AcDbLayerTableRecord
  2
text_bubbles
 70
     0
 62
     6
  6
CONTINUOUS
370
    -3
390
5
  0
LAYER
  5
36
330
26C
100
AcDbSymbolTableRecord
100
AcDbLayerTableRecord
  2
image
 70
     0
 62
     7
  6
CONTINUOUS
370
    -3
390
5
  0
LAYER
  5
32
330
26C
100
AcDbSymbolTableRecord
100
AcDbLayerTableRecord
  2
text_leaders
 70
     1
 62
    -5
  6
CONTINUOUS
370
    -3
390
5
  0
LAYER
  5
1B8
330
26C
100
AcDbSymbolTableRecord
100
AcDbLayerTableRecord
  2
option-sam
 70
     1
 62
    -1
  6
CONTINUOUS
370
    -3
390
5
  0
LAYER
  5
1BE
330
26C
100
AcDbSymbolTableRecord
100
AcDbLayerTableRecord
  2
option-sam-prs
 70
     1
 62
    -1
  6
CONTINUOUS
370
    -3
390
5
  0
LAYER
  5
1B0
330
26C
100
AcDbSymbolTableRecord
100
AcDbLayerTableRecord
  2
option-noz-van
 70
     1
 62
    -1
  6
CONTINUOUS
370
    -3
390
5
  0
LAYER
  5
1AE
330
26C
100
AcDbSymbolTableRecord
100
AcDbLayerTableRecord
  2
option-noz-u-series
 70
     1
 62
    -1
  6
CONTINUOUS
370
    -3
390
5
  0
LAYER
  5
1AC
330
26C
100
AcDbSymbolTableRecord
100
AcDbLayerTableRecord
  2
option-noz-mpr
 70
     1
 62
    -1
  6
CONTINUOUS
370
    -3
390
5
  0
LAYER
  5
1CA
330
26C
100
AcDbSymbolTableRecord
100
AcDbLayerTableRecord
  2
instruct-option
 70
     0
 62
     7
  6
CONTINUOUS
370
    -3
390
5
  0
LAYER
  5
74
330
26C
100
AcDbSymbolTableRecord
100
AcDbLayerTableRecord
  2
instruct-callout
 70
     0
 62
     4
  6
CONTINUOUS
370
    -3
390
5
  0
LAYER
  5
98
330
26C
100
AcDbSymbolTableRecord
100
AcDbLayerTableRecord
  2
title
 70
     0
 62
     4
  6
CONTINUOUS
370
    -3
390
5
  0
LAYER
  5
1C0
330
26C
100
AcDbSymbolTableRecord
100
AcDbLayerTableRecord
  2
option-np
 70
     1
 62
    -1
  6
CONTINUOUS
370
    -3
390
5
  0
LAYER
  5
1C2
330
26C
100
AcDbSymbolTableRecord
100
AcDbLayerTableRecord
  2
option-sam-np
 70
     1
 62
    -1
  6
CONTINUOUS
370
    -3
390
5
  0
LAYER
  5
1B6
330
26C
100
AcDbSymbolTableRecord
100
AcDbLayerTableRecord
  2
option-noz-rotary
 70
     1
 62
    -1
  6
CONTINUOUS
370
    -3
390
5
  0
LAYER
  5
1B2
330
26C
100
AcDbSymbolTableRecord
100
AcDbLayerTableRecord
  2
option-noz-hevan
 70
     1
 62
    -1
  6
CONTINUOUS
370
    -3
390
5
  0
LAYER
  5
1B4
330
26C
100
AcDbSymbolTableRecord
100
AcDbLayerTableRecord
  2
option-noz-sq
 70
     1
 62
    -1
  6
CONTINUOUS
370
    -3
390
5
  0
LAYER
  5
1BA
330
26C
100
AcDbSymbolTableRecord
100
AcDbLayerTableRecord
  2
option-prs-f
 70
     1
 62
    -1
  6
CONTINUOUS
370
    -3
390
5
  0
LAYER
  5
1BC
330
26C
100
AcDbSymbolTableRecord
100
AcDbLayerTableRecord
  2
option-prs-f-np
 70
     1
 62
    -1
  6
CONTINUOUS
370
    -3
390
5
  0
LAYER
  5
1C4
330
26C
100
AcDbSymbolTableRecord
100
AcDbLayerTableRecord
  2
option-sam-prs-f
 70
     1
 62
    -1
  6
CONTINUOUS
370
    -3
390
5
  0
LAYER
  5
1C6
330
26C
100
AcDbSymbolTableRecord
100
AcDbLayerTableRecord
  2
option-sam-prs-f-np
 70
     1
 62
    -1
  6
CONTINUOUS
370
    -3
390
5
  0
LAYER
  5
1C8
330
26C
100
AcDbSymbolTableRecord
100
AcDbLayerTableRecord
  2
option-sam-p45-f-np
 70
     1
 62
    -1
  6
CONTINUOUS
370
    -3
390
5
  0
LAYER
  5
1CC
330
26C
100
AcDbSymbolTableRecord
100
AcDbLayerTableRecord
  2
option-sam-p45-f
 70
     1
 62
    -1
  6
CONTINUOUS
370
    -3
390
5
1001
AcAecLayerStandard
1000

1000

  0
ENDTAB
  0
TABLE
  2
STYLE
  5
270
330
0
100
AcDbSymbolTable
 70
     7
  0
STYLE
  5
85
330
270
100
AcDbSymbolTableRecord
100
AcDbTextStyleTableRecord
  2
STANDARD
 70
     0
 40
0.0
 41
1.0
 50
0.0
 71
     0
 42
0.2
  3
txt
  4

  0
STYLE
  5
18
330
270
100
AcDbSymbolTableRecord
100
AcDbTextStyleTableRecord
  2
ROMANS
 70
     0
 40
0.0
 41
1.0
 50
0.0
 71
     0
 42
0.125
  3
ROMANS.SHX
  4

  0
STYLE
  5
A8
330
270
100
AcDbSymbolTableRecord
100
AcDbTextStyleTableRecord
  2
L100
 70
     0
 40
0.1
 41
1.0
 50
0.0
 71
     0
 42
0.1
  3
romans.shx
  4

  0
STYLE
  5
9D
330
270
100
AcDbSymbolTableRecord
100
AcDbTextStyleTableRecord
  2
L200
 70
     0
 40
0.2
 41
1.0
 50
0.0
 71
     0
 42
0.081
  3
ARIAL.TTF
  4

1001
ACAD
1000
Arial
1071
       34
  0
STYLE
  5
A4
330
270
100
AcDbSymbolTableRecord
100
AcDbTextStyleTableRecord
  2
L80
 70
     0
 40
0.08
 41
1.0
 50
0.0
 71
     0
 42
0.08
  3
ROMANS
  4

  0
STYLE
  5
2A0
330
270
100
AcDbSymbolTableRecord
100
AcDbTextStyleTableRecord
  2
arial
 70
     0
 40
0.0
 41
1.0
 50
0.0
 71
     0
 42
0.2
  3
ARIAL.TTF
  4

1001
ACAD
1000
Arial
1071
       34
  0
ENDTAB
  0
TABLE
  2
VIEW
  5
275
330
0
100
AcDbSymbolTable
 70
     0
  0
ENDTAB
  0
TABLE
  2
UCS
  5
276
330
0
100
AcDbSymbolTable
 70
     0
  0
ENDTAB
  0
TABLE
  2
APPID
  5
27B
330
0
100
AcDbSymbolTable
 70
     8
  0
APPID
  5
9E
330
27B
100
AcDbSymbolTableRecord
100
AcDbRegAppTableRecord
  2
ACAD
 70
     0
  0
APPID
  5
267
330
27B
100
AcDbSymbolTableRecord
100
AcDbRegAppTableRecord
  2
ACAD_PSEXT
 70
     0
  0
APPID
  5
1CD
330
27B
100
AcDbSymbolTableRecord
100
AcDbRegAppTableRecord
  2
AcAecLayerStandard
 70
     0
  0
APPID
  5
A
330
27B
100
AcDbSymbolTableRecord
100
AcDbRegAppTableRecord
  2
BBSI_PltSel
 70
     0
  0
APPID
  5
8
330
27B
100
AcDbSymbolTableRecord
100
AcDbRegAppTableRecord
  2
BBSI_Bookmarks
 70
     0
  0
APPID
  5
9
330
27B
100
AcDbSymbolTableRecord
100
AcDbRegAppTableRecord
  2
BBSI_BookmarksEx
 70
     0
  0
APPID
  5
2D8
330
27B
100
AcDbSymbolTableRecord
100
AcDbRegAppTableRecord
  2
ACAD_MLEADERVER
 70
     0
  0
APPID
  5
44C
330
27B
100
AcDbSymbolTableRecord
100
AcDbRegAppTableRecord
  2
ACAD_NAV_VCDISPLAY
 70
     0
  0
ENDTAB
  0
TABLE
  2
DIMSTYLE
  5
27C
330
0
100
AcDbSymbolTable
 70
     2
100
AcDbDimStyleTable
 71
     1
340
84
  0
DIMSTYLE
105
84
330
27C
100
AcDbSymbolTableRecord
100
AcDbDimStyleTableRecord
  2
Standard
 70
     0
340
85
  0
ENDTAB
  0
TABLE
  2
BLOCK_RECORD
  5
1
330
0
100
AcDbSymbolTable
 70
     5
  0
BLOCK_RECORD
  5
2
102
{ACAD_XDICTIONARY
360
3B9
102
}
330
1
100
AcDbSymbolTableRecord
100
AcDbBlockTableRecord
  2
*Model_Space
340
265
  0
BLOCK_RECORD
  5
268
330
1
100
AcDbSymbolTableRecord
100
AcDbBlockTableRecord
  2
*Paper_Space
340
26B
  0
BLOCK_RECORD
  5
99
330
1
100
AcDbSymbolTableRecord
100
AcDbBlockTableRecord
  2
titleblock
340
0
102
{BLKREFS
331
97
102
}
  0
BLOCK_RECORD
  5
1A2
330
1
100
AcDbSymbolTableRecord
100
AcDbBlockTableRecord
  2
RD
340
0
310
2800000020000000200000000100080000000000000400000000000000000000000000000000000000000000000080000080000000808000800000008000800080800000C0C0C000C0DCC000F0CAA6000020400000206000002080000020A0000020C0000020E00000400000004020000040400000406000004080000040A0
310
000040C0000040E00000600000006020000060400000606000006080000060A0000060C0000060E00000800000008020000080400000806000008080000080A0000080C0000080E00000A0000000A0200000A0400000A0600000A0800000A0A00000A0C00000A0E00000C0000000C0200000C0400000C0600000C0800000C0
310
A00000C0C00000C0E00000E0000000E0200000E0400000E0600000E0800000E0A00000E0C00000E0E00040000000400020004000400040006000400080004000A0004000C0004000E00040200000402020004020400040206000402080004020A0004020C0004020E000404000004040200040404000404060004040800040
310
40A0004040C0004040E00040600000406020004060400040606000406080004060A0004060C0004060E00040800000408020004080400040806000408080004080A0004080C0004080E00040A0000040A0200040A0400040A0600040A0800040A0A00040A0C00040A0E00040C0000040C0200040C0400040C0600040C08000
310
40C0A00040C0C00040C0E00040E0000040E0200040E0400040E0600040E0800040E0A00040E0C00040E0E00080000000800020008000400080006000800080008000A0008000C0008000E00080200000802020008020400080206000802080008020A0008020C0008020E00080400000804020008040400080406000804080
310
008040A0008040C0008040E00080600000806020008060400080606000806080008060A0008060C0008060E00080800000808020008080400080806000808080008080A0008080C0008080E00080A0000080A0200080A0400080A0600080A0800080A0A00080A0C00080A0E00080C0000080C0200080C0400080C0600080C0
310
800080C0A00080C0C00080C0E00080E0000080E0200080E0400080E0600080E0800080E0A00080E0C00080E0E000C0000000C0002000C0004000C0006000C0008000C000A000C000C000C000E000C0200000C0202000C0204000C0206000C0208000C020A000C020C000C020E000C0400000C0402000C0404000C0406000C0
310
408000C040A000C040C000C040E000C0600000C0602000C0604000C0606000C0608000C060A000C060C000C060E000C0800000C0802000C0804000C0806000C0808000C080A000C080C000C080E000C0A00000C0A02000C0A04000C0A06000C0A08000C0A0A000C0A0C000C0A0E000C0C00000C0C02000C0C04000C0C06000
310
C0C08000C0C0A000F0FBFF00A4A0A000808080000000FF0000FF000000FFFF00FF000000FF00FF00FFFF0000FFFFFF0000000000000000000000000000000000000000000000000000000000000000000000000000000000000000000000000000000000000000000000000000000000000000000000000000000000000000
310
00000000000000000000000000000000000000000000000000000000000000000000000000000000000000000000000000000000000000000000000000000000000000000000000000000000000000000000000000000000000000000000000000000000000000000000000000000000000000000000000000000000000000
310
00000000000000000000000000000000000000000000000000000000000000000000000000000000000000000000000000000000000000000000000000000000000000000000000000000000000000000000000000000000000000000000000000000000000000000000000000000000000000000000000000000000000000
310
0000000000000000000000000000000000000000000000000000FFFFFFFFFFFFFFFFFFFFFFFFFFFFFFFFFFFF00000000000000000000000000FFFF000000000000FF0000FF000000000000FFFF0000000000000000000000FFFF00000000000000FF0000FF00000000000000FFFFFF00000000000000FFFF00FF0000000000
310
0000FF0000FF00000000000000FF0000FF0000000000FF0000FF0000000000000000FF0000FF0000000000000000FF0000FF000000FF0000FF000000000000000000FFFFFFFF000000000000000000FF0000FF0000FF00FF00000000000000000000FF0000FF00000000000000000000FF00FF0000FF00FF00000000000000
310
000000FF0000FF00000000000000000000FF00FF0000FFFF0000000000000000000000FF0000FF0000000000000000000000FFFF0000FFFFFFFFFFFFFFFFFFFFFFFFFFFFFFFFFFFFFFFFFFFFFFFFFFFFFFFFFFFF00000000000000000000000000000000000000000000000000000000000000000000000000000000000000
310
00000000000000000000000000000000000000000000000000000000000000000000000000000000000000000000000000000000000000000000000000000000000000000000000000000000000000000000000000000000000000000000000000000000000000000000000000000000000000000000000000000000000000
310
00000000000000000000000000000000000000000000000000000000000000000000000000000000000000000000000000000000000000000000000000000000000000000000000000000000000000000000000000000000000000000000000000000000000000000000000000000000000000000000000000000000000000
310
0000000000000000000000000000000000000000000000000000000000000000000000000000000000000000000000000000000000000000
102
{BLKREFS
331
1A1
102
}
  0
BLOCK_RECORD
  5
1D2
102
{ACAD_XDICTIONARY
360
44A
102
}
330
1
100
AcDbSymbolTableRecord
100
AcDbBlockTableRecord
  2
rb_logo
340
0
310
2800000020000000200000000100080000000000000400000000000000000000000000000000000000000000000080000080000000808000800000008000800080800000C0C0C000C0DCC000F0CAA6000020400000206000002080000020A0000020C0000020E00000400000004020000040400000406000004080000040A0
310
000040C0000040E00000600000006020000060400000606000006080000060A0000060C0000060E00000800000008020000080400000806000008080000080A0000080C0000080E00000A0000000A0200000A0400000A0600000A0800000A0A00000A0C00000A0E00000C0000000C0200000C0400000C0600000C0800000C0
310
A00000C0C00000C0E00000E0000000E0200000E0400000E0600000E0800000E0A00000E0C00000E0E00040000000400020004000400040006000400080004000A0004000C0004000E00040200000402020004020400040206000402080004020A0004020C0004020E000404000004040200040404000404060004040800040
310
40A0004040C0004040E00040600000406020004060400040606000406080004060A0004060C0004060E00040800000408020004080400040806000408080004080A0004080C0004080E00040A0000040A0200040A0400040A0600040A0800040A0A00040A0C00040A0E00040C0000040C0200040C0400040C0600040C08000
310
40C0A00040C0C00040C0E00040E0000040E0200040E0400040E0600040E0800040E0A00040E0C00040E0E00080000000800020008000400080006000800080008000A0008000C0008000E00080200000802020008020400080206000802080008020A0008020C0008020E00080400000804020008040400080406000804080
310
008040A0008040C0008040E00080600000806020008060400080606000806080008060A0008060C0008060E00080800000808020008080400080806000808080008080A0008080C0008080E00080A0000080A0200080A0400080A0600080A0800080A0A00080A0C00080A0E00080C0000080C0200080C0400080C0600080C0
310
800080C0A00080C0C00080C0E00080E0000080E0200080E0400080E0600080E0800080E0A00080E0C00080E0E000C0000000C0002000C0004000C0006000C0008000C000A000C000C000C000E000C0200000C0202000C0204000C0206000C0208000C020A000C020C000C020E000C0400000C0402000C0404000C0406000C0
310
408000C040A000C040C000C040E000C0600000C0602000C0604000C0606000C0608000C060A000C060C000C060E000C0800000C0802000C0804000C0806000C0808000C080A000C080C000C080E000C0A00000C0A02000C0A04000C0A06000C0A08000C0A0A000C0A0C000C0A0E000C0C00000C0C02000C0C04000C0C06000
310
C0C08000C0C0A000F0FBFF00A4A0A000808080000000FF0000FF000000FFFF00FF000000FF00FF00FFFF0000FFFFFF000000000000000000000000000000000000000000000000000000000000000000000000000000000000000000000000000000FF00000000000000000000000000000000000000000000000000000000
310
00FFFFFF000000000000000000000000000000000000000000000000000000FFFF00FFFF000000000000000000000000000000000000000000000000000000FFFFFFFFFF000000000000000000000000000000000000000000000000000000FFFFFFFFFF000000000000000000000000000000000000000000000000000000
310
00FFFFFFFF00000000000000000000000000000000000000000000000000000000FFFFFFFF00000000000000000000000000000000000000000000000000000000FFFFFFFF00000000000000000000000000000000000000000000000000000000FFFFFFFF0000000000000000000000000000000000000000000000000000
310
0000FFFFFFFF00000000000000000000000000000000000000000000000000000000FF00FFFF00000000000000000000000000000000000000000000000000000000FFFFFFFF000000000000000000000000000000000000000000000000000000FFFFFFFF0000000000000000000000000000000000000000000000000000
310
00FFFFFFFFFFFF000000000000000000000000000000000000000000000000000000FFFFFFFFFF0000000000000000000000000000000000000000000000000000FFFFFFFFFFFF000000000000000000000000000000000000000000000000000000FFFFFFFF00000000000000000000000000000000000000000000000000
310
000000FFFFFFFFFF0000000000000000000000000000000000000000000000000000000000FFFFFF000000000000000000000000000000000000000000000000000000FFFFFFFFFF000000000000000000000000000000000000000000000000000000FFFFFFFFFF0000000000000000000000000000000000000000000000
310
00000000FFFFFFFFFF00000000000000000000000000000000000000000000000000000000FFFFFFFF00000000000000000000000000000000000000000000000000000000FFFFFFFF00000000000000000000000000000000000000000000000000000000FFFFFFFF00000000000000000000000000000000000000000000
310
000000000000FFFFFFFF00000000000000000000000000000000000000000000000000000000FFFFFFFF00000000000000000000000000000000000000000000000000000000FFFFFFFF00000000000000000000000000000000000000000000000000000000FFFFFFFF000000000000000000000000000000000000000000
310
00000000000000000000FF000000000000000000000000000000000000000000000000000000000000000000000000000000000000000000
102
{BLKREFS
331
1D1
102
}
  0
BLOCK_RECORD
  5
1CF
330
1
100
AcDbSymbolTableRecord
100
AcDbBlockTableRecord
  2
A$C7808359E
340
0
102
{BLKREFS
331
1CE
102
}
  0
ENDTAB
  0
ENDSEC
  0
SECTION
  2
BLOCKS
  0
BLOCK
  5
3
330
2
100
AcDbEntity
  8
0
100
AcDbBlockBegin
  2
*Model_Space
 70
     0
 10
0.0
 20
0.0
 30
0.0
  3
*Model_Space
  1

  0
ENDBLK
  5
264
330
2
100
AcDbEntity
  8
0
100
AcDbBlockEnd
  0
BLOCK
  5
269
330
268
100
AcDbEntity
 67
     1
  8
0
100
AcDbBlockBegin
  2
*Paper_Space
 70
     0
 10
0.0
 20
0.0
 30
0.0
  3
*Paper_Space
  1

  0
ENDBLK
  5
26A
330
268
100
AcDbEntity
 67
     1
  8
0
100
AcDbBlockEnd
  0
BLOCK
  5
9A
330
99
100
AcDbEntity
  8
0
100
AcDbBlockBegin
  2
titleblock
 70
     2
 10
0.0
 20
0.0
 30
0.0
  3
titleblock
  1

  0
LWPOLYLINE
  5
9B
330
99
100
AcDbEntity
  8
image
100
AcDbPolyline
 90
        4
 70
     1
 43
0.0
 10
0.0
 20
0.0
 10
16.48999999999999
 20
0.0000000000000001
 10
16.48999999999999
 20
10.44
 10
0.0
 20
10.44
  0
ATTDEF
  5
9C
330
99
100
AcDbEntity
  8
title
100
AcDbText
 10
0.5055556038023421
 20
0.7842270964783673
 30
0.0
 40
0.2
  1
D
  7
L200
 72
     4
 11
0.6064423705144839
 21
0.8842270964783672
 31
0.0
100
AcDbAttributeDefinition
  3
#
  2
D
 70
     0
  0
ATTDEF
  5
9F
330
99
100
AcDbEntity
  8
title
100
AcDbText
 10
1.231442370514484
 20
1.34371230274675
 30
0.0
 40
0.2
  1

  7
L200
100
AcDbAttributeDefinition
  3
DETAIL TITLE TOP LINE
  2
TITLE1
 70
     0
  0
ATTDEF
  5
A0
330
99
100
AcDbEntity
  8
title
100
AcDbText
 10
1.231442370514484
 20
0.9842270964783674
 30
0.0
 40
0.2
  1
TITLE
  7
L200
100
AcDbAttributeDefinition
  3
DETAIL TITLE TOP 2ND LINE
  2
TITLE2
 70
     0
  0
ATTDEF
  5
A1
330
99
100
AcDbEntity
  8
title
100
AcDbText
 10
2.713645751168312
 20
0.5927927664583189
 30
0.0
 40
0.2
  1
TITLE2
  7
L200
100
AcDbAttributeDefinition
  3
DETAIL TITLE BOTTOM 1
  2
TITLE3
 70
     0
  0
ATTDEF
  5
A2
330
99
100
AcDbEntity
  8
title
100
AcDbText
 10
2.713645751168312
 20
0.2692560808167741
 30
0.0
 40
0.2
  1

  7
L200
100
AcDbAttributeDefinition
  3
DETAIL TITLE BOTTOM 2
  2
TITLE4
 70
     0
  0
ATTDEF
  5
A3
330
99
100
AcDbEntity
  8
title
 62
     7
100
AcDbText
 10
8.177214829966379
 20
0.9696027915446398
 30
0.0
 40
0.08
  1
-
  7
L80
 72
     2
 11
8.261024353775903
 21
0.9696027915446398
 31
0.0
100
AcDbAttributeDefinition
  3
REVISION DATE
  2
REVISED
 70
     0
  0
ATTDEF
  5
A5
330
99
100
AcDbEntity
  8
title
 62
     7
100
AcDbText
 10
0.2639423705144838
 20
0.0847116480207214
 30
0.0
 40
0.08
  1
-
  7
L80
100
AcDbAttributeDefinition
  3
DWG-NAME
  2
DWG-NAME
 70
     0
  0
LWPOLYLINE
  5
A6
330
99
100
AcDbEntity
  8
title
 62
     3
100
AcDbPolyline
 90
        2
 70
     1
 43
0.03
 10
0.6064423705144839
 20
0.5417270964783675
 42
0.9999999999999998
 10
0.6064423705144839
 20
1.226727096478367
 42
0.9999999999999998
  0
ATTDEF
  5
A7
330
99
100
AcDbEntity
  8
title
 62
     7
100
AcDbText
 10
1.231442370514484
 20
0.7005637793954894
 30
0.0
 40
0.1
  1
N.T.S.
  7
L100
100
AcDbAttributeDefinition
  3
SCALE
  2
SCALE
 70
     0
  0
LWPOLYLINE
  5
A9
330
99
100
AcDbEntity
  8
title
 62
     3
100
AcDbPolyline
 90
        2
 70
     0
 43
0.04
 39
0.03
 10
0.9489423705144833
 20
0.8842270964783672
 10
8.261024353775903
 20
0.8842270964783672
  0
ENDBLK
  5
AA
330
99
100
AcDbEntity
  8
0
100
AcDbBlockEnd
  0
BLOCK
  5
1A3
330
1A2
100
AcDbEntity
  8
0
100
AcDbBlockBegin
  2
RD
 70
     0
 10
0.0
 20
0.0
 30
0.0
  3
RD
  1

  0
LWPOLYLINE
  5
1A4
330
1A2
100
AcDbEntity
  8
image
100
AcDbPolyline
 90
        6
 70
     1
 43
0.0
 10
-0.1263240580296658
 20
-0.1235595694529241
 10
-0.2059888925294686
 20
-0.0599999999999996
 10
-0.2059888925294686
 20
0.0
 10
0.2059888925294691
 20
0.0
 10
0.2059888925294691
 20
-0.0599999999999996
 10
0.1263240580296663
 20
-0.1235595694529241
  0
LWPOLYLINE
  5
1A5
330
1A2
100
AcDbEntity
  8
image
100
AcDbPolyline
 90
        2
 70
     0
 43
0.0
 10
0.018375264254356
 20
0.0
 10
0.018375264254356
 20
-0.1235595694529241
  0
LWPOLYLINE
  5
1A6
330
1A2
100
AcDbEntity
  8
image
100
AcDbPolyline
 90
        2
 70
     0
 43
0.0
 10
-0.0183752642543556
 20
0.0
 10
-0.0183752642543556
 20
-0.1235595694529241
  0
LWPOLYLINE
  5
1A7
330
1A2
100
AcDbEntity
  8
image
100
AcDbPolyline
 90
        2
 70
     0
 43
0.0
 10
-0.0183752642543556
 20
-0.0617797847264621
 10
0.018375264254356
 20
-0.0617797847264621
  0
LWPOLYLINE
  5
1A8
330
1A2
100
AcDbEntity
  8
image
100
AcDbPolyline
 90
        2
 70
     0
 43
0.0
 10
0.2059888925294691
 20
0.0
 10
0.114249204179051
 20
-0.1235595694529241
  0
LWPOLYLINE
  5
1A9
330
1A2
100
AcDbEntity
  8
image
100
AcDbPolyline
 90
        2
 70
     0
 43
0.0
 10
-0.2059888925294686
 20
0.0
 10
-0.1142492041790506
 20
-0.1235595694529241
  0
ENDBLK
  5
1AA
330
1A2
100
AcDbEntity
  8
0
100
AcDbBlockEnd
  0
BLOCK
  5
1D3
330
1D2
100
AcDbEntity
  8
0
100
AcDbBlockBegin
  2
rb_logo
 70
     0
 10
0.0
 20
0.0
 30
0.0
  3
rb_logo
  1

  0
SPLINE
  5
1D4
330
1D2
100
AcDbEntity
  8
image
100
AcDbSpline
210
0.0
220
0.0
230
1.0
 70
    12
 71
     3
 72
     8
 73
     4
 74
     0
 42
0.0000000001
 43
0.0000000001
 40
0.0
 40
0.0
 40
0.0
 40
0.0
 40
1.0
 40
1.0
 40
1.0
 40
1.0
 10
-0.058442705309758
 20
0.2928882647095534
 30
0.0000000045
 41
1.0
 10
-0.0556630147670987
 20
0.3028219098542211
 30
0.0000000045
 41
1.0
 10
-0.0479179434003134
 20
0.3109649037260755
 30
0.0000000045
 41
1.0
 10
-0.0372576571594316
 20
0.3119568264923354
 30
0.0000000045
 41
1.0
  0
SPLINE
  5
1D5
330
1D2
100
AcDbEntity
  8
image
100
AcDbSpline
210
0.0
220
0.0
230
1.0
 70
    12
 71
     3
 72
     8
 73
     4
 74
     0
 42
0.0000000001
 43
0.0000000001
 40
0.0
 40
0.0
 40
0.0
 40
0.0
 40
1.0
 40
1.0
 40
1.0
 40
1.0
 10
-0.0372576571594316
 20
0.3119568264923354
 30
0.0000000045
 41
1.0
 10
-0.0136879574751032
 20
0.313283234842566
 30
0.0000000045
 41
1.0
 10
0.0090195767815731
 20
0.301429181086478
 30
0.0000000045
 41
1.0
 10
0.0191521831787753
 20
0.2807083758587341
 30
0.0000000045
 41
1.0
  0
SPLINE
  5
1D6
330
1D2
100
AcDbEntity
  8
image
100
AcDbSpline
210
0.0
220
0.0
230
1.0
 70
    12
 71
     3
 72
     8
 73
     4
 74
     0
 42
0.0000000001
 43
0.0000000001
 40
0.0
 40
0.0
 40
0.0
 40
0.0
 40
1.0
 40
1.0
 40
1.0
 40
1.0
 10
0.0191521831787753
 20
0.2807083758587341
 30
0.0000000045
 41
1.0
 10
0.0206054653712009
 20
0.2772625976445449
 30
0.0000000045
 41
1.0
 10
0.0223297962265026
 20
0.2726893723326613
 30
0.0000000045
 41
1.0
 10
0.0223297962265026
 20
0.2676634380838498
 30
0.0000000045
 41
1.0
  0
SPLINE
  5
1D7
330
1D2
100
AcDbEntity
  8
image
100
AcDbSpline
210
0.0
220
0.0
230
1.0
 70
    12
 71
     3
 72
     8
 73
     4
 74
     0
 42
0.0000000001
 43
0.0000000001
 40
0.0
 40
0.0
 40
0.0
 40
0.0
 40
1.0
 40
1.0
 40
1.0
 40
1.0
 10
-0.0351382872954762
 20
0.2841483870800951
 30
0.0000000045
 41
1.0
 10
-0.0246135253860334
 20
0.2872625632067249
 30
0.0000000045
 41
1.0
 10
-0.0146164433202669
 20
0.2826922213912537
 30
0.0000000045
 41
1.0
 10
-0.0062687212030519
 20
0.2772625976445449
 30
0.0000000045
 41
1.0
  0
SPLINE
  5
1D8
330
1D2
100
AcDbEntity
  8
image
100
AcDbSpline
210
0.0
220
0.0
230
1.0
 70
    12
 71
     3
 72
     8
 73
     4
 74
     0
 42
0.0000000001
 43
0.0000000001
 40
0.0
 40
0.0
 40
0.0
 40
0.0
 40
1.0
 40
1.0
 40
1.0
 40
1.0
 10
-0.0062687212030519
 20
0.2772625976445449
 30
0.0000000045
 41
1.0
 10
0.0007439420746937
 20
0.2722308964029079
 30
0.0000000045
 41
1.0
 10
0.0022029912599484
 20
0.2636236596084718
 30
0.0000000045
 41
1.0
 10
0.0016724279198574
 20
0.2552817044840818
 30
0.0000000045
 41
1.0
  0
SPLINE
  5
1D9
330
1D2
100
AcDbEntity
  8
image
100
AcDbSpline
210
0.0
220
0.0
230
1.0
 70
    12
 71
     3
 72
     8
 73
     4
 74
     0
 42
0.0000000001
 43
0.0000000001
 40
0.0
 40
0.0
 40
0.0
 40
0.0
 40
1.0
 40
1.0
 40
1.0
 40
1.0
 10
-0.0399047068670666
 20
0.2722308964029079
 30
0.0000000045
 41
1.0
 10
-0.0408995131297418
 20
0.276403315713309
 30
0.0000000045
 41
1.0
 10
-0.0399047068670666
 20
0.2821616580511605
 30
0.0000000045
 41
1.0
 10
-0.0351382872954762
 20
0.2841483870800951
 30
0.0000000045
 41
1.0
  0
SPLINE
  5
1DA
330
1D2
100
AcDbEntity
  8
image
100
AcDbSpline
210
0.0
220
0.0
230
1.0
 70
    12
 71
     3
 72
     8
 73
     4
 74
     0
 42
0.0000000001
 43
0.0000000001
 40
0.0
 40
0.0
 40
0.0
 40
0.0
 40
1.0
 40
1.0
 40
1.0
 40
1.0
 10
-0.0506947504465583
 20
0.2280124789011744
 30
0.0000000045
 41
1.0
 10
-0.0421999700122502
 20
0.2332460248917609
 30
0.0000000045
 41
1.0
 10
-0.0302017414354849
 20
0.2314380726404686
 30
0.0000000045
 41
1.0
 10
-0.021631990094424
 20
0.2266803035581155
 30
0.0000000045
 41
1.0
  0
SPLINE
  5
1DB
330
1D2
100
AcDbEntity
  8
image
100
AcDbSpline
210
0.0
220
0.0
230
1.0
 70
    12
 71
     3
 72
     8
 73
     4
 74
     0
 42
0.0000000001
 43
0.0000000001
 40
0.0
 40
0.0
 40
0.0
 40
0.0
 40
1.0
 40
1.0
 40
1.0
 40
1.0
 10
-0.021631990094424
 20
0.2266803035581155
 30
0.0000000045
 41
1.0
 10
-0.0125114909383788
 20
0.2216111168631016
 30
0.0000000045
 41
1.0
 10
-0.0075951295532826
 20
0.2111872773281318
 30
0.0000000045
 41
1.0
 10
-0.0057439248557838
 20
0.201253632183465
 30
0.0000000045
 41
1.0
  0
SPLINE
  5
1DC
330
1D2
100
AcDbEntity
  8
image
100
AcDbSpline
210
0.0
220
0.0
230
1.0
 70
    12
 71
     2
 72
     6
 73
     3
 74
     0
 42
0.0000000001
 43
0.0000000001
 40
0.0
 40
0.0
 40
0.0
 40
1.0
 40
1.0
 40
1.0
 10
-0.0582206760859148
 20
0.1745553388904391
 30
0.0000000045
 41
1.0
 10
-0.0594288610831915
 20
0.2011671272910585
 30
0.0000000045
 41
1.0
 10
-0.0582869965034258
 20
0.2163891048581688
 30
0.0000000045
 41
1.0
  0
SPLINE
  5
1DD
330
1D2
100
AcDbEntity
  8
image
100
AcDbSpline
210
0.0
220
0.0
230
1.0
 70
    12
 71
     3
 72
     8
 73
     4
 74
     0
 42
0.0000000001
 43
0.0000000001
 40
0.0
 40
0.0
 40
0.0
 40
0.0
 40
1.0
 40
1.0
 40
1.0
 40
1.0
 10
-0.0582869965034258
 20
0.2163891048581688
 30
0.0000000045
 41
1.0
 10
-0.058010180847726
 20
0.2200453783105463
 30
0.0000000045
 41
1.0
 10
-0.0539531013938643
 20
0.2260084488937597
 30
0.0000000045
 41
1.0
 10
-0.0506947504465583
 20
0.2280124789011744
 30
0.0000000045
 41
1.0
  0
SPLINE
  5
1DE
330
1D2
100
AcDbEntity
  8
image
100
AcDbSpline
210
0.0
220
0.0
230
1.0
 70
    12
 71
     3
 72
     8
 73
     4
 74
     0
 42
0.0000000001
 43
0.0000000001
 40
0.0
 40
0.0
 40
0.0
 40
0.0
 40
1.0
 40
1.0
 40
1.0
 40
1.0
 10
-0.0345471705306997
 20
0.204313021878237
 30
0.0000000045
 41
1.0
 10
-0.030850528128533
 20
0.2037911090273861
 30
0.0000000045
 41
1.0
 10
-0.0241867679168273
 20
0.2014554769324119
 30
0.0000000045
 41
1.0
 10
-0.0234687773098554
 20
0.1960662221354941
 30
0.0000000045
 41
1.0
  0
SPLINE
  5
1DF
330
1D2
100
AcDbEntity
  8
image
100
AcDbSpline
210
0.0
220
0.0
230
1.0
 70
    12
 71
     2
 72
     6
 73
     3
 74
     0
 42
0.0000000001
 43
0.0000000001
 40
0.0
 40
0.0
 40
0.0
 40
1.0
 40
1.0
 40
1.0
 10
-0.0234687773098554
 20
0.1960662221354941
 30
0.0000000045
 41
1.0
 10
-0.0227104177530921
 20
0.1903799672079804
 30
0.0000000045
 41
1.0
 10
-0.0229555149482432
 20
0.1824070996245277
 30
0.0000000045
 41
1.0
  0
SPLINE
  5
1E0
330
1D2
100
AcDbEntity
  8
image
100
AcDbSpline
210
0.0
220
0.0
230
1.0
 70
    12
 71
     3
 72
     8
 73
     4
 74
     0
 42
0.0000000001
 43
0.0000000001
 40
0.0
 40
0.0
 40
0.0
 40
0.0
 40
1.0
 40
1.0
 40
1.0
 40
1.0
 10
-0.0393770270233902
 20
0.1895581707301206
 30
0.0000000045
 41
1.0
 10
-0.0395385028225479
 20
0.1941371630348323
 30
0.0000000045
 41
1.0
 10
-0.0407236198485137
 20
0.2051867212915424
 30
0.0000000045
 41
1.0
 10
-0.0345471705306997
 20
0.204313021878237
 30
0.0000000045
 41
1.0
  0
SPLINE
  5
1E1
330
1D2
100
AcDbEntity
  8
image
100
AcDbSpline
210
0.0
220
0.0
230
1.0
 70
    12
 71
     3
 72
     8
 73
     4
 74
     0
 42
0.0000000001
 43
0.0000000001
 40
0.0
 40
0.0
 40
0.0
 40
0.0
 40
1.0
 40
1.0
 40
1.0
 40
1.0
 10
-0.085804202777898
 20
0.1020123361184408
 30
0.0000000045
 41
1.0
 10
-0.085804202777898
 20
0.1083156592784533
 30
0.0000000045
 41
1.0
 10
-0.0788261414571157
 20
0.1144661571285468
 30
0.0000000045
 41
1.0
 10
-0.0730101291909935
 20
0.1159771092492461
 30
0.0000000045
 41
1.0
  0
SPLINE
  5
1E2
330
1D2
100
AcDbEntity
  8
image
100
AcDbSpline
210
0.0
220
0.0
230
1.0
 70
    12
 71
     3
 72
     8
 73
     4
 74
     0
 42
0.0000000001
 43
0.0000000001
 40
0.0
 40
0.0
 40
0.0
 40
0.0
 40
1.0
 40
1.0
 40
1.0
 40
1.0
 10
-0.0730101291909935
 20
0.1159771092492461
 30
0.0000000045
 41
1.0
 10
-0.0681629717198211
 20
0.1172371971819652
 30
0.0000000045
 41
1.0
 10
-0.062571872173955
 20
0.1176754886368254
 30
0.0000000045
 41
1.0
 10
-0.0571191804559388
 20
0.1166316629351201
 30
0.0000000045
 41
1.0
  0
SPLINE
  5
1E3
330
1D2
100
AcDbEntity
  8
image
100
AcDbSpline
210
0.0
220
0.0
230
1.0
 70
    12
 71
     3
 72
     8
 73
     4
 74
     0
 42
0.0000000001
 43
0.0000000001
 40
0.0
 40
0.0
 40
0.0
 40
0.0
 40
1.0
 40
1.0
 40
1.0
 40
1.0
 10
-0.0571191804559388
 20
0.1166316629351201
 30
0.0000000045
 41
1.0
 10
-0.0457755055650471
 20
0.1144603901357204
 30
0.0000000045
 41
1.0
 10
-0.0342703548749999
 20
0.108595358430569
 30
0.0000000045
 41
1.0
 10
-0.0282496143635132
 20
0.0950544592725526
 30
0.0000000045
 41
1.0
  0
SPLINE
  5
1E4
330
1D2
100
AcDbEntity
  8
image
100
AcDbSpline
210
0.0
220
0.0
230
1.0
 70
    12
 71
     3
 72
     8
 73
     4
 74
     0
 42
0.0000000001
 43
0.0000000001
 40
0.0
 40
0.0
 40
0.0
 40
0.0
 40
1.0
 40
1.0
 40
1.0
 40
1.0
 10
-0.0282496143635132
 20
0.0950544592725526
 30
0.0000000045
 41
1.0
 10
-0.0259370502398491
 20
0.096060799520882
 30
0.0000000045
 41
1.0
 10
-0.0229410974661755
 20
0.0967759066314402
 30
0.0000000045
 41
1.0
 10
-0.0203084652406083
 20
0.0977043924766026
 30
0.0000000045
 41
1.0
  0
SPLINE
  5
1E5
330
1D2
100
AcDbEntity
  8
image
100
AcDbSpline
210
0.0
220
0.0
230
1.0
 70
    12
 71
     3
 72
     8
 73
     4
 74
     0
 42
0.0000000001
 43
0.0000000001
 40
0.0
 40
0.0
 40
0.0
 40
0.0
 40
1.0
 40
1.0
 40
1.0
 40
1.0
 10
-0.0203084652406083
 20
0.0977043924766026
 30
0.0000000045
 41
1.0
 10
-0.0088350330111049
 20
0.1017441709519806
 30
0.0000000045
 41
1.0
 10
0.0031458945871781
 20
0.0973439554249094
 30
0.0000000045
 41
1.0
 10
0.0112052670630414
 20
0.0902880397009609
 30
0.0000000045
 41
1.0
  0
SPLINE
  5
1E6
330
1D2
100
AcDbEntity
  8
image
100
AcDbSpline
210
0.0
220
0.0
230
1.0
 70
    12
 71
     3
 72
     8
 73
     4
 74
     0
 42
0.0000000001
 43
0.0000000001
 40
0.0
 40
0.0
 40
0.0
 40
0.0
 40
1.0
 40
1.0
 40
1.0
 40
1.0
 10
0.0112052670630414
 20
0.0902880397009609
 30
0.0000000045
 41
1.0
 10
0.0180420370595593
 20
0.0843019011464392
 30
0.0000000045
 41
1.0
 10
0.0223355632193285
 20
0.0743509550232915
 30
0.0000000045
 41
1.0
 10
0.0223355632193285
 20
0.065810038646366
 30
0.0000000045
 41
1.0
  0
SPLINE
  5
1E7
330
1D2
100
AcDbEntity
  8
image
100
AcDbSpline
210
0.0
220
0.0
230
1.0
 70
    12
 71
     3
 72
     8
 73
     4
 74
     0
 42
0.0000000001
 43
0.0000000001
 40
0.0
 40
0.0
 40
0.0
 40
0.0
 40
1.0
 40
1.0
 40
1.0
 40
1.0
 10
-0.0598729195308745
 20
0.0905129524212178
 30
0.0000000045
 41
1.0
 10
-0.0536445672776149
 20
0.0922603512478269
 30
0.0000000045
 41
1.0
 10
-0.045974466817583
 20
0.0882061552903819
 30
0.0000000045
 41
1.0
 10
-0.043318766620708
 20
0.0807552005577783
 30
0.0000000045
 41
1.0
  0
SPLINE
  5
1E8
330
1D2
100
AcDbEntity
  8
image
100
AcDbSpline
210
0.0
220
0.0
230
1.0
 70
    12
 71
     2
 72
     6
 73
     3
 74
     0
 42
0.0000000001
 43
0.0000000001
 40
0.0
 40
0.0
 40
0.0
 40
1.0
 40
1.0
 40
1.0
 10
-0.043318766620708
 20
0.0807552005577783
 30
0.0000000045
 41
1.0
 10
-0.0416549891900919
 20
0.0760897033606574
 30
0.0000000045
 41
1.0
 10
-0.0428170382447504
 20
0.0653515627166144
 30
0.0000000045
 41
1.0
  0
SPLINE
  5
1E9
330
1D2
100
AcDbEntity
  8
image
100
AcDbSpline
210
0.0
220
0.0
230
1.0
 70
    12
 71
     3
 72
     8
 73
     4
 74
     0
 42
0.0000000001
 43
0.0000000001
 40
0.0
 40
0.0
 40
0.0
 40
0.0
 40
1.0
 40
1.0
 40
1.0
 40
1.0
 10
-0.0632091248813516
 20
0.0748872853562102
 30
0.0000000045
 41
1.0
 10
-0.0634772900478096
 20
0.0809743462852071
 30
0.0000000045
 41
1.0
 10
-0.0639992028986605
 20
0.089350903366559
 30
0.0000000045
 41
1.0
 10
-0.0598729195308745
 20
0.0905129524212178
 30
0.0000000045
 41
1.0
  0
SPLINE
  5
1EA
330
1D2
100
AcDbEntity
  8
image
100
AcDbSpline
210
0.0
220
0.0
230
1.0
 70
    12
 71
     3
 72
     8
 73
     4
 74
     0
 42
0.0000000001
 43
0.0000000001
 40
0.0
 40
0.0
 40
0.0
 40
0.0
 40
1.0
 40
1.0
 40
1.0
 40
1.0
 10
-0.0172836775027983
 20
0.0738002072083042
 30
0.0000000045
 41
1.0
 10
-0.0103661696067001
 20
0.0750574116446092
 30
0.0000000045
 41
1.0
 10
-0.0028575449458255
 20
0.070582225210786
 30
0.0000000045
 41
1.0
 10
-0.00000865048924
 20
0.0647546789590097
 30
0.0000000045
 41
1.0
  0
SPLINE
  5
1EB
330
1D2
100
AcDbEntity
  8
image
100
AcDbSpline
210
0.0
220
0.0
230
1.0
 70
    12
 71
     2
 72
     6
 73
     3
 74
     0
 42
0.0000000001
 43
0.0000000001
 40
0.0
 40
0.0
 40
0.0
 40
1.0
 40
1.0
 40
1.0
 10
-0.00000865048924
 20
0.0647546789590097
 30
0.0000000045
 41
1.0
 10
0.0026383992183949
 20
0.0593913756298115
 30
0.0000000045
 41
1.0
 10
0.0014071462498091
 20
0.0460609717099887
 30
0.0000000045
 41
1.0
  0
SPLINE
  5
1EC
330
1D2
100
AcDbEntity
  8
image
100
AcDbSpline
210
0.0
220
0.0
230
1.0
 70
    12
 71
     3
 72
     8
 73
     4
 74
     0
 42
0.0000000001
 43
0.0000000001
 40
0.0
 40
0.0
 40
0.0
 40
0.0
 40
1.0
 40
1.0
 40
1.0
 40
1.0
 10
-0.021631990094424
 20
0.0563896558633115
 30
0.0000000045
 41
1.0
 10
-0.0216377570872495
 20
0.061415590112123
 30
0.0000000045
 41
1.0
 10
-0.0224480195794596
 20
0.0728601873774872
 30
0.0000000045
 41
1.0
 10
-0.0172836775027983
 20
0.0738002072083042
 30
0.0000000045
 41
1.0
  0
SPLINE
  5
1ED
330
1D2
100
AcDbEntity
  8
image
100
AcDbSpline
210
0.0
220
0.0
230
1.0
 70
    12
 71
     3
 72
     8
 73
     4
 74
     0
 42
0.0000000001
 43
0.0000000001
 40
0.0
 40
0.0
 40
0.0
 40
0.0
 40
1.0
 40
1.0
 40
1.0
 40
1.0
 10
-0.0759224605686755
 20
-0.3405957128716812
 30
0.0000000045
 41
1.0
 10
-0.0655764754368717
 20
-0.3334763602266335
 30
0.0000000045
 41
1.0
 10
-0.0486244000216338
 20
-0.3348402540302402
 30
0.0000000045
 41
1.0
 10
-0.0380535021695709
 20
-0.3405957128716812
 30
0.0000000045
 41
1.0
  0
SPLINE
  5
1EE
330
1D2
100
AcDbEntity
  8
image
100
AcDbSpline
210
0.0
220
0.0
230
1.0
 70
    12
 71
     3
 72
     8
 73
     4
 74
     0
 42
0.0000000001
 43
0.0000000001
 40
0.0
 40
0.0
 40
0.0
 40
0.0
 40
1.0
 40
1.0
 40
1.0
 40
1.0
 10
-0.0380535021695709
 20
-0.3405957128716812
 30
0.0000000045
 41
1.0
 10
-0.0240598940746302
 20
-0.3482167938926848
 30
0.0000000045
 41
1.0
 10
-0.0177940563679942
 20
-0.3633753345386959
 30
0.0000000045
 41
1.0
 10
-0.0160726090091088
 20
-0.3782051565935642
 30
0.0000000045
 41
1.0
  0
SPLINE
  5
1EF
330
1D2
100
AcDbEntity
  8
image
100
AcDbSpline
210
0.0
220
0.0
230
1.0
 70
    12
 71
     2
 72
     6
 73
     3
 74
     0
 42
0.0000000001
 43
0.0000000001
 40
0.0
 40
0.0
 40
0.0
 40
1.0
 40
1.0
 40
1.0
 10
-0.085804202777898
 20
-0.4031387500815003
 30
0.0000000045
 41
1.0
 10
-0.0855764065612292
 20
-0.3754802524827641
 30
0.0000000045
 41
1.0
 10
-0.0862482612255842
 20
-0.3589578180331436
 30
0.0000000045
 41
1.0
  0
SPLINE
  5
1F0
330
1D2
100
AcDbEntity
  8
image
100
AcDbSpline
210
0.0
220
0.0
230
1.0
 70
    12
 71
     3
 72
     8
 73
     4
 74
     0
 42
0.0000000001
 43
0.0000000001
 40
0.0
 40
0.0
 40
0.0
 40
0.0
 40
1.0
 40
1.0
 40
1.0
 40
1.0
 10
-0.0862482612255842
 20
-0.3589578180331436
 30
0.0000000045
 41
1.0
 10
-0.086527960377699
 20
-0.3521181645402116
 30
0.0000000045
 41
1.0
 10
-0.0819259001016772
 20
-0.3447306467287063
 30
0.0000000045
 41
1.0
 10
-0.0759224605686755
 20
-0.3405957128716812
 30
0.0000000045
 41
1.0
  0
SPLINE
  5
1F1
330
1D2
100
AcDbEntity
  8
image
100
AcDbSpline
210
0.0
220
0.0
230
1.0
 70
    12
 71
     2
 72
     6
 73
     3
 74
     0
 42
0.0000000001
 43
0.0000000001
 40
0.0
 40
0.0
 40
0.0
 40
1.0
 40
1.0
 40
1.0
 10
-0.0393770270233902
 20
-0.3941393577748222
 30
0.0000000045
 41
1.0
 10
-0.0389185510936363
 20
-0.3809675461577422
 30
0.0000000045
 41
1.0
 10
-0.0409658335472529
 20
-0.3750707959920403
 30
0.0000000045
 41
1.0
  0
SPLINE
  5
1F2
330
1D2
100
AcDbEntity
  8
image
100
AcDbSpline
210
0.0
220
0.0
230
1.0
 70
    12
 71
     3
 72
     8
 73
     4
 74
     0
 42
0.0000000001
 43
0.0000000001
 40
0.0
 40
0.0
 40
0.0
 40
0.0
 40
1.0
 40
1.0
 40
1.0
 40
1.0
 10
-0.0409658335472529
 20
-0.3750707959920403
 30
0.0000000045
 41
1.0
 10
-0.0421797855373569
 20
-0.3715702313459941
 30
0.0000000045
 41
1.0
 10
-0.0459715833211685
 20
-0.3669912390412824
 30
0.0000000045
 41
1.0
 10
-0.0502305075239789
 20
-0.3655350733524418
 30
0.0000000045
 41
1.0
  0
SPLINE
  5
1F3
330
1D2
100
AcDbEntity
  8
image
100
AcDbSpline
210
0.0
220
0.0
230
1.0
 70
    12
 71
     3
 72
     8
 73
     4
 74
     0
 42
0.0000000001
 43
0.0000000001
 40
0.0
 40
0.0
 40
0.0
 40
0.0
 40
1.0
 40
1.0
 40
1.0
 40
1.0
 10
-0.0502305075239789
 20
-0.3655350733524418
 30
0.0000000045
 41
1.0
 10
-0.0529323436634703
 20
-0.3646123545001059
 30
0.0000000045
 41
1.0
 10
-0.0564732772593053
 20
-0.3643960922690912
 30
0.0000000045
 41
1.0
 10
-0.0592385503198973
 20
-0.3658032385189012
 30
0.0000000045
 41
1.0
  0
SPLINE
  5
1F4
330
1D2
100
AcDbEntity
  8
image
100
AcDbSpline
210
0.0
220
0.0
230
1.0
 70
    12
 71
     3
 72
     8
 73
     4
 74
     0
 42
0.0000000001
 43
0.0000000001
 40
0.0
 40
0.0
 40
0.0
 40
0.0
 40
1.0
 40
1.0
 40
1.0
 40
1.0
 10
-0.0592385503198973
 20
-0.3658032385189012
 30
0.0000000045
 41
1.0
 10
-0.0649132712617568
 20
-0.3686925019252758
 30
0.0000000045
 41
1.0
 10
-0.0631860569100407
 20
-0.3763770198673768
 30
0.0000000045
 41
1.0
 10
-0.0632091248813516
 20
-0.3824871487676811
 30
0.0000000045
 41
1.0
  0
SPLINE
  5
1F5
330
1D2
100
AcDbEntity
  8
image
100
AcDbSpline
210
0.0
220
0.0
230
1.0
 70
    12
 71
     3
 72
     8
 73
     4
 74
     0
 42
0.0000000001
 43
0.0000000001
 40
0.0
 40
0.0
 40
0.0
 40
0.0
 40
1.0
 40
1.0
 40
1.0
 40
1.0
 10
-0.0842125127576208
 20
-0.0068857894355503
 30
0.0000000045
 41
1.0
 10
-0.0796825398919392
 20
-0.0028517779529977
 30
0.0000000045
 41
1.0
 10
-0.0738867121007116
 20
-0.0025172923690278
 30
0.0000000045
 41
1.0
 10
-0.0688550108590742
 20
-0.0047664195715935
 30
0.0000000045
 41
1.0
  0
SPLINE
  5
1F6
330
1D2
100
AcDbEntity
  8
image
100
AcDbSpline
210
0.0
220
0.0
230
1.0
 70
    12
 71
     3
 72
     8
 73
     4
 74
     0
 42
0.0000000001
 43
0.0000000001
 40
0.0
 40
0.0
 40
0.0
 40
0.0
 40
1.0
 40
1.0
 40
1.0
 40
1.0
 10
-0.0688550108590742
 20
-0.0047664195715935
 30
0.0000000045
 41
1.0
 10
-0.0574017631044677
 20
-0.0103286841533246
 30
0.0000000045
 41
1.0
 10
-0.0471393993686555
 20
-0.0205247274716252
 30
0.0000000045
 41
1.0
 10
-0.0349566270214226
 20
-0.0238349813543764
 30
0.0000000045
 41
1.0
  0
SPLINE
  5
1F7
330
1D2
100
AcDbEntity
  8
image
100
AcDbSpline
210
0.0
220
0.0
230
1.0
 70
    12
 71
     3
 72
     8
 73
     4
 74
     0
 42
0.0000000001
 43
0.0000000001
 40
0.0
 40
0.0
 40
0.0
 40
0.0
 40
1.0
 40
1.0
 40
1.0
 40
1.0
 10
-0.0349566270214226
 20
-0.0238349813543764
 30
0.0000000045
 41
1.0
 10
-0.0311821302160897
 20
-0.0223124952480225
 30
0.0000000045
 41
1.0
 10
-0.0272086721582228
 20
-0.0190022413652704
 30
0.0000000045
 41
1.0
 10
-0.0270097109056886
 20
-0.0142992587147779
 30
0.0000000045
 41
1.0
  0
SPLINE
  5
1F8
330
1D2
100
AcDbEntity
  8
image
100
AcDbSpline
210
0.0
220
0.0
230
1.0
 70
    12
 71
     3
 72
     8
 73
     4
 74
     0
 42
0.0000000001
 43
0.0000000001
 40
0.0
 40
0.0
 40
0.0
 40
0.0
 40
1.0
 40
1.0
 40
1.0
 40
1.0
 10
-0.0270097109056886
 20
-0.0142992587147779
 30
0.0000000045
 41
1.0
 10
-0.0272086721582228
 20
-0.0091349166381161
 30
0.0000000045
 41
1.0
 10
-0.0242329038594438
 20
-0.0039734580578683
 30
0.0000000045
 41
1.0
 10
-0.0198615232965072
 20
-0.0010582431837731
 30
0.0000000045
 41
1.0
  0
SPLINE
  5
1F9
330
1D2
100
AcDbEntity
  8
image
100
AcDbSpline
210
0.0
220
0.0
230
1.0
 70
    12
 71
     3
 72
     8
 73
     4
 74
     0
 42
0.0000000001
 43
0.0000000001
 40
0.0
 40
0.0
 40
0.0
 40
0.0
 40
1.0
 40
1.0
 40
1.0
 40
1.0
 10
-0.0198615232965072
 20
-0.0010582431837731
 30
0.0000000045
 41
1.0
 10
-0.0162196673262005
 20
0.0019204086114195
 30
0.0000000045
 41
1.0
 10
-0.0107929270759062
 20
-0.0011937675152103
 30
0.0000000045
 41
1.0
 10
-0.0079440326193212
 20
0.0031776130477272
 30
0.0000000045
 41
1.0
  0
SPLINE
  5
1FA
330
1D2
100
AcDbEntity
  8
image
100
AcDbSpline
210
0.0
220
0.0
230
1.0
 70
    12
 71
     3
 72
     8
 73
     4
 74
     0
 42
0.0000000001
 43
0.0000000001
 40
0.0
 40
0.0
 40
0.0
 40
0.0
 40
1.0
 40
1.0
 40
1.0
 40
1.0
 10
-0.0079440326193212
 20
0.0031776130477272
 30
0.0000000045
 41
1.0
 10
-0.0056257015028298
 20
0.0045674583190563
 30
0.0000000045
 41
1.0
 10
-0.0052969829116845
 20
0.0078805956982198
 30
0.0000000045
 41
1.0
 10
-0.002912331377682
 20
0.0084745959594112
 30
0.0000000045
 41
1.0
  0
SPLINE
  5
1FB
330
1D2
100
AcDbEntity
  8
image
100
AcDbSpline
210
0.0
220
0.0
230
1.0
 70
    12
 71
     3
 72
     8
 73
     4
 74
     0
 42
0.0000000001
 43
0.0000000001
 40
0.0
 40
0.0
 40
0.0
 40
0.0
 40
1.0
 40
1.0
 40
1.0
 40
1.0
 10
-0.002912331377682
 20
0.0084745959594112
 30
0.0000000045
 41
1.0
 10
-0.0006603206787039
 20
0.0052335459905848
 30
0.0000000045
 41
1.0
 10
-0.0067531486005246
 20
-0.0013235248538193
 30
0.0000000045
 41
1.0
 10
0.0
 20
0.0
 30
0.0000000045
 41
1.0
  0
SPLINE
  5
1FC
330
1D2
100
AcDbEntity
  8
image
100
AcDbSpline
210
0.0
220
0.0
230
1.0
 70
    12
 71
     3
 72
     8
 73
     4
 74
     0
 42
0.0000000001
 43
0.0000000001
 40
0.0
 40
0.0
 40
0.0
 40
0.0
 40
1.0
 40
1.0
 40
1.0
 40
1.0
 10
0.0
 20
0.0
 30
0.0000000045
 41
1.0
 10
0.0006632041751149
 20
0.0
 30
0.0000000045
 41
1.0
 10
-0.00747978969674
 20
-0.0098673247271561
 30
0.0000000045
 41
1.0
 10
-0.0105939658233703
 20
-0.0153603853949607
 30
0.0000000045
 41
1.0
  0
SPLINE
  5
1FD
330
1D2
100
AcDbEntity
  8
image
100
AcDbSpline
210
0.0
220
0.0
230
1.0
 70
    12
 71
     3
 72
     8
 73
     4
 74
     0
 42
0.0000000001
 43
0.0000000001
 40
0.0
 40
0.0
 40
0.0
 40
0.0
 40
1.0
 40
1.0
 40
1.0
 40
1.0
 10
-0.0105939658233703
 20
-0.0153603853949607
 30
0.0000000045
 41
1.0
 10
-0.0139705401236321
 20
-0.0207900091416695
 30
0.0000000045
 41
1.0
 10
-0.0147635016373569
 20
-0.0273470799860736
 30
0.0000000045
 41
1.0
 10
-0.0142992587147775
 20
-0.033370703993973
 30
0.0000000045
 41
1.0
  0
SPLINE
  5
1FE
330
1D2
100
AcDbEntity
  8
image
100
AcDbSpline
210
0.0
220
0.0
230
1.0
 70
    12
 71
     3
 72
     8
 73
     4
 74
     0
 42
0.0000000001
 43
0.0000000001
 40
0.0
 40
0.0
 40
0.0
 40
0.0
 40
1.0
 40
1.0
 40
1.0
 40
1.0
 10
-0.0142992587147775
 20
-0.033370703993973
 30
0.0000000045
 41
1.0
 10
-0.0110553252495387
 20
-0.0425719410495988
 30
0.0000000045
 41
1.0
 10
-0.0012572044363077
 20
-0.0476036422912376
 30
0.0000000045
 41
1.0
 10
0.0055622645817297
 20
-0.0532322272904802
 30
0.0000000045
 41
1.0
  0
SPLINE
  5
1FF
330
1D2
100
AcDbEntity
  8
image
100
AcDbSpline
210
0.0
220
0.0
230
1.0
 70
    12
 71
     3
 72
     8
 73
     4
 74
     0
 42
0.0000000001
 43
0.0000000001
 40
0.0
 40
0.0
 40
0.0
 40
0.0
 40
1.0
 40
1.0
 40
1.0
 40
1.0
 10
0.0055622645817297
 20
-0.0532322272904802
 30
0.0000000045
 41
1.0
 10
0.0115858885896278
 20
-0.0576036078534168
 30
0.0000000045
 41
1.0
 10
0.0199278437140182
 20
-0.0630274646072966
 30
0.0000000045
 41
1.0
 10
0.0193309599564144
 20
-0.0715049440631237
 30
0.0000000045
 41
1.0
  0
SPLINE
  5
200
330
1D2
100
AcDbEntity
  8
image
100
AcDbSpline
210
0.0
220
0.0
230
1.0
 70
    12
 71
     3
 72
     8
 73
     4
 74
     0
 42
0.0000000001
 43
0.0000000001
 40
0.0
 40
0.0
 40
0.0
 40
0.0
 40
1.0
 40
1.0
 40
1.0
 40
1.0
 10
0.0193309599564144
 20
-0.0715049440631237
 30
0.0000000045
 41
1.0
 10
0.0158246283175432
 20
-0.0886530972344835
 30
0.0000000045
 41
1.0
 10
0.0018569716903225
 20
-0.1013001125042967
 30
0.0000000045
 41
1.0
 10
-0.0058246627553658
 20
-0.116262575394189
 30
0.0000000045
 41
1.0
  0
SPLINE
  5
201
330
1D2
100
AcDbEntity
  8
image
100
AcDbSpline
210
0.0
220
0.0
230
1.0
 70
    12
 71
     3
 72
     8
 73
     4
 74
     0
 42
0.0000000001
 43
0.0000000001
 40
0.0
 40
0.0
 40
0.0
 40
0.0
 40
1.0
 40
1.0
 40
1.0
 40
1.0
 10
-0.0058246627553658
 20
-0.116262575394189
 30
0.0000000045
 41
1.0
 10
-0.0097981208132309
 20
-0.1210953153832914
 30
0.0000000045
 41
1.0
 10
-0.0139705401236321
 20
-0.1273207841401396
 30
0.0000000045
 41
1.0
 10
-0.0164186285787329
 20
-0.1334770489830603
 30
0.0000000045
 41
1.0
  0
SPLINE
  5
202
330
1D2
100
AcDbEntity
  8
image
100
AcDbSpline
210
0.0
220
0.0
230
1.0
 70
    12
 71
     3
 72
     8
 73
     4
 74
     0
 42
0.0000000001
 43
0.0000000001
 40
0.0
 40
0.0
 40
0.0
 40
0.0
 40
1.0
 40
1.0
 40
1.0
 40
1.0
 10
-0.0164186285787329
 20
-0.1334770489830603
 30
0.0000000045
 41
1.0
 10
-0.0170155123363367
 20
-0.1340047288267394
 30
0.0000000045
 41
1.0
 10
-0.0177421534325517
 20
-0.135065855506924
 30
0.0000000045
 41
1.0
 10
-0.0185379984426897
 20
-0.1342671270003715
 30
0.0000000045
 41
1.0
  0
SPLINE
  5
203
330
1D2
100
AcDbEntity
  8
image
100
AcDbSpline
210
0.0
220
0.0
230
1.0
 70
    12
 71
     3
 72
     8
 73
     4
 74
     0
 42
0.0000000001
 43
0.0000000001
 40
0.0
 40
0.0
 40
0.0
 40
0.0
 40
1.0
 40
1.0
 40
1.0
 40
1.0
 10
-0.0185379984426897
 20
-0.1342671270003715
 30
0.0000000045
 41
1.0
 10
-0.020787125645255
 20
-0.129901513430263
 30
0.0000000045
 41
1.0
 10
-0.018935920947758
 20
-0.1249361326061367
 30
0.0000000045
 41
1.0
 10
-0.0180074351025987
 20
-0.1202360334520556
 30
0.0000000045
 41
1.0
  0
SPLINE
  5
204
330
1D2
100
AcDbEntity
  8
image
100
AcDbSpline
210
0.0
220
0.0
230
1.0
 70
    12
 71
     3
 72
     8
 73
     4
 74
     0
 42
0.0000000001
 43
0.0000000001
 40
0.0
 40
0.0
 40
0.0
 40
0.0
 40
1.0
 40
1.0
 40
1.0
 40
1.0
 10
-0.0180074351025987
 20
-0.1202360334520556
 30
0.0000000045
 41
1.0
 10
-0.0180737555201072
 20
-0.1168565756553788
 30
0.0000000045
 41
1.0
 10
-0.0144347830462128
 20
-0.1140105646952092
 30
0.0000000045
 41
1.0
 10
-0.0161504634122731
 20
-0.1109655924825041
 30
0.0000000045
 41
1.0
  0
SPLINE
  5
205
330
1D2
100
AcDbEntity
  8
image
100
AcDbSpline
210
0.0
220
0.0
230
1.0
 70
    12
 71
     3
 72
     8
 73
     4
 74
     0
 42
0.0000000001
 43
0.0000000001
 40
0.0
 40
0.0
 40
0.0
 40
0.0
 40
1.0
 40
1.0
 40
1.0
 40
1.0
 10
-0.0161504634122731
 20
-0.1109655924825041
 30
0.0000000045
 41
1.0
 10
-0.0190656782863679
 20
-0.1108992720649926
 30
0.0000000045
 41
1.0
 10
-0.0195962416264619
 20
-0.1175197798304941
 30
0.0000000045
 41
1.0
 10
-0.0219808931604644
 20
-0.1128196806764157
 30
0.0000000045
 41
1.0
  0
SPLINE
  5
206
330
1D2
100
AcDbEntity
  8
image
100
AcDbSpline
210
0.0
220
0.0
230
1.0
 70
    12
 71
     3
 72
     8
 73
     4
 74
     0
 42
0.0000000001
 43
0.0000000001
 40
0.0
 40
0.0
 40
0.0
 40
0.0
 40
1.0
 40
1.0
 40
1.0
 40
1.0
 10
-0.0219808931604644
 20
-0.1128196806764157
 30
0.0000000045
 41
1.0
 10
-0.0219145727429528
 20
-0.1077245425136777
 30
0.0000000045
 41
1.0
 10
-0.0202594458015768
 20
-0.102623637358116
 30
0.0000000045
 41
1.0
 10
-0.0182727167726427
 20
-0.0979898586215464
 30
0.0000000045
 41
1.0
  0
SPLINE
  5
207
330
1D2
100
AcDbEntity
  8
image
100
AcDbSpline
210
0.0
220
0.0
230
1.0
 70
    12
 71
     3
 72
     8
 73
     4
 74
     0
 42
0.0000000001
 43
0.0000000001
 40
0.0
 40
0.0
 40
0.0
 40
0.0
 40
1.0
 40
1.0
 40
1.0
 40
1.0
 10
-0.0182727167726427
 20
-0.0979898586215464
 30
0.0000000045
 41
1.0
 10
-0.0200604845490413
 20
-0.0952072845824725
 30
0.0000000045
 41
1.0
 10
-0.0222461748305096
 20
-0.0999765876504784
 30
0.0000000045
 41
1.0
 10
-0.0246279428680993
 20
-0.10010634498909
 30
0.0000000045
 41
1.0
  0
SPLINE
  5
208
330
1D2
100
AcDbEntity
  8
image
100
AcDbSpline
210
0.0
220
0.0
230
1.0
 70
    12
 71
     3
 72
     8
 73
     4
 74
     0
 42
0.0000000001
 43
0.0000000001
 40
0.0
 40
0.0
 40
0.0
 40
0.0
 40
1.0
 40
1.0
 40
1.0
 40
1.0
 10
-0.0246279428680993
 20
-0.10010634498909
 30
0.0000000045
 41
1.0
 10
-0.025556428713263
 20
-0.1000429080679899
 30
0.0000000045
 41
1.0
 10
-0.0264820310620109
 20
-0.0999765876504784
 30
0.0000000045
 41
1.0
 10
-0.0270097109056886
 20
-0.0990481018053178
 30
0.0000000045
 41
1.0
  0
SPLINE
  5
209
330
1D2
100
AcDbEntity
  8
image
100
AcDbSpline
210
0.0
220
0.0
230
1.0
 70
    12
 71
     3
 72
     8
 73
     4
 74
     0
 42
0.0000000001
 43
0.0000000001
 40
0.0
 40
0.0
 40
0.0
 40
0.0
 40
1.0
 40
1.0
 40
1.0
 40
1.0
 10
-0.0270097109056886
 20
-0.0990481018053178
 30
0.0000000045
 41
1.0
 10
-0.0262167493919638
 20
-0.0929552738834945
 30
0.0000000045
 41
1.0
 10
-0.0233678549353802
 20
-0.0876582909718087
 30
0.0000000045
 41
1.0
 10
-0.0225114565005566
 20
-0.0815683465463995
 30
0.0000000045
 41
1.0
  0
SPLINE
  5
20A
330
1D2
100
AcDbEntity
  8
image
100
AcDbSpline
210
0.0
220
0.0
230
1.0
 70
    12
 71
     3
 72
     8
 73
     4
 74
     0
 42
0.0000000001
 43
0.0000000001
 40
0.0
 40
0.0
 40
0.0
 40
0.0
 40
1.0
 40
1.0
 40
1.0
 40
1.0
 10
-0.0288637990995988
 20
-0.0844806779240823
 30
0.0000000045
 41
1.0
 10
-0.0317126935561838
 20
-0.0848786004291515
 30
0.0000000045
 41
1.0
 10
-0.0301238870323206
 20
-0.0813030648763533
 30
0.0000000045
 41
1.0
 10
-0.030190207449829
 20
-0.0799795400225358
 30
0.0000000045
 41
1.0
  0
SPLINE
  5
20B
330
1D2
100
AcDbEntity
  8
image
100
AcDbSpline
210
0.0
220
0.0
230
1.0
 70
    12
 71
     3
 72
     8
 73
     4
 74
     0
 42
0.0000000001
 43
0.0000000001
 40
0.0
 40
0.0
 40
0.0
 40
0.0
 40
1.0
 40
1.0
 40
1.0
 40
1.0
 10
-0.030190207449829
 20
-0.0799795400225358
 30
0.0000000045
 41
1.0
 10
-0.0294606828572026
 20
-0.0773324903149009
 30
0.0000000045
 41
1.0
 10
-0.0284053231698449
 20
-0.074815197945874
 30
0.0000000045
 41
1.0
 10
-0.0280737210822881
 20
-0.072035507403216
 30
0.0000000045
 41
1.0
  0
SPLINE
  5
20C
330
1D2
100
AcDbEntity
  8
image
100
AcDbSpline
210
0.0
220
0.0
230
1.0
 70
    12
 71
     3
 72
     8
 73
     4
 74
     0
 42
0.0000000001
 43
0.0000000001
 40
0.0
 40
0.0
 40
0.0
 40
0.0
 40
1.0
 40
1.0
 40
1.0
 40
1.0
 10
-0.0280737210822881
 20
-0.072035507403216
 30
0.0000000045
 41
1.0
 10
-0.0292617216046667
 20
-0.0697200597831387
 30
0.0000000045
 41
1.0
 10
-0.0317790139736949
 20
-0.0724334299082834
 30
0.0000000045
 41
1.0
 10
-0.0328372571574653
 20
-0.0704438173829374
 30
0.0000000045
 41
1.0
  0
SPLINE
  5
20D
330
1D2
100
AcDbEntity
  8
image
100
AcDbSpline
210
0.0
220
0.0
230
1.0
 70
    12
 71
     3
 72
     8
 73
     4
 74
     0
 42
0.0000000001
 43
0.0000000001
 40
0.0
 40
0.0
 40
0.0
 40
0.0
 40
1.0
 40
1.0
 40
1.0
 40
1.0
 10
-0.0328372571574653
 20
-0.0704438173829374
 30
0.0000000045
 41
1.0
 10
-0.0326382959049316
 20
-0.067863088092814
 30
0.0000000045
 41
1.0
 10
-0.0297288480236637
 20
-0.0646191546275743
 30
0.0000000045
 41
1.0
 10
-0.0323066938173731
 20
-0.0627650664336645
 30
0.0000000045
 41
1.0
  0
SPLINE
  5
20E
330
1D2
100
AcDbEntity
  8
image
100
AcDbSpline
210
0.0
220
0.0
230
1.0
 70
    12
 71
     3
 72
     8
 73
     4
 74
     0
 42
0.0000000001
 43
0.0000000001
 40
0.0
 40
0.0
 40
0.0
 40
0.0
 40
1.0
 40
1.0
 40
1.0
 40
1.0
 10
-0.0323066938173731
 20
-0.0627650664336645
 30
0.0000000045
 41
1.0
 10
-0.0354843068651021
 20
-0.0645528342100636
 30
0.0000000045
 41
1.0
 10
-0.037537356311546
 20
-0.0664069224039716
 30
0.0000000045
 41
1.0
 10
-0.0402536099331083
 20
-0.0688550108590738
 30
0.0000000045
 41
1.0
  0
SPLINE
  5
20F
330
1D2
100
AcDbEntity
  8
image
100
AcDbSpline
210
0.0
220
0.0
230
1.0
 70
    12
 71
     3
 72
     8
 73
     4
 74
     0
 42
0.0000000001
 43
0.0000000001
 40
0.0
 40
0.0
 40
0.0
 40
0.0
 40
1.0
 40
1.0
 40
1.0
 40
1.0
 10
-0.0402536099331083
 20
-0.0688550108590738
 30
0.0000000045
 41
1.0
 10
-0.0451497868433069
 20
-0.0726323911608207
 30
0.0000000045
 41
1.0
 10
-0.0505130901725042
 20
-0.0781283353250393
 30
0.0000000045
 41
1.0
 10
-0.0556111118316545
 20
-0.0820989098864935
 30
0.0000000045
 41
1.0
  0
SPLINE
  5
210
330
1D2
100
AcDbEntity
  8
image
100
AcDbSpline
210
0.0
220
0.0
230
1.0
 70
    12
 71
     3
 72
     8
 73
     4
 74
     0
 42
0.0000000001
 43
0.0000000001
 40
0.0
 40
0.0
 40
0.0
 40
0.0
 40
1.0
 40
1.0
 40
1.0
 40
1.0
 10
-0.0556111118316545
 20
-0.0820989098864935
 30
0.0000000045
 41
1.0
 10
-0.0627621829372505
 20
-0.0892499809920873
 30
0.0000000045
 41
1.0
 10
-0.0651468344712529
 20
-0.098583858882737
 30
0.0000000045
 41
1.0
 10
-0.0696479723727976
 20
-0.1072602995910969
 30
0.0000000045
 41
1.0
  0
SPLINE
  5
211
330
1D2
100
AcDbEntity
  8
image
100
AcDbSpline
210
0.0
220
0.0
230
1.0
 70
    12
 71
     3
 72
     8
 73
     4
 74
     0
 42
0.0000000001
 43
0.0000000001
 40
0.0
 40
0.0
 40
0.0
 40
0.0
 40
1.0
 40
1.0
 40
1.0
 40
1.0
 10
-0.0696479723727976
 20
-0.1072602995910969
 30
0.0000000045
 41
1.0
 10
-0.07428463460578
 20
-0.116129934559166
 30
0.0000000045
 41
1.0
 10
-0.0773296068184863
 20
-0.1250024530236491
 30
0.0000000045
 41
1.0
 10
-0.0823584245637124
 20
-0.1337394471566942
 30
0.0000000045
 41
1.0
  0
SPLINE
  5
212
330
1D2
100
AcDbEntity
  8
image
100
AcDbSpline
210
0.0
220
0.0
230
1.0
 70
    12
 71
     3
 72
     8
 73
     4
 74
     0
 42
0.0000000001
 43
0.0000000001
 40
0.0
 40
0.0
 40
0.0
 40
0.0
 40
1.0
 40
1.0
 40
1.0
 40
1.0
 10
-0.0823584245637124
 20
-0.1337394471566942
 30
0.0000000045
 41
1.0
 10
-0.0837511533314541
 20
-0.1361269821871112
 30
0.0000000045
 41
1.0
 10
-0.0844114740101545
 20
-0.1392353913209128
 30
0.0000000045
 41
1.0
 10
-0.0863318826215776
 20
-0.1408934017587038
 30
0.0000000045
 41
1.0
  0
SPLINE
  5
213
330
1D2
100
AcDbEntity
  8
image
100
AcDbSpline
210
0.0
220
0.0
230
1.0
 70
    12
 71
     3
 72
     8
 73
     4
 74
     0
 42
0.0000000001
 43
0.0000000001
 40
0.0
 40
0.0
 40
0.0
 40
0.0
 40
1.0
 40
1.0
 40
1.0
 40
1.0
 10
-0.0868624459616698
 20
-0.1400975567485636
 30
0.0000000045
 41
1.0
 10
-0.0847430760977113
 20
-0.1332117673130151
 30
0.0000000045
 41
1.0
 10
-0.0846104352626904
 20
-0.1264586187124888
 30
0.0000000045
 41
1.0
 10
-0.0828889879038033
 20
-0.1194430719383313
 30
0.0000000045
 41
1.0
  0
SPLINE
  5
214
330
1D2
100
AcDbEntity
  8
image
100
AcDbSpline
210
0.0
220
0.0
230
1.0
 70
    12
 71
     3
 72
     8
 73
     4
 74
     0
 42
0.0000000001
 43
0.0000000001
 40
0.0
 40
0.0
 40
0.0
 40
0.0
 40
1.0
 40
1.0
 40
1.0
 40
1.0
 10
-0.0828889879038033
 20
-0.1194430719383313
 30
0.0000000045
 41
1.0
 10
-0.083353230826384
 20
-0.1191085863543595
 30
0.0000000045
 41
1.0
 10
-0.0830187452424132
 20
-0.1183819452581458
 30
0.0000000045
 41
1.0
 10
-0.0836819494175281
 20
-0.1181166635880997
 30
0.0000000045
 41
1.0
  0
SPLINE
  5
215
330
1D2
100
AcDbEntity
  8
image
100
AcDbSpline
210
0.0
220
0.0
230
1.0
 70
    12
 71
     3
 72
     8
 73
     4
 74
     0
 42
0.0000000001
 43
0.0000000001
 40
0.0
 40
0.0
 40
0.0
 40
0.0
 40
1.0
 40
1.0
 40
1.0
 40
1.0
 10
-0.0836819494175281
 20
-0.1181166635880997
 30
0.0000000045
 41
1.0
 10
-0.0846767556802002
 20
-0.118180100509198
 30
0.0000000045
 41
1.0
 10
-0.0857349988639738
 20
-0.1189125085982381
 30
0.0000000045
 41
1.0
 10
-0.0865971642916228
 20
-0.118644343431777
 30
0.0000000045
 41
1.0
  0
SPLINE
  5
216
330
1D2
100
AcDbEntity
  8
image
100
AcDbSpline
210
0.0
220
0.0
230
1.0
 70
    12
 71
     3
 72
     8
 73
     4
 74
     0
 42
0.0000000001
 43
0.0000000001
 40
0.0
 40
0.0
 40
0.0
 40
0.0
 40
1.0
 40
1.0
 40
1.0
 40
1.0
 10
-0.0865971642916228
 20
-0.118644343431777
 30
0.0000000045
 41
1.0
 10
-0.0865971642916228
 20
-0.1152014487140036
 30
0.0000000045
 41
1.0
 10
-0.0820931428936653
 20
-0.1108358351438952
 30
0.0000000045
 41
1.0
 10
-0.0865971642916228
 20
-0.108315659278456
 30
0.0000000045
 41
1.0
  0
SPLINE
  5
217
330
1D2
100
AcDbEntity
  8
image
100
AcDbSpline
210
0.0
220
0.0
230
1.0
 70
    12
 71
     3
 72
     8
 73
     4
 74
     0
 42
0.0000000001
 43
0.0000000001
 40
0.0
 40
0.0
 40
0.0
 40
0.0
 40
1.0
 40
1.0
 40
1.0
 40
1.0
 10
-0.0865971642916228
 20
-0.108315659278456
 30
0.0000000045
 41
1.0
 10
-0.0863318826215776
 20
-0.1061328524933991
 30
0.0000000045
 41
1.0
 10
-0.0866634847091343
 20
-0.1036184436207881
 30
0.0000000045
 41
1.0
 10
-0.0889789323292125
 20
-0.1035521232032757
 30
0.0000000045
 41
1.0
  0
SPLINE
  5
218
330
1D2
100
AcDbEntity
  8
image
100
AcDbSpline
210
0.0
220
0.0
230
1.0
 70
    12
 71
     3
 72
     8
 73
     4
 74
     0
 42
0.0000000001
 43
0.0000000001
 40
0.0
 40
0.0
 40
0.0
 40
0.0
 40
1.0
 40
1.0
 40
1.0
 40
1.0
 10
-0.0889789323292125
 20
-0.1035521232032757
 30
0.0000000045
 41
1.0
 10
-0.0890481362431368
 20
-0.1014327533393207
 30
0.0000000045
 41
1.0
 10
-0.0918278267857962
 20
-0.1009021899992284
 30
0.0000000045
 41
1.0
 10
-0.0932176720571265
 20
-0.1019633166794129
 30
0.0000000045
 41
1.0
  0
SPLINE
  5
219
330
1D2
100
AcDbEntity
  8
image
100
AcDbSpline
210
0.0
220
0.0
230
1.0
 70
    12
 71
     3
 72
     8
 73
     4
 74
     0
 42
0.0000000001
 43
0.0000000001
 40
0.0
 40
0.0
 40
0.0
 40
0.0
 40
1.0
 40
1.0
 40
1.0
 40
1.0
 10
-0.0932176720571265
 20
-0.1019633166794129
 30
0.0000000045
 41
1.0
 10
-0.0938779927358273
 20
-0.1021593944355343
 30
0.0000000045
 41
1.0
 10
-0.0945411969109453
 20
-0.1032868415332313
 30
0.0000000045
 41
1.0
 10
-0.095337041921082
 20
-0.102490996523092
 30
0.0000000045
 41
1.0
  0
SPLINE
  5
21A
330
1D2
100
AcDbEntity
  8
image
100
AcDbSpline
210
0.0
220
0.0
230
1.0
 70
    12
 71
     3
 72
     8
 73
     4
 74
     0
 42
0.0000000001
 43
0.0000000001
 40
0.0
 40
0.0
 40
0.0
 40
0.0
 40
1.0
 40
1.0
 40
1.0
 40
1.0
 10
-0.095337041921082
 20
-0.102490996523092
 30
0.0000000045
 41
1.0
 10
-0.095867605261176
 20
-0.1013664329218091
 30
0.0000000045
 41
1.0
 10
-0.0952044010860589
 20
-0.0995123447278985
 30
0.0000000045
 41
1.0
 10
-0.0966634502713122
 20
-0.0990481018053178
 30
0.0000000045
 41
1.0
  0
SPLINE
  5
21B
330
1D2
100
AcDbEntity
  8
image
100
AcDbSpline
210
0.0
220
0.0
230
1.0
 70
    12
 71
     3
 72
     8
 73
     4
 74
     0
 42
0.0000000001
 43
0.0000000001
 40
0.0
 40
0.0
 40
0.0
 40
0.0
 40
1.0
 40
1.0
 40
1.0
 40
1.0
 10
-0.0966634502713122
 20
-0.0990481018053178
 30
0.0000000045
 41
1.0
 10
-0.1026178703652874
 20
-0.0997747429015306
 30
0.0000000045
 41
1.0
 10
-0.1062597263355962
 20
-0.1037510844558112
 30
0.0000000045
 41
1.0
 10
-0.1120209521698614
 20
-0.1048756480570949
 30
0.0000000045
 41
1.0
  0
SPLINE
  5
21C
330
1D2
100
AcDbEntity
  8
image
100
AcDbSpline
210
0.0
220
0.0
230
1.0
 70
    12
 71
     3
 72
     8
 73
     4
 74
     0
 42
0.0000000001
 43
0.0000000001
 40
0.0
 40
0.0
 40
0.0
 40
0.0
 40
1.0
 40
1.0
 40
1.0
 40
1.0
 10
-0.1120209521698614
 20
-0.1048756480570949
 30
0.0000000045
 41
1.0
 10
-0.1124823115960298
 20
-0.1046738033081462
 30
0.0000000045
 41
1.0
 10
-0.1122170299259828
 20
-0.1041432399680549
 30
0.0000000045
 41
1.0
 10
-0.1122833503434939
 20
-0.1038145213769095
 30
0.0000000045
 41
1.0
  0
SPLINE
  5
21D
330
1D2
100
AcDbEntity
  8
image
100
AcDbSpline
210
0.0
220
0.0
230
1.0
 70
    12
 71
     3
 72
     8
 73
     4
 74
     0
 42
0.0000000001
 43
0.0000000001
 40
0.0
 40
0.0
 40
0.0
 40
0.0
 40
1.0
 40
1.0
 40
1.0
 40
1.0
 10
-0.1122833503434939
 20
-0.1038145213769095
 30
0.0000000045
 41
1.0
 10
-0.098249373298764
 20
-0.0946132843212837
 30
0.0000000045
 41
1.0
 10
-0.0848093965152259
 20
-0.0840193184979139
 30
0.0000000045
 41
1.0
 10
-0.0717673422367562
 20
-0.0741519937707587
 30
0.0000000045
 41
1.0
  0
SPLINE
  5
21E
330
1D2
100
AcDbEntity
  8
image
100
AcDbSpline
210
0.0
220
0.0
230
1.0
 70
    12
 71
     3
 72
     8
 73
     4
 74
     0
 42
0.0000000001
 43
0.0000000001
 40
0.0
 40
0.0
 40
0.0
 40
0.0
 40
1.0
 40
1.0
 40
1.0
 40
1.0
 10
-0.0717673422367562
 20
-0.0741519937707587
 30
0.0000000045
 41
1.0
 10
-0.067398845170231
 20
-0.0658763590638794
 30
0.0000000045
 41
1.0
 10
-0.0604467353171709
 20
-0.0579986468620728
 30
0.0000000045
 41
1.0
 10
-0.0572028018519322
 20
-0.0492587692326136
 30
0.0000000045
 41
1.0
  0
SPLINE
  5
21F
330
1D2
100
AcDbEntity
  8
image
100
AcDbSpline
210
0.0
220
0.0
230
1.0
 70
    12
 71
     3
 72
     8
 73
     4
 74
     0
 42
0.0000000001
 43
0.0000000001
 40
0.0
 40
0.0
 40
0.0
 40
0.0
 40
1.0
 40
1.0
 40
1.0
 40
1.0
 10
-0.0572028018519322
 20
-0.0492587692326136
 30
0.0000000045
 41
1.0
 10
-0.0571335979380061
 20
-0.0474046810387039
 30
0.0000000045
 41
1.0
 10
-0.0594519290544988
 20
-0.0483302833874504
 30
0.0000000045
 41
1.0
 10
-0.0603775314032467
 20
-0.0484658077188875
 30
0.0000000045
 41
1.0
  0
SPLINE
  5
220
330
1D2
100
AcDbEntity
  8
image
100
AcDbSpline
210
0.0
220
0.0
230
1.0
 70
    12
 71
     3
 72
     8
 73
     4
 74
     0
 42
0.0000000001
 43
0.0000000001
 40
0.0
 40
0.0
 40
0.0
 40
0.0
 40
1.0
 40
1.0
 40
1.0
 40
1.0
 10
-0.0603775314032467
 20
-0.0484658077188875
 30
0.0000000045
 41
1.0
 10
-0.061173376413386
 20
-0.0489271671450551
 30
0.0000000045
 41
1.0
 10
-0.0623671439285936
 20
-0.0490626914764905
 30
0.0000000045
 41
1.0
 10
-0.0630274646072975
 20
-0.0489934875625675
 30
0.0000000045
 41
1.0
  0
SPLINE
  5
221
330
1D2
100
AcDbEntity
  8
image
100
AcDbSpline
210
0.0
220
0.0
230
1.0
 70
    12
 71
     3
 72
     8
 73
     4
 74
     0
 42
0.0000000001
 43
0.0000000001
 40
0.0
 40
0.0
 40
0.0
 40
0.0
 40
1.0
 40
1.0
 40
1.0
 40
1.0
 10
-0.0630274646072975
 20
-0.0489934875625675
 30
0.0000000045
 41
1.0
 10
-0.0642846690436021
 20
-0.0480015647963077
 30
0.0000000045
 41
1.0
 10
-0.0626958625197376
 20
-0.0456169132623048
 30
0.0000000045
 41
1.0
 10
-0.0643509894611136
 20
-0.0450200295047001
 30
0.0000000045
 41
1.0
  0
SPLINE
  5
222
330
1D2
100
AcDbEntity
  8
image
100
AcDbSpline
210
0.0
220
0.0
230
1.0
 70
    12
 71
     3
 72
     8
 73
     4
 74
     0
 42
0.0000000001
 43
0.0000000001
 40
0.0
 40
0.0
 40
0.0
 40
0.0
 40
1.0
 40
1.0
 40
1.0
 40
1.0
 10
-0.0643509894611136
 20
-0.0450200295047001
 30
0.0000000045
 41
1.0
 10
-0.069578768458872
 20
-0.0459485153498616
 30
0.0000000045
 41
1.0
 10
-0.0744835958583154
 20
-0.0497230121551944
 30
0.0000000045
 41
1.0
 10
-0.0789184133423491
 20
-0.0503170124163868
 30
0.0000000045
 41
1.0
  0
SPLINE
  5
223
330
1D2
100
AcDbEntity
  8
image
100
AcDbSpline
210
0.0
220
0.0
230
1.0
 70
    12
 71
     3
 72
     8
 73
     4
 74
     0
 42
0.0000000001
 43
0.0000000001
 40
0.0
 40
0.0
 40
0.0
 40
0.0
 40
1.0
 40
1.0
 40
1.0
 40
1.0
 10
-0.0789184133423491
 20
-0.0503170124163868
 30
0.0000000045
 41
1.0
 10
-0.0795124136035415
 20
-0.0476036422912376
 30
0.0000000045
 41
1.0
 10
-0.0757408002946218
 20
-0.0460119522709599
 30
0.0000000045
 41
1.0
 10
-0.0752102369545309
 20
-0.0434312229808365
 30
0.0000000045
 41
1.0
  0
SPLINE
  5
224
330
1D2
100
AcDbEntity
  8
image
100
AcDbSpline
210
0.0
220
0.0
230
1.0
 70
    12
 71
     3
 72
     8
 73
     4
 74
     0
 42
0.0000000001
 43
0.0000000001
 40
0.0
 40
0.0
 40
0.0
 40
0.0
 40
1.0
 40
1.0
 40
1.0
 40
1.0
 10
-0.0752102369545309
 20
-0.0434312229808365
 30
0.0000000045
 41
1.0
 10
-0.0756744798771103
 20
-0.0423729797970633
 30
0.0000000045
 41
1.0
 10
-0.0775256845746073
 20
-0.0419116203708985
 30
0.0000000045
 41
1.0
 10
-0.0783878500022581
 20
-0.0429035431371583
 30
0.0000000045
 41
1.0
  0
SPLINE
  5
225
330
1D2
100
AcDbEntity
  8
image
100
AcDbSpline
210
0.0
220
0.0
230
1.0
 70
    12
 71
     3
 72
     8
 73
     4
 74
     0
 42
0.0000000001
 43
0.0000000001
 40
0.0
 40
0.0
 40
0.0
 40
0.0
 40
1.0
 40
1.0
 40
1.0
 40
1.0
 10
-0.0783878500022581
 20
-0.0429035431371583
 30
0.0000000045
 41
1.0
 10
-0.0824910653987332
 20
-0.0450863499222116
 30
0.0000000045
 41
1.0
 10
-0.0864645234565989
 20
-0.0460119522709599
 30
0.0000000045
 41
1.0
 10
-0.0905706223494916
 20
-0.0482005260488414
 30
0.0000000045
 41
1.0
  0
SPLINE
  5
226
330
1D2
100
AcDbEntity
  8
image
100
AcDbSpline
210
0.0
220
0.0
230
1.0
 70
    12
 71
     3
 72
     8
 73
     4
 74
     0
 42
0.0000000001
 43
0.0000000001
 40
0.0
 40
0.0
 40
0.0
 40
0.0
 40
1.0
 40
1.0
 40
1.0
 40
1.0
 10
-0.0905706223494916
 20
-0.0482005260488414
 30
0.0000000045
 41
1.0
 10
-0.0920931084558432
 20
-0.0485321281363991
 30
0.0000000045
 41
1.0
 10
-0.0920931084558432
 20
-0.0464127582724441
 30
0.0000000045
 41
1.0
 10
-0.0916259820368493
 20
-0.0455505928447932
 30
0.0000000045
 41
1.0
  0
SPLINE
  5
227
330
1D2
100
AcDbEntity
  8
image
100
AcDbSpline
210
0.0
220
0.0
230
1.0
 70
    12
 71
     3
 72
     8
 73
     4
 74
     0
 42
0.0000000001
 43
0.0000000001
 40
0.0
 40
0.0
 40
0.0
 40
0.0
 40
1.0
 40
1.0
 40
1.0
 40
1.0
 10
-0.0916259820368493
 20
-0.0455505928447932
 30
0.0000000045
 41
1.0
 10
-0.090769583602027
 20
-0.0446884274171424
 30
0.0000000045
 41
1.0
 10
-0.0910983021931711
 20
-0.0436965046508826
 30
0.0000000045
 41
1.0
 10
-0.0910983021931711
 20
-0.0429035431371583
 30
0.0000000045
 41
1.0
  0
SPLINE
  5
228
330
1D2
100
AcDbEntity
  8
image
100
AcDbSpline
210
0.0
220
0.0
230
1.0
 70
    12
 71
     3
 72
     8
 73
     4
 74
     0
 42
0.0000000001
 43
0.0000000001
 40
0.0
 40
0.0
 40
0.0
 40
0.0
 40
1.0
 40
1.0
 40
1.0
 40
1.0
 10
-0.0921594288733543
 20
-0.0423729797970633
 30
0.0000000045
 41
1.0
 10
-0.0963289646873427
 20
-0.0437628250683941
 30
0.0000000045
 41
1.0
 10
-0.1000371410751639
 20
-0.0464127582724441
 30
0.0000000045
 41
1.0
 10
-0.1046074828906329
 20
-0.0468741176986107
 30
0.0000000045
 41
1.0
  0
SPLINE
  5
229
330
1D2
100
AcDbEntity
  8
image
100
AcDbSpline
210
0.0
220
0.0
230
1.0
 70
    12
 71
     3
 72
     8
 73
     4
 74
     0
 42
0.0000000001
 43
0.0000000001
 40
0.0
 40
0.0
 40
0.0
 40
0.0
 40
1.0
 40
1.0
 40
1.0
 40
1.0
 10
-0.1046074828906329
 20
-0.0468741176986107
 30
0.0000000045
 41
1.0
 10
-0.1057320464919162
 20
-0.0446884274171424
 30
0.0000000045
 41
1.0
 10
-0.1012280250939588
 20
-0.0427045818846228
 30
0.0000000045
 41
1.0
 10
-0.1040740360541261
 20
-0.0410465714468327
 30
0.0000000045
 41
1.0
  0
SPLINE
  5
22A
330
1D2
100
AcDbEntity
  8
image
100
AcDbSpline
210
0.0
220
0.0
230
1.0
 70
    12
 71
     3
 72
     8
 73
     4
 74
     0
 42
0.0000000001
 43
0.0000000001
 40
0.0
 40
0.0
 40
0.0
 40
0.0
 40
1.0
 40
1.0
 40
1.0
 40
1.0
 10
-0.1040740360541261
 20
-0.0410465714468327
 30
0.0000000045
 41
1.0
 10
-0.1059310077444522
 20
-0.0405880955170792
 30
0.0000000045
 41
1.0
 10
-0.1066576488406672
 20
-0.0428372227196459
 30
0.0000000045
 41
1.0
 10
-0.1083127757820432
 20
-0.0429035431371583
 30
0.0000000045
 41
1.0
  0
SPLINE
  5
22B
330
1D2
100
AcDbEntity
  8
image
100
AcDbSpline
210
0.0
220
0.0
230
1.0
 70
    12
 71
     3
 72
     8
 73
     4
 74
     0
 42
0.0000000001
 43
0.0000000001
 40
0.0
 40
0.0
 40
0.0
 40
0.0
 40
1.0
 40
1.0
 40
1.0
 40
1.0
 10
-0.1083127757820432
 20
-0.0429035431371583
 30
0.0000000045
 41
1.0
 10
-0.1129465545186092
 20
-0.0454871559236931
 30
0.0000000045
 41
1.0
 10
-0.1181772170127822
 20
-0.0464127582724441
 30
0.0000000045
 41
1.0
 10
-0.1231425978369081
 20
-0.0482005260488414
 30
0.0000000045
 41
1.0
  0
SPLINE
  5
22C
330
1D2
100
AcDbEntity
  8
image
100
AcDbSpline
210
0.0
220
0.0
230
1.0
 70
    12
 71
     3
 72
     8
 73
     4
 74
     0
 42
0.0000000001
 43
0.0000000001
 40
0.0
 40
0.0
 40
0.0
 40
0.0
 40
1.0
 40
1.0
 40
1.0
 40
1.0
 10
-0.1231425978369081
 20
-0.0482005260488414
 30
0.0000000045
 41
1.0
 10
-0.1240018797681479
 20
-0.0483302833874504
 30
0.0000000045
 41
1.0
 10
-0.1250630064483311
 20
-0.0478054870401854
 30
0.0000000045
 41
1.0
 10
-0.1249966860308196
 20
-0.0468741176986107
 30
0.0000000045
 41
1.0
  0
SPLINE
  5
22D
330
1D2
100
AcDbEntity
  8
image
100
AcDbSpline
210
0.0
220
0.0
230
1.0
 70
    12
 71
     3
 72
     8
 73
     4
 74
     0
 42
0.0000000001
 43
0.0000000001
 40
0.0
 40
0.0
 40
0.0
 40
0.0
 40
1.0
 40
1.0
 40
1.0
 40
1.0
 10
-0.1249966860308196
 20
-0.0468741176986107
 30
0.0000000045
 41
1.0
 10
-0.1107637477335537
 20
-0.0344952675952559
 30
0.0000000045
 41
1.0
 10
-0.0967268871924105
 20
-0.0195328047053654
 30
0.0000000045
 41
1.0
 10
-0.0842125127576208
 20
-0.0068857894355503
 30
0.0000000045
 41
1.0
  0
SPLINE
  5
22E
330
1D2
100
AcDbEntity
  8
image
100
AcDbSpline
210
0.0
220
0.0
230
1.0
 70
    12
 71
     3
 72
     8
 73
     4
 74
     0
 42
0.0000000001
 43
0.0000000001
 40
0.0
 40
0.0
 40
0.0
 40
0.0
 40
1.0
 40
1.0
 40
1.0
 40
1.0
 10
0.0096424120068987
 20
0.3204948593728476
 30
0.0000000045
 41
1.0
 10
0.0096424120068987
 20
0.3216223064705428
 30
0.0000000045
 41
1.0
 10
0.0097519848706127
 20
0.3224469864448176
 30
0.0000000045
 41
1.0
 10
0.00996824710163
 20
0.3229717827920844
 30
0.0000000045
 41
1.0
  0
SPLINE
  5
22F
330
1D2
100
AcDbEntity
  8
image
100
AcDbSpline
210
0.0
220
0.0
230
1.0
 70
    12
 71
     3
 72
     8
 73
     4
 74
     0
 42
0.0000000001
 43
0.0000000001
 40
0.0
 40
0.0
 40
0.0
 40
0.0
 40
1.0
 40
1.0
 40
1.0
 40
1.0
 10
0.00996824710163
 20
0.3229717827920844
 30
0.0000000045
 41
1.0
 10
0.0103604026138711
 20
0.3239089191264846
 30
0.0000000045
 41
1.0
 10
0.0111245291634612
 20
0.3243760455454794
 30
0.0000000045
 41
1.0
 10
0.0122635102468118
 20
0.3243760455454794
 30
0.0000000045
 41
1.0
  0
SPLINE
  5
230
330
1D2
100
AcDbEntity
  8
image
100
AcDbSpline
210
0.0
220
0.0
230
1.0
 70
    12
 71
     3
 72
     8
 73
     4
 74
     0
 42
0.0000000001
 43
0.0000000001
 40
0.0
 40
0.0
 40
0.0
 40
0.0
 40
1.0
 40
1.0
 40
1.0
 40
1.0
 10
0.0122635102468118
 20
0.3243760455454794
 30
0.0000000045
 41
1.0
 10
0.0130737727390189
 20
0.3243760455454794
 30
0.0000000045
 41
1.0
 10
0.0136706564966227
 20
0.3240790454148836
 30
0.0000000045
 41
1.0
 10
0.0140512780232123
 20
0.3234879286501071
 30
0.0000000045
 41
1.0
  0
SPLINE
  5
231
330
1D2
100
AcDbEntity
  8
image
100
AcDbSpline
210
0.0
220
0.0
230
1.0
 70
    12
 71
     3
 72
     8
 73
     4
 74
     0
 42
0.0000000001
 43
0.0000000001
 40
0.0
 40
0.0
 40
0.0
 40
0.0
 40
1.0
 40
1.0
 40
1.0
 40
1.0
 10
0.0140512780232123
 20
0.3234879286501071
 30
0.0000000045
 41
1.0
 10
0.0142531227721592
 20
0.3231736275410322
 30
0.0000000045
 41
1.0
 10
0.0144001810892491
 20
0.3227324525897579
 30
0.0000000045
 41
1.0
 10
0.0144895694780698
 20
0.322173054285531
 30
0.0000000045
 41
1.0
  0
SPLINE
  5
232
330
1D2
100
AcDbEntity
  8
image
100
AcDbSpline
210
0.0
220
0.0
230
1.0
 70
    12
 71
     3
 72
     8
 73
     4
 74
     0
 42
0.0000000001
 43
0.0000000001
 40
0.0
 40
0.0
 40
0.0
 40
0.0
 40
1.0
 40
1.0
 40
1.0
 40
1.0
 10
0.0144895694780698
 20
0.322173054285531
 30
0.0000000045
 41
1.0
 10
0.0146020258381992
 20
0.322885277899676
 30
0.0000000045
 41
1.0
 10
0.0148990259687922
 20
0.3234043072541146
 30
0.0000000045
 41
1.0
 10
0.0153776863734425
 20
0.32373302584526
 30
0.0000000045
 41
1.0
  0
SPLINE
  5
233
330
1D2
100
AcDbEntity
  8
image
100
AcDbSpline
210
0.0
220
0.0
230
1.0
 70
    12
 71
     3
 72
     8
 73
     4
 74
     0
 42
0.0000000001
 43
0.0000000001
 40
0.0
 40
0.0
 40
0.0
 40
0.0
 40
1.0
 40
1.0
 40
1.0
 40
1.0
 10
0.0153776863734425
 20
0.32373302584526
 30
0.0000000045
 41
1.0
 10
0.0158592302745038
 20
0.3240646279328168
 30
0.0000000045
 41
1.0
 10
0.0163263566934977
 20
0.3242261037319754
 30
0.0000000045
 41
1.0
 10
0.0167848326232516
 20
0.3242289872283885
 30
0.0000000045
 41
1.0
  0
SPLINE
  5
234
330
1D2
100
AcDbEntity
  8
image
100
AcDbSpline
210
0.0
220
0.0
230
1.0
 70
    12
 71
     3
 72
     8
 73
     4
 74
     0
 42
0.0000000001
 43
0.0000000001
 40
0.0
 40
0.0
 40
0.0
 40
0.0
 40
1.0
 40
1.0
 40
1.0
 40
1.0
 10
0.0174480367983665
 20
0.3242289872283885
 30
0.0000000045
 41
1.0
 10
0.0176556485401442
 20
0.3242289872283885
 30
0.0000000045
 41
1.0
 10
0.017883444756813
 20
0.3242347542212167
 30
0.0000000045
 41
1.0
 10
0.0181227749591382
 20
0.3242520551996968
 30
0.0000000045
 41
1.0
  0
SPLINE
  5
235
330
1D2
100
AcDbEntity
  8
image
100
AcDbSpline
210
0.0
220
0.0
230
1.0
 70
    12
 71
     3
 72
     8
 73
     4
 74
     0
 42
0.0000000001
 43
0.0000000001
 40
0.0
 40
0.0
 40
0.0
 40
0.0
 40
1.0
 40
1.0
 40
1.0
 40
1.0
 10
0.0181227749591382
 20
0.3242520551996968
 30
0.0000000045
 41
1.0
 10
0.0183621051614629
 20
0.3242664726817654
 30
0.0000000045
 41
1.0
 10
0.0185178139677951
 20
0.324295307645901
 30
0.0000000045
 41
1.0
 10
0.0185956683709607
 20
0.3243299096028638
 30
0.0000000045
 41
1.0
  0
SPLINE
  5
236
330
1D2
100
AcDbEntity
  8
image
100
AcDbSpline
210
0.0
220
0.0
230
1.0
 70
    12
 71
     3
 72
     8
 73
     4
 74
     0
 42
0.0000000001
 43
0.0000000001
 40
0.0
 40
0.0
 40
0.0
 40
0.0
 40
1.0
 40
1.0
 40
1.0
 40
1.0
 10
0.0187052412346742
 20
0.3228910448925033
 30
0.0000000045
 41
1.0
 10
0.0186764062705396
 20
0.322885277899676
 30
0.0000000045
 41
1.0
 10
0.0186475713064032
 20
0.3228766274104355
 30
0.0000000045
 41
1.0
 10
0.0186158528458553
 20
0.3228708604176083
 30
0.0000000045
 41
1.0
  0
SPLINE
  5
237
330
1D2
100
AcDbEntity
  8
image
100
AcDbSpline
210
0.0
220
0.0
230
1.0
 70
    12
 71
     3
 72
     8
 73
     4
 74
     0
 42
0.0000000001
 43
0.0000000001
 40
0.0
 40
0.0
 40
0.0
 40
0.0
 40
1.0
 40
1.0
 40
1.0
 40
1.0
 10
0.0186158528458553
 20
0.3228708604176083
 30
0.0000000045
 41
1.0
 10
0.0185870178817176
 20
0.3228593264319537
 30
0.0000000045
 41
1.0
 10
0.018552415924757
 20
0.3228535594391282
 30
0.0000000045
 41
1.0
 10
0.0185149304713805
 20
0.3228477924463018
 30
0.0000000045
 41
1.0
  0
SPLINE
  5
238
330
1D2
100
AcDbEntity
  8
image
100
AcDbSpline
210
0.0
220
0.0
230
1.0
 70
    12
 71
     3
 72
     8
 73
     4
 74
     0
 42
0.0000000001
 43
0.0000000001
 40
0.0
 40
0.0
 40
0.0
 40
0.0
 40
1.0
 40
1.0
 40
1.0
 40
1.0
 10
0.0175028232302266
 20
0.3228131904893372
 30
0.0000000045
 41
1.0
 10
0.0164561140321076
 20
0.3228131904893372
 30
0.0000000045
 41
1.0
 10
0.0157611913964431
 20
0.3225277243443951
 30
0.0000000045
 41
1.0
 10
0.0154238223160577
 20
0.3219567920545137
 30
0.0000000045
 41
1.0
  0
SPLINE
  5
239
330
1D2
100
AcDbEntity
  8
image
100
AcDbSpline
210
0.0
220
0.0
230
1.0
 70
    12
 71
     3
 72
     8
 73
     4
 74
     0
 42
0.0000000001
 43
0.0000000001
 40
0.0
 40
0.0
 40
0.0
 40
0.0
 40
1.0
 40
1.0
 40
1.0
 40
1.0
 10
0.0154238223160577
 20
0.3219567920545137
 30
0.0000000045
 41
1.0
 10
0.015227744559938
 20
0.3216223064705428
 30
0.0000000045
 41
1.0
 10
0.0151297056818773
 20
0.3210283062093522
 30
0.0000000045
 41
1.0
 10
0.0151297056818773
 20
0.32018055826377
 30
0.0000000045
 41
1.0
  0
SPLINE
  5
23A
330
1D2
100
AcDbEntity
  8
image
100
AcDbSpline
210
0.0
220
0.0
230
1.0
 70
    12
 71
     3
 72
     8
 73
     4
 74
     0
 42
0.0000000001
 43
0.0000000001
 40
0.0
 40
0.0
 40
0.0
 40
0.0
 40
1.0
 40
1.0
 40
1.0
 40
1.0
 10
0.011072626228017
 20
0.3222047727460797
 30
0.0000000045
 41
1.0
 10
0.0108477135077596
 20
0.3218068502410114
 30
0.0000000045
 41
1.0
 10
0.0107352571476316
 20
0.3211667140372034
 30
0.0000000045
 41
1.0
 10
0.0107352571476316
 20
0.3202814806382452
 30
0.0000000045
 41
1.0
  0
SPLINE
  5
23B
330
1D2
100
AcDbEntity
  8
image
100
AcDbSpline
210
0.0
220
0.0
230
1.0
 70
    12
 71
     3
 72
     8
 73
     4
 74
     0
 42
0.0000000001
 43
0.0000000001
 40
0.0
 40
0.0
 40
0.0
 40
0.0
 40
1.0
 40
1.0
 40
1.0
 40
1.0
 10
0.0140166760662486
 20
0.3203593350414096
 30
0.0000000045
 41
1.0
 10
0.0140166760662486
 20
0.3210369566985918
 30
0.0000000045
 41
1.0
 10
0.0139474721523225
 20
0.3215415685709644
 30
0.0000000045
 41
1.0
 10
0.0138148313173017
 20
0.3218789376513493
 30
0.0000000045
 41
1.0
  0
SPLINE
  5
23C
330
1D2
100
AcDbEntity
  8
image
100
AcDbSpline
210
0.0
220
0.0
230
1.0
 70
    12
 71
     3
 72
     8
 73
     4
 74
     0
 42
0.0000000001
 43
0.0000000001
 40
0.0
 40
0.0
 40
0.0
 40
0.0
 40
1.0
 40
1.0
 40
1.0
 40
1.0
 10
0.0138148313173017
 20
0.3218789376513493
 30
0.0000000045
 41
1.0
 10
0.0135697341221475
 20
0.3225017728766737
 30
0.0000000045
 41
1.0
 10
0.0130968407103263
 20
0.322810306992924
 30
0.0000000045
 41
1.0
 10
0.0123990345782508
 20
0.3228131904893372
 30
0.0000000045
 41
1.0
  0
SPLINE
  5
23D
330
1D2
100
AcDbEntity
  8
image
100
AcDbSpline
210
0.0
220
0.0
230
1.0
 70
    12
 71
     3
 72
     8
 73
     4
 74
     0
 42
0.0000000001
 43
0.0000000001
 40
0.0
 40
0.0
 40
0.0
 40
0.0
 40
1.0
 40
1.0
 40
1.0
 40
1.0
 10
0.0123990345782508
 20
0.3228131904893372
 30
0.0000000045
 41
1.0
 10
0.0117387138995469
 20
0.3228131904893372
 30
0.0000000045
 41
1.0
 10
0.0112946554518603
 20
0.3226113457403894
 30
0.0000000045
 41
1.0
 10
0.011072626228017
 20
0.3222047727460797
 30
0.0000000045
 41
1.0
  0
SPLINE
  5
23E
330
1D2
100
AcDbEntity
  8
image
100
AcDbSpline
210
0.0
220
0.0
230
1.0
 70
    12
 71
     3
 72
     8
 73
     4
 74
     0
 42
0.0000000001
 43
0.0000000001
 40
0.0
 40
0.0
 40
0.0
 40
0.0
 40
1.0
 40
1.0
 40
1.0
 40
1.0
 10
0.0200547175562154
 20
0.3264982989058494
 30
0.0000000045
 41
1.0
 10
0.0216723590442132
 20
0.3248893079070907
 30
0.0000000045
 41
1.0
 10
0.0224855050328343
 20
0.3229371808351216
 30
0.0000000045
 41
1.0
 10
0.0224855050328343
 20
0.3206534516755903
 30
0.0000000045
 41
1.0
  0
SPLINE
  5
23F
330
1D2
100
AcDbEntity
  8
image
100
AcDbSpline
210
0.0
220
0.0
230
1.0
 70
    12
 71
     3
 72
     8
 73
     4
 74
     0
 42
0.0000000001
 43
0.0000000001
 40
0.0
 40
0.0
 40
0.0
 40
0.0
 40
1.0
 40
1.0
 40
1.0
 40
1.0
 10
0.0224855050328343
 20
0.3206534516755903
 30
0.0000000045
 41
1.0
 10
0.0224855050328343
 20
0.3183668390196486
 30
0.0000000045
 41
1.0
 10
0.0216723590442132
 20
0.316420478940505
 30
0.0000000045
 41
1.0
 10
0.0200547175562154
 20
0.3148172549345727
 30
0.0000000045
 41
1.0
  0
SPLINE
  5
240
330
1D2
100
AcDbEntity
  8
image
100
AcDbSpline
210
0.0
220
0.0
230
1.0
 70
    12
 71
     3
 72
     8
 73
     4
 74
     0
 42
0.0000000001
 43
0.0000000001
 40
0.0
 40
0.0
 40
0.0
 40
0.0
 40
1.0
 40
1.0
 40
1.0
 40
1.0
 10
0.0200547175562154
 20
0.3148172549345727
 30
0.0000000045
 41
1.0
 10
0.0184457265574563
 20
0.3132197979214695
 30
0.0000000045
 41
1.0
 10
0.0164907159890713
 20
0.312421069414917
 30
0.0000000045
 41
1.0
 10
0.0141983363403022
 20
0.312421069414917
 30
0.0000000045
 41
1.0
  0
SPLINE
  5
241
330
1D2
100
AcDbEntity
  8
image
100
AcDbSpline
210
0.0
220
0.0
230
1.0
 70
    12
 71
     3
 72
     8
 73
     4
 74
     0
 42
0.0000000001
 43
0.0000000001
 40
0.0
 40
0.0
 40
0.0
 40
0.0
 40
1.0
 40
1.0
 40
1.0
 40
1.0
 10
0.0141983363403022
 20
0.312421069414917
 30
0.0000000045
 41
1.0
 10
0.0119261411664278
 20
0.312421069414917
 30
0.0000000045
 41
1.0
 10
0.0099826645836973
 20
0.31322844841071
 30
0.0000000045
 41
1.0
 10
0.0083736735849365
 20
0.3148403229058809
 30
0.0000000045
 41
1.0
  0
SPLINE
  5
242
330
1D2
100
AcDbEntity
  8
image
100
AcDbSpline
210
0.0
220
0.0
230
1.0
 70
    12
 71
     3
 72
     8
 73
     4
 74
     0
 42
0.0000000001
 43
0.0000000001
 40
0.0
 40
0.0
 40
0.0
 40
0.0
 40
1.0
 40
1.0
 40
1.0
 40
1.0
 10
0.0083736735849365
 20
0.3148403229058809
 30
0.0000000045
 41
1.0
 10
0.0067675660825919
 20
0.3164435469118114
 30
0.0000000045
 41
1.0
 10
0.0059659540796266
 20
0.3183812565017172
 30
0.0000000045
 41
1.0
 10
0.0059659540796266
 20
0.3206534516755903
 30
0.0000000045
 41
1.0
  0
SPLINE
  5
243
330
1D2
100
AcDbEntity
  8
image
100
AcDbSpline
210
0.0
220
0.0
230
1.0
 70
    12
 71
     3
 72
     8
 73
     4
 74
     0
 42
0.0000000001
 43
0.0000000001
 40
0.0
 40
0.0
 40
0.0
 40
0.0
 40
1.0
 40
1.0
 40
1.0
 40
1.0
 10
0.0059659540796266
 20
0.3206534516755903
 30
0.0000000045
 41
1.0
 10
0.0059659540796266
 20
0.3229371808351216
 30
0.0000000045
 41
1.0
 10
0.0067675660825919
 20
0.3248893079070907
 30
0.0000000045
 41
1.0
 10
0.0083736735849365
 20
0.3264982989058494
 30
0.0000000045
 41
1.0
  0
SPLINE
  5
244
330
1D2
100
AcDbEntity
  8
image
100
AcDbSpline
210
0.0
220
0.0
230
1.0
 70
    12
 71
     3
 72
     8
 73
     4
 74
     0
 42
0.0000000001
 43
0.0000000001
 40
0.0
 40
0.0
 40
0.0
 40
0.0
 40
1.0
 40
1.0
 40
1.0
 40
1.0
 10
0.0083736735849365
 20
0.3264982989058494
 30
0.0000000045
 41
1.0
 10
0.0099768975908701
 20
0.3281101734010221
 30
0.0000000045
 41
1.0
 10
0.011917490677186
 20
0.3289175523968142
 30
0.0000000045
 41
1.0
 10
0.0141983363403022
 20
0.3289175523968142
 30
0.0000000045
 41
1.0
  0
SPLINE
  5
245
330
1D2
100
AcDbEntity
  8
image
100
AcDbSpline
210
0.0
220
0.0
230
1.0
 70
    12
 71
     3
 72
     8
 73
     4
 74
     0
 42
0.0000000001
 43
0.0000000001
 40
0.0
 40
0.0
 40
0.0
 40
0.0
 40
1.0
 40
1.0
 40
1.0
 40
1.0
 10
0.0141983363403022
 20
0.3289175523968142
 30
0.0000000045
 41
1.0
 10
0.0164820654998295
 20
0.3289175523968142
 30
0.0000000045
 41
1.0
 10
0.0184370760682162
 20
0.3281101734010221
 30
0.0000000045
 41
1.0
 10
0.0200547175562154
 20
0.3264982989058494
 30
0.0000000045
 41
1.0
  0
SPLINE
  5
246
330
1D2
100
AcDbEntity
  8
image
100
AcDbSpline
210
0.0
220
0.0
230
1.0
 70
    12
 71
     3
 72
     8
 73
     4
 74
     0
 42
0.0000000001
 43
0.0000000001
 40
0.0
 40
0.0
 40
0.0
 40
0.0
 40
1.0
 40
1.0
 40
1.0
 40
1.0
 10
0.0091695185950793
 20
0.3156390514124343
 30
0.0000000045
 41
1.0
 10
0.0105593638664066
 20
0.3142578566303458
 30
0.0000000045
 41
1.0
 10
0.0122346752826754
 20
0.3135687009875081
 30
0.0000000045
 41
1.0
 10
0.0141983363403022
 20
0.3135687009875081
 30
0.0000000045
 41
1.0
  0
SPLINE
  5
247
330
1D2
100
AcDbEntity
  8
image
100
AcDbSpline
210
0.0
220
0.0
230
1.0
 70
    12
 71
     3
 72
     8
 73
     4
 74
     0
 42
0.0000000001
 43
0.0000000001
 40
0.0
 40
0.0
 40
0.0
 40
0.0
 40
1.0
 40
1.0
 40
1.0
 40
1.0
 10
0.0141983363403022
 20
0.3135687009875081
 30
0.0000000045
 41
1.0
 10
0.0161764148799932
 20
0.3135687009875081
 30
0.0000000045
 41
1.0
 10
0.0178632602819198
 20
0.3142549731339326
 30
0.0000000045
 41
1.0
 10
0.0192588725460743
 20
0.3156275174267789
 30
0.0000000045
 41
1.0
  0
SPLINE
  5
248
330
1D2
100
AcDbEntity
  8
image
100
AcDbSpline
210
0.0
220
0.0
230
1.0
 70
    12
 71
     3
 72
     8
 73
     4
 74
     0
 42
0.0000000001
 43
0.0000000001
 40
0.0
 40
0.0
 40
0.0
 40
0.0
 40
1.0
 40
1.0
 40
1.0
 40
1.0
 10
0.0192588725460743
 20
0.3156275174267789
 30
0.0000000045
 41
1.0
 10
0.0206516013138161
 20
0.3170058287124551
 30
0.0000000045
 41
1.0
 10
0.0213494074458982
 20
0.3186811401287262
 30
0.0000000045
 41
1.0
 10
0.0213494074458982
 20
0.3206534516755903
 30
0.0000000045
 41
1.0
  0
SPLINE
  5
249
330
1D2
100
AcDbEntity
  8
image
100
AcDbSpline
210
0.0
220
0.0
230
1.0
 70
    12
 71
     3
 72
     8
 73
     4
 74
     0
 42
0.0000000001
 43
0.0000000001
 40
0.0
 40
0.0
 40
0.0
 40
0.0
 40
1.0
 40
1.0
 40
1.0
 40
1.0
 10
0.0213494074458982
 20
0.3206534516755903
 30
0.0000000045
 41
1.0
 10
0.0213494074458982
 20
0.3226257632224563
 30
0.0000000045
 41
1.0
 10
0.0206516013138161
 20
0.3243010746387265
 30
0.0000000045
 41
1.0
 10
0.0192588725460743
 20
0.3256793859244027
 30
0.0000000045
 41
1.0
  0
SPLINE
  5
24A
330
1D2
100
AcDbEntity
  8
image
100
AcDbSpline
210
0.0
220
0.0
230
1.0
 70
    12
 71
     3
 72
     8
 73
     4
 74
     0
 42
0.0000000001
 43
0.0000000001
 40
0.0
 40
0.0
 40
0.0
 40
0.0
 40
1.0
 40
1.0
 40
1.0
 40
1.0
 10
0.0192588725460743
 20
0.3256793859244027
 30
0.0000000045
 41
1.0
 10
0.0178632602819198
 20
0.327057697210078
 30
0.0000000045
 41
1.0
 10
0.0161764148799932
 20
0.3277468528529157
 30
0.0000000045
 41
1.0
 10
0.0141983363403022
 20
0.3277468528529157
 30
0.0000000045
 41
1.0
  0
SPLINE
  5
24B
330
1D2
100
AcDbEntity
  8
image
100
AcDbSpline
210
0.0
220
0.0
230
1.0
 70
    12
 71
     3
 72
     8
 73
     4
 74
     0
 42
0.0000000001
 43
0.0000000001
 40
0.0
 40
0.0
 40
0.0
 40
0.0
 40
1.0
 40
1.0
 40
1.0
 40
1.0
 10
0.0141983363403022
 20
0.3277468528529157
 30
0.0000000045
 41
1.0
 10
0.0122346752826754
 20
0.3277468528529157
 30
0.0000000045
 41
1.0
 10
0.0105593638664066
 20
0.327057697210078
 30
0.0000000045
 41
1.0
 10
0.0091695185950793
 20
0.3256793859244027
 30
0.0000000045
 41
1.0
  0
SPLINE
  5
24C
330
1D2
100
AcDbEntity
  8
image
100
AcDbSpline
210
0.0
220
0.0
230
1.0
 70
    12
 71
     3
 72
     8
 73
     4
 74
     0
 42
0.0000000001
 43
0.0000000001
 40
0.0
 40
0.0
 40
0.0
 40
0.0
 40
1.0
 40
1.0
 40
1.0
 40
1.0
 10
0.0091695185950793
 20
0.3256793859244027
 30
0.0000000045
 41
1.0
 10
0.0077767898273327
 20
0.324295307645901
 30
0.0000000045
 41
1.0
 10
0.0070789836952554
 20
0.3226171127332158
 30
0.0000000045
 41
1.0
 10
0.0070789836952554
 20
0.3206534516755903
 30
0.0000000045
 41
1.0
  0
SPLINE
  5
24D
330
1D2
100
AcDbEntity
  8
image
100
AcDbSpline
210
0.0
220
0.0
230
1.0
 70
    12
 71
     3
 72
     8
 73
     4
 74
     0
 42
0.0000000001
 43
0.0000000001
 40
0.0
 40
0.0
 40
0.0
 40
0.0
 40
1.0
 40
1.0
 40
1.0
 40
1.0
 10
0.0070789836952554
 20
0.3206534516755903
 30
0.0000000045
 41
1.0
 10
0.0070789836952554
 20
0.3186955576107939
 30
0.0000000045
 41
1.0
 10
0.0077767898273327
 20
0.3170231296909369
 30
0.0000000045
 41
1.0
 10
0.0091695185950793
 20
0.3156390514124343
 30
0.0000000045
 41
1.0
  0
LWPOLYLINE
  5
24E
330
1D2
100
AcDbEntity
  8
image
100
AcDbPolyline
 90
        2
 70
     0
 43
0.0
 10
-0.0399047068670666
 20
0.2722308964029079
 10
0.0016724279198574
 20
0.2552817044840818
  0
LWPOLYLINE
  5
24F
330
1D2
100
AcDbEntity
  8
image
100
AcDbPolyline
 90
        4
 70
     0
 43
0.0
 10
-0.058442705309758
 20
0.2928882647095534
 10
-0.0582206760859148
 20
0.2548347625399829
 10
0.0223355632193285
 20
0.2206278445860832
 10
0.0223297962265026
 20
0.2676634380838498
  0
LWPOLYLINE
  5
250
330
1D2
100
AcDbEntity
  8
image
100
AcDbPolyline
 90
        4
 70
     0
 43
0.0
 10
0.0140166760662486
 20
0.3203593350414096
 10
0.0140166760662486
 20
0.31892047033105
 10
0.0107352571476316
 20
0.31892047033105
 10
0.0107352571476316
 20
0.3202814806382452
  0
LWPOLYLINE
  5
251
330
1D2
100
AcDbEntity
  8
image
100
AcDbPolyline
 90
        6
 70
     0
 43
0.0
 10
0.0096424120068987
 20
0.3204948593728476
 10
0.0096424120068987
 20
0.3173258968143591
 10
0.0187052412346742
 20
0.3173258968143591
 10
0.0187052412346742
 20
0.31892047033105
 10
0.0151297056818773
 20
0.31892047033105
 10
0.0151297056818773
 20
0.32018055826377
  0
LWPOLYLINE
  5
252
330
1D2
100
AcDbEntity
  8
image
100
AcDbPolyline
 90
        6
 70
     0
 43
0.0
 10
0.0175028232302266
 20
0.3228131904893372
 10
0.0182208138371984
 20
0.3228131904893372
 10
0.0187052412346742
 20
0.3228701819478665
 10
0.0187052412346742
 20
0.3243875795311348
 10
0.0184039158594605
 20
0.3242289872283885
 10
0.0167848326232516
 20
0.3242289872283885
  0
LWPOLYLINE
  5
253
330
1D2
100
AcDbEntity
  8
image
100
AcDbPolyline
 90
        4
 70
     1
 43
0.0
 10
-0.0582206760859148
 20
0.1582780016359706
 10
-0.0582206760859148
 20
0.1328974662039357
 10
0.0223297962265026
 20
0.0961184694491539
 10
0.0223297962265026
 20
0.1226005005111617
  0
LWPOLYLINE
  5
254
330
1D2
100
AcDbEntity
  8
image
100
AcDbPolyline
 90
        2
 70
     0
 43
0.0
 10
-0.021631990094424
 20
0.0563896558633115
 10
0.0014071462498091
 20
0.0460609717099887
  0
LWPOLYLINE
  5
255
330
1D2
100
AcDbEntity
  8
image
100
AcDbPolyline
 90
        2
 70
     0
 43
0.0
 10
-0.0632091248813516
 20
0.0748872853562102
 10
-0.0428170382447504
 20
0.0653515627166144
  0
LWPOLYLINE
  5
256
330
1D2
100
AcDbEntity
  8
image
100
AcDbPolyline
 90
        4
 70
     0
 43
0.0
 10
-0.085804202777898
 20
0.1020123361184408
 10
-0.085804202777898
 20
0.0575834233785191
 10
0.0223355632193285
 20
0.0054411577323616
 10
0.0223355632193285
 20
0.065810038646366
  0
LWPOLYLINE
  5
257
330
1D2
100
AcDbEntity
  8
image
100
AcDbPolyline
 90
        2
 70
     0
 43
0.0
 10
-0.0393770270233902
 20
0.1895581707301206
 10
-0.0229555149482432
 20
0.1824070996245277
  0
LWPOLYLINE
  5
258
330
1D2
100
AcDbEntity
  8
image
100
AcDbPolyline
 90
        2
 70
     0
 43
0.0
 10
-0.0921594288733543
 20
-0.0423729797970633
 10
-0.0910983021931711
 20
-0.0429035431371583
  0
LWPOLYLINE
  5
259
330
1D2
100
AcDbEntity
  8
image
100
AcDbPolyline
 90
        2
 70
     0
 43
0.0
 10
-0.0868624459616698
 20
-0.1400975567485636
 10
-0.0863318826215776
 20
-0.1408934017587038
  0
LWPOLYLINE
  5
25A
330
1D2
100
AcDbEntity
  8
image
100
AcDbPolyline
 90
        3
 70
     0
 43
0.0
 10
-0.0288637990995988
 20
-0.0844806779240823
 10
-0.0235696996843289
 20
-0.0805101033626272
 10
-0.0225114565005566
 20
-0.0815683465463995
  0
LWPOLYLINE
  5
25B
330
1D2
100
AcDbEntity
  8
image
100
AcDbPolyline
 90
        7
 70
     0
 43
0.0
 10
-0.0582206760859148
 20
0.1745553388904391
 10
0.0223297962265026
 20
0.1379608859061223
 10
0.0223355632193285
 20
0.1637970137714992
 10
-0.0060092065258308
 20
0.1760980094716862
 10
0.0223355632193285
 20
0.1883499857328452
 10
0.0223355632193285
 20
0.2123522098792057
 10
-0.0057439248557838
 20
0.201253632183465
  0
LWPOLYLINE
  5
25C
330
1D2
100
AcDbEntity
  8
image
100
AcDbPolyline
 90
        4
 70
     1
 43
0.0
 10
0.0223355632193285
 20
-0.2754056259542263
 10
0.0223355632193285
 20
-0.2492004105479166
 10
-0.0582206760859148
 20
-0.212231103029838
 10
-0.0582206760859148
 20
-0.2387160175882599
  0
LWPOLYLINE
  5
25D
330
1D2
100
AcDbEntity
  8
image
100
AcDbPolyline
 90
        2
 70
     0
 43
0.0
 10
-0.0393770270233902
 20
-0.3941393577748222
 10
-0.0632091248813516
 20
-0.3824871487676811
  0
LWPOLYLINE
  5
25E
330
1D2
100
AcDbEntity
  8
image
100
AcDbPolyline
 90
        8
 70
     1
 43
0.0
 10
0.0223297962265026
 20
-0.2802152979720205
 10
-0.0582206760859148
 20
-0.2662995442802458
 10
-0.0582206760859148
 20
-0.3024441718240478
 10
0.0223297962265026
 20
-0.3654947044026526
 10
0.0223297962265026
 20
-0.3360945749701338
 10
0.0113004224446862
 20
-0.3275507750967961
 10
0.0112052670630414
 20
-0.3027267544725767
 10
0.0223297962265026
 20
-0.3045808426664873
  0
LWPOLYLINE
  5
25F
330
1D2
100
AcDbEntity
  8
image
100
AcDbPolyline
 90
        3
 70
     1
 43
0.0
 10
-0.009982664583696
 20
-0.3106707870918957
 10
-0.0099394121374954
 20
-0.2991310344448843
 10
-0.0279900996862947
 20
-0.2963686448807055
  0
LWPOLYLINE
  5
260
330
1D2
100
AcDbEntity
  8
image
100
AcDbPolyline
 90
        7
 70
     0
 43
0.0
 10
-0.085804202777898
 20
-0.4031387500815003
 10
0.0223355632193285
 20
-0.4555607148797725
 10
0.0223355632193285
 20
-0.4246582838157967
 10
-0.0142185208151986
 20
-0.4062759941794383
 10
0.0223297962265026
 20
-0.3954196301824364
 10
0.0223297962265026
 20
-0.3681417541102876
 10
-0.0160726090091088
 20
-0.3782051565935642
  0
LWPOLYLINE
  5
261
330
1D2
100
AcDbEntity
  8
image
100
AcDbPolyline
 90
       11
 70
     1
 43
0.0
 10
-0.0203084652406083
 20
-0.1652791309280612
 10
-0.058442705309758
 20
-0.1713661918570599
 10
-0.0582206760859148
 20
-0.197332077061044
 10
0.0223297962265026
 20
-0.2354576666409551
 10
0.0223297962265026
 20
-0.2089756355789447
 10
-0.0171308521928775
 20
-0.1907029188063012
 10
0.0223297962265026
 20
-0.1848724890581099
 10
0.0223297962265026
 20
-0.1594487011798735
 10
0.0217992328864103
 20
-0.1594487011798735
 10
-0.0582206760859148
 20
-0.1220151507392142
 10
-0.058442705309758
 20
-0.1475312105026854
  0
ENDBLK
  5
262
330
1D2
100
AcDbEntity
  8
0
100
AcDbBlockEnd
  0
BLOCK
  5
1D0
330
1CF
100
AcDbEntity
  8
0
100
AcDbBlockBegin
  2
A$C7808359E
 70
     0
 10
0.0
 20
0.0
 30
0.0
  3
A$C7808359E
  1

  0
INSERT
  5
1D1
330
1CF
100
AcDbEntity
  8
image
100
AcDbBlockReference
  2
rb_logo
 10
0.1436471945846645
 20
-0.4280481964508747
 30
0.0
  0
ENDBLK
  5
263
330
1CF
100
AcDbEntity
  8
0
100
AcDbBlockEnd
  0
ENDSEC
  0
SECTION
  2
ENTITIES
  0
CIRCLE
  5
15
330
2
100
AcDbEntity
  8
text_bubbles
100
AcDbCircle
 10
4.418220173282479
 20
5.478610189230373
 30
0.0
 40
0.15625
  0
TEXT
  5
17
330
2
100
AcDbEntity
  8
text_bubbles
100
AcDbText
 10
4.367624935187241
 20
5.416110189230373
 30
0.0
 40
0.125
  1
1
  7
ROMANS
 72
     4
 11
4.418220173282479
 21
5.478610189230373
 31
0.0
100
AcDbText
  0
CIRCLE
  5
19
330
2
100
AcDbEntity
  8
text_bubbles
100
AcDbCircle
 10
4.418220173282479
 20
5.120016349857091
 30
0.0
 40
0.15625
  0
TEXT
  5
1A
330
2
100
AcDbEntity
  8
text_bubbles
100
AcDbText
 10
4.35869636375867
 20
5.057516349857091
 30
0.0
 40
0.125
  1
2
  7
ROMANS
 72
     4
 11
4.418220173282479
 21
5.120016349857091
 31
0.0
100
AcDbText
  0
CIRCLE
  5
1B
330
2
100
AcDbEntity
  8
text_bubbles
100
AcDbCircle
 10
4.42683571506445
 20
4.547322539806863
 30
0.0
 40
0.15625
  0
TEXT
  5
1C
330
2
100
AcDbEntity
  8
text_bubbles
100
AcDbText
 10
4.367311905540641
 20
4.484822539806863
 30
0.0
 40
0.125
  1
3
  7
ROMANS
 72
     4
 11
4.42683571506445
 21
4.547322539806863
 31
0.0
100
AcDbText
  0
CIRCLE
  5
1D
330
2
100
AcDbEntity
  8
text_bubbles
100
AcDbCircle
 10
4.418220173282479
 20
4.125897206350101
 30
0.0
 40
0.15625
  0
TEXT
  5
1E
330
2
100
AcDbEntity
  8
text_bubbles
100
AcDbText
 10
4.355720173282479
 20
4.063397206350101
 30
0.0
 40
0.125
  1
4
  7
ROMANS
 72
     4
 11
4.418220173282479
 21
4.125897206350101
 31
0.0
100
AcDbText
  0
CIRCLE
  5
1F
330
2
100
AcDbEntity
  8
text_bubbles
100
AcDbCircle
 10
4.418220173282479
 20
3.775642058220371
 30
0.0
 40
0.15625
  0
TEXT
  5
20
330
2
100
AcDbEntity
  8
text_bubbles
100
AcDbText
 10
4.35869636375867
 20
3.713142058220371
 30
0.0
 40
0.125
  1
5
  7
ROMANS
 72
     4
 11
4.418220173282479
 21
3.775642058220371
 31
0.0
100
AcDbText
  0
CIRCLE
  5
21
330
2
100
AcDbEntity
  8
text_bubbles
100
AcDbCircle
 10
4.418220173282479
 20
3.41762470626266
 30
0.0
 40
0.15625
  0
TEXT
  5
22
330
2
100
AcDbEntity
  8
text_bubbles
100
AcDbText
 10
4.355720173282479
 20
3.35512470626266
 30
0.0
 40
0.125
  1
6
  7
ROMANS
 72
     4
 11
4.418220173282479
 21
3.41762470626266
 31
0.0
100
AcDbText
  0
CIRCLE
  5
23
330
2
100
AcDbEntity
  8
text_bubbles
100
AcDbCircle
 10
3.588249345650492
 20
1.80347095916251
 30
0.0
 40
0.15625
  0
TEXT
  5
24
330
2
100
AcDbEntity
  8
text_bubbles
100
AcDbText
 10
3.528725536126683
 20
1.74097095916251
 30
0.0
 40
0.125
  1
3
  7
ROMANS
 72
     4
 11
3.588249345650492
 21
1.80347095916251
 31
0.0
100
AcDbText
  0
CIRCLE
  5
25
330
2
100
AcDbEntity
  8
text_bubbles
100
AcDbCircle
 10
4.665544895021538
 20
1.803884257173425
 30
0.0
 40
0.15625
  0
TEXT
  5
26
330
2
100
AcDbEntity
  8
text_bubbles
100
AcDbText
 10
4.606021085497729
 20
1.741384257173425
 30
0.0
 40
0.125
  1
7
  7
ROMANS
 72
     4
 11
4.665544895021538
 21
1.803884257173425
 31
0.0
100
AcDbText
  0
CIRCLE
  5
27
330
2
100
AcDbEntity
  8
text_bubbles
100
AcDbCircle
 10
2.829549934577273
 20
1.803744500292894
 30
0.0
 40
0.15625
  0
TEXT
  5
28
330
2
100
AcDbEntity
  8
text_bubbles
100
AcDbText
 10
2.770026125053464
 20
1.741244500292894
 30
0.0
 40
0.125
  1
5
  7
ROMANS
 72
     4
 11
2.829549934577273
 21
1.803744500292894
 31
0.0
100
AcDbText
  0
TEXT
  5
29
330
2
100
AcDbEntity
  8
text_bubbles
100
AcDbText
 10
0.6563833327298038
 20
3.727274398326072
 30
0.0
 40
0.125
  1
3
  7
ROMANS
 72
     4
 11
0.7159071422536134
 21
3.789774398326072
 31
0.0
100
AcDbText
  0
CIRCLE
  5
2A
330
2
100
AcDbEntity
  8
text_bubbles
100
AcDbCircle
 10
0.7159071422536134
 20
3.789774398326072
 30
0.0
 40
0.15625
  0
TEXT
  5
2B
330
2
100
AcDbEntity
  8
text_bubbles
100
AcDbText
 10
0.6563833327298012
 20
7.254872032894621
 30
0.0
 40
0.125
  1
2
  7
ROMANS
 72
     4
 11
0.7159071422536108
 21
7.317372032894621
 31
0.0
100
AcDbText
  0
CIRCLE
  5
2C
330
2
100
AcDbEntity
  8
text_bubbles
100
AcDbCircle
 10
0.7159071422536108
 20
7.317372032894621
 30
0.0
 40
0.15625
  0
TEXT
  5
2D
330
2
100
AcDbEntity
  8
text_bubbles
100
AcDbText
 10
4.252459832317176
 20
1.74125502874357
 30
0.0
 40
0.125
  1
5
  7
ROMANS
 72
     4
 11
4.311983641840986
 21
1.80375502874357
 31
0.0
100
AcDbText
  0
CIRCLE
  5
2E
330
2
100
AcDbEntity
  8
text_bubbles
100
AcDbCircle
 10
4.311983641840986
 20
1.80375502874357
 30
0.0
 40
0.15625
  0
CIRCLE
  5
2F
330
2
100
AcDbEntity
  8
text_bubbles
100
AcDbCircle
 10
0.7159071422536108
 20
7.783156182863425
 30
0.0
 40
0.15625
  0
TEXT
  5
30
330
2
100
AcDbEntity
  8
text_bubbles
100
AcDbText
 10
0.6653119041583726
 20
7.720656182863425
 30
0.0
 40
0.125
  1
1
  7
ROMANS
 72
     4
 11
0.7159071422536108
 21
7.783156182863425
 31
0.0
100
AcDbText
  0
TEXT
  5
31
330
2
100
AcDbEntity
  8
text_leaders
100
AcDbText
 10
4.760000000000001
 20
5.564249207376819
 30
0.0
 40
0.125
  1
FINISH GRADE/TOP OF MULCH
  7
ROMANS
100
AcDbText
  0
TEXT
  5
33
330
2
100
AcDbEntity
  8
text_leaders
100
AcDbText
 10
4.760000000000001
 20
4.896335977253028
 30
0.0
 40
0.125
  1
  RAIN BIRD 1806
  7
ROMANS
100
AcDbText
  0
TEXT
  5
34
330
2
100
AcDbEntity
  8
text_leaders
100
AcDbText
 10
4.760000000000001
 20
5.081541166194861
 30
0.0
 40
0.125
  1
POP-UP SPRAY SPRINKLER:
  7
ROMANS
100
AcDbText
  0
LINE
  5
35
330
2
100
AcDbEntity
  8
image
100
AcDbLine
 10
2.337697083802058
 20
3.42115639413445
 30
0.0
 11
2.504530234049994
 21
3.42115639413445
 31
0.0
  0
LWPOLYLINE
  5
37
330
2
100
AcDbEntity
  8
image
100
AcDbPolyline
 90
        2
 70
     0
 43
0.0
 10
2.349727560073423
 20
3.440479473232284
 10
2.492216032321856
 20
3.440479473232284
  0
LINE
  5
38
330
2
100
AcDbEntity
  8
image
100
AcDbLine
 10
2.504530234049993
 20
3.467941052104118
 30
0.0
 11
2.504530234049994
 21
3.100097288830757
 31
0.0
  0
LINE
  5
39
330
2
100
AcDbEntity
  8
image
100
AcDbLine
 10
2.337697083802058
 20
3.467941052104118
 30
0.0
 11
2.337697083802058
 21
3.100097288830757
 31
0.0
  0
LWPOLYLINE
  5
3A
330
2
100
AcDbEntity
  8
image
100
AcDbPolyline
 90
        2
 70
     0
 43
0.0
 10
2.699759896723575
 20
2.954575019455444
 10
2.670247000353834
 20
2.81517647688214
  0
LINE
  5
3B
330
2
100
AcDbEntity
  8
image
100
AcDbLine
 10
2.721105390742197
 20
2.962248232864808
 30
0.0
 11
2.686550107801691
 21
2.799032938107999
 31
0.0
  0
LINE
  5
3C
330
2
100
AcDbEntity
  8
image
100
AcDbLine
 10
3.686527083209988
 20
2.757341164912409
 30
0.0
 11
3.651971800269482
 21
2.5941258701556
 31
0.0
  0
LWPOLYLINE
  5
3D
330
2
100
AcDbEntity
  8
image
100
AcDbPolyline
 90
        2
 70
     0
 43
0.0
 10
3.70331790327595
 20
2.741453834848466
 10
3.673805006906208
 20
2.602055292275162
  0
LWPOLYLINE
  5
3E
330
2
100
AcDbEntity
  8
image
100
AcDbPolyline
 90
        2
 70
     0
 43
0.0
 10
2.349727560073423
 20
3.119333914776232
 10
2.492216032321856
 20
3.119333914776232
  0
LINE
  5
3F
330
2
100
AcDbEntity
  8
image
100
AcDbLine
 10
2.337697083802058
 20
3.139884986135297
 30
0.0
 11
2.504530234049994
 21
3.139884986135297
 31
0.0
  0
LWPOLYLINE
  5
40
330
2
100
AcDbEntity
  8
image
100
AcDbPolyline
 90
        4
 70
     0
 43
0.0
 10
1.796597316440745
 20
2.711888063958301
 42
0.6332430429610296
 10
1.796597316440745
 20
2.612410852502446
 42
-0.6332430429610812
 10
1.796597316440745
 20
2.512933641046591
 42
-0.6134111328532366
 10
1.796597316440747
 20
2.612410852502445
 42
-0.6134111328532366
  0
LWPOLYLINE
  5
41
330
2
100
AcDbEntity
  8
image
100
AcDbPolyline
 90
        4
 70
     0
 43
0.0
 10
4.601898187686517
 20
2.713321798670927
 42
-0.6332430429610296
 10
4.601898187686517
 20
2.613844587215072
 42
0.6332430429610812
 10
4.601898187686517
 20
2.514367375759217
 42
0.6134111328532366
 10
4.601898187686515
 20
2.613844587215071
 42
0.6134111328532366
  0
ARC
  5
42
330
2
100
AcDbEntity
  8
image
100
AcDbCircle
 10
2.421494841468657
 20
2.943592953724656
 30
0.0
 40
0.0983684976157295
100
AcDbArc
 50
179.379115872957
 51
0.2371380430744057
  0
LINE
  5
43
330
2
100
AcDbEntity
  8
image
100
AcDbLine
 10
3.690194552909176
 20
2.585857722177621
 30
0.0
 11
2.647512933309796
 21
2.806610063040076
 31
0.0
  0
LINE
  5
44
330
2
100
AcDbEntity
  8
image
100
AcDbLine
 10
3.725078007954081
 20
2.749003192803624
 30
0.0
 11
2.682396388354701
 21
2.969755533666079
 31
0.0
  0
LINE
  5
45
330
2
100
AcDbEntity
  8
image
100
AcDbLine
 10
2.323943845252239
 20
3.100097288830756
 30
0.0
 11
2.519551108419216
 21
3.100097288830756
 31
0.0
  0
LINE
  5
46
330
2
100
AcDbEntity
  8
image
100
AcDbLine
 10
2.323943845252239
 20
3.100097288830756
 30
0.0
 11
2.323126343852928
 21
2.943592953724656
 31
0.0
  0
LINE
  5
47
330
2
100
AcDbEntity
  8
image
100
AcDbLine
 10
2.519551108419216
 20
3.100097288830756
 30
0.0
 11
2.519863339084386
 21
2.943592953724656
 31
0.0
  0
LINE
  5
48
330
2
100
AcDbEntity
  8
image
100
AcDbLine
 10
4.225373934337723
 20
2.737838080659785
 30
0.0
 11
4.225373934337721
 21
2.490768401263157
 31
0.0
  0
LINE
  5
49
330
2
100
AcDbEntity
  8
image
100
AcDbLine
 10
3.726814776526451
 20
2.758220127188914
 30
0.0
 11
3.967378292427719
 21
2.707155584202828
 31
0.0
  0
LINE
  5
4A
330
2
100
AcDbEntity
  8
image
100
AcDbLine
 10
3.68788707440693
 20
2.576160228749889
 30
0.0
 11
3.928374467798901
 21
2.524739670495556
 31
0.0
  0
LINE
  5
4B
330
2
100
AcDbEntity
  8
image
100
AcDbLine
 10
3.967378292427719
 20
2.707155584202828
 30
0.0
 11
3.978868390765565
 21
2.685467632378403
 31
0.0
  0
LINE
  5
4C
330
2
100
AcDbEntity
  8
image
100
AcDbLine
 10
3.928374467798901
 20
2.524739670495556
 30
0.0
 11
3.948944290924199
 21
2.537344961646708
 31
0.0
  0
LINE
  5
4D
330
2
100
AcDbEntity
  8
image
100
AcDbLine
 10
3.948944290924199
 20
2.537344961646708
 30
0.0
 11
3.978868390765565
 21
2.685467632378403
 31
0.0
  0
ARC
  5
4E
330
2
100
AcDbEntity
  8
image
100
AcDbCircle
 10
3.945701560911047
 20
2.615084070641933
 30
0.0
 40
0.077806711569825
100
AcDbArc
 50
272.3885930691139
 51
64.76879059918148
  0
LINE
  5
4F
330
2
100
AcDbEntity
  8
image
100
AcDbLine
 10
2.645544585520326
 20
2.797255255525233
 30
0.0
 11
2.416333744974473
 21
2.845359942948466
 31
0.0
  0
LINE
  5
50
330
2
100
AcDbEntity
  8
image
100
AcDbLine
 10
2.683878369188098
 20
2.979441132150306
 30
0.0
 11
2.519728796415503
 21
3.014233734847366
 31
0.0
  0
LINE
  5
51
330
2
100
AcDbEntity
  8
image
100
AcDbLine
 10
2.683878369188098
 20
2.979441132150306
 30
0.0
 11
2.645544585520326
 21
2.797255255525234
 31
0.0
  0
LINE
  5
52
330
2
100
AcDbEntity
  8
image
100
AcDbLine
 10
3.726814776526451
 20
2.758220127188914
 30
0.0
 11
3.68788707440693
 21
2.57616022874989
 31
0.0
  0
LINE
  5
53
330
2
100
AcDbEntity
  8
image
100
AcDbLine
 10
4.225373934337723
 20
2.490768401263157
 30
0.0
 11
3.664808887494137
 21
2.490768401263157
 31
0.0
  0
LINE
  5
54
330
2
100
AcDbEntity
  8
image
100
AcDbLine
 10
3.664808887494137
 20
2.59123227272055
 30
0.0
 11
3.664808887494137
 21
2.490768401263158
 31
0.0
  0
LINE
  5
55
330
2
100
AcDbEntity
  8
image
100
AcDbLine
 10
3.967378292427721
 20
2.707155584202829
 30
0.0
 11
3.928374467798901
 21
2.524739670495556
 31
0.0
  0
LINE
  5
56
330
2
100
AcDbEntity
  8
image
100
AcDbLine
 10
4.601898187686517
 20
2.713321798670927
 30
0.0
 11
4.225373934337723
 21
2.713321798670927
 31
0.0
  0
LINE
  5
57
330
2
100
AcDbEntity
  8
image
100
AcDbLine
 10
4.601898187686517
 20
2.514367375759217
 30
0.0
 11
4.225373934337721
 21
2.514367375759217
 31
0.0
  0
LINE
  5
58
330
2
100
AcDbEntity
  8
image
100
AcDbLine
 10
3.664808887494137
 20
2.512933641046591
 30
0.0
 11
1.796597316440745
 21
2.512933641046591
 31
0.0
  0
LINE
  5
59
330
2
100
AcDbEntity
  8
image
100
AcDbLine
 10
3.094914247508372
 20
2.711888063958302
 30
0.0
 11
1.796597316440745
 21
2.711888063958301
 31
0.0
  0
LINE
  5
5A
330
2
100
AcDbEntity
  8
image
100
AcDbLine
 10
3.822833980607967
 20
2.737838080659786
 30
0.0
 11
4.225373934337723
 21
2.737838080659787
 31
0.0
  0
CIRCLE
  5
5B
330
2
100
AcDbEntity
  8
text_bubbles
100
AcDbCircle
 10
3.935796563451078
 20
1.80375502874357
 30
0.0
 40
0.15625
  0
TEXT
  5
5C
330
2
100
AcDbEntity
  8
text_bubbles
100
AcDbText
 10
3.873296563451078
 20
1.74125502874357
 30
0.0
 40
0.125
  1
6
  7
ROMANS
 72
     4
 11
3.935796563451078
 21
1.80375502874357
 31
0.0
100
AcDbText
  0
CIRCLE
  5
5D
330
2
100
AcDbEntity
  8
text_bubbles
100
AcDbCircle
 10
0.7159071422536134
 20
3.449657701191062
 30
0.0
 40
0.15625
  0
TEXT
  5
5E
330
2
100
AcDbEntity
  8
text_bubbles
100
AcDbText
 10
0.6534071422536134
 20
3.387157701191062
 30
0.0
 40
0.125
  1
4
  7
ROMANS
 72
     4
 11
0.7159071422536134
 21
3.449657701191062
 31
0.0
100
AcDbText
  0
TEXT
  5
5F
330
2
100
AcDbEntity
  8
text_leaders
100
AcDbText
 10
4.760000000000001
 20
1.805191905946225
 30
0.0
 40
0.125
  1
PVC SCH 40 TEE OR ELL
  7
ROMANS
100
AcDbText
  0
TEXT
  5
60
330
2
100
AcDbEntity
  8
text_leaders
100
AcDbText
 10
4.760000000000001
 20
2.163833783875351
 30
0.0
 40
0.125
  1
PVC LATERAL PIPE
  7
ROMANS
100
AcDbText
  0
TEXT
  5
61
330
2
100
AcDbEntity
  8
text_leaders
100
AcDbText
 10
4.760000000000001
 20
2.804101118216927
 30
0.0
 40
0.125
  1
PVC SCH 40 STREET ELL
  7
ROMANS
100
AcDbText
  0
TEXT
  5
62
330
2
100
AcDbEntity
  8
text_leaders
100
AcDbText
 10
4.760000000000001
 20
3.077645063401954
 30
0.0
 40
0.125
  1
  (LENGTH AS REQUIRED)
  7
ROMANS
100
AcDbText
  0
TEXT
  5
63
330
2
100
AcDbEntity
  8
text_leaders
100
AcDbText
 10
4.760000000000001
 20
3.272149060409521
 30
0.0
 40
0.125
  1
PVC SCH 80 NIPPLE
  7
ROMANS
100
AcDbText
  0
TEXT
  5
64
330
2
100
AcDbEntity
  8
text_leaders
100
AcDbText
 10
4.760000000000001
 20
4.110260816241147
 30
0.0
 40
0.125
  1
  (LENGTH AS REQUIRED)
  7
ROMANS
100
AcDbText
  0
TEXT
  5
65
330
2
100
AcDbEntity
  8
text_leaders
100
AcDbText
 10
4.760000000000001
 20
4.290216804053102
 30
0.0
 40
0.125
  1
PVC SCH 80 NIPPLE
  7
ROMANS
100
AcDbText
  0
TEXT
  5
66
330
2
100
AcDbEntity
  8
text_leaders
100
AcDbText
 10
4.760000000000001
 20
3.900616991880548
 30
0.0
 40
0.125
  1
PVC SCH 40 ELL
  7
ROMANS
100
AcDbText
  0
TEXT
  5
67
330
2
100
AcDbEntity
  8
text_leaders
100
AcDbText
 10
4.760000000000001
 20
3.700195773792132
 30
0.0
 40
0.125
  1
PVC SCH 40 STREET ELL
  7
ROMANS
100
AcDbText
  0
TEXT
  5
68
330
2
100
AcDbEntity
  8
text_bubbles
100
AcDbText
 10
4.760000000000001
 20
2.996564498667342
 30
0.0
 40
0.125
  1
PVC LATERAL PIPE
  7
ROMANS
100
AcDbText
  0
TEXT
  5
69
330
2
100
AcDbEntity
  8
text_bubbles
100
AcDbText
 10
4.760000000000001
 20
3.711250611753629
 30
0.0
 40
0.125
  1
PVC SCH 40 STREET ELL
  7
ROMANS
100
AcDbText
  0
TEXT
  5
6A
330
2
100
AcDbEntity
  8
text_bubbles
100
AcDbText
 10
4.760000000000001
 20
4.06
 30
0.0
 40
0.125
  1
PVC SCH 40 ELL
  7
ROMANS
100
AcDbText
  0
TEXT
  5
6B
330
2
100
AcDbEntity
  8
text_bubbles
100
AcDbText
 10
4.760000000000001
 20
4.288715363249814
 30
0.0
 40
0.125
  1
 (LENGTH AS REQUIRED)
  7
ROMANS
100
AcDbText
  0
TEXT
  5
6C
330
2
100
AcDbEntity
  8
text_bubbles
100
AcDbText
 10
4.760000000000001
 20
4.48
 30
0.0
 40
0.125
  1
PVC SCH 80 NIPPLE
  7
ROMANS
100
AcDbText
  0
TEXT
  5
6D
330
2
100
AcDbEntity
  8
text_bubbles
100
AcDbText
 10
4.760000000000001
 20
5.405936745776008
 30
0.0
 40
0.125
  1
FINISH GRADE/TOP OF MULCH
  7
ROMANS
100
AcDbText
  0
TEXT
  5
6E
330
2
100
AcDbEntity
  8
text_bubbles
100
AcDbText
 10
4.760000000000001
 20
3.345313886913712
 30
0.0
 40
0.125
  1
PVC SCH 40 TEE OR ELL
  7
ROMANS
100
AcDbText
  0
TEXT
  5
6F
330
2
100
AcDbEntity
  8
text_bubbles
100
AcDbText
 10
4.760000000000001
 20
4.888585618148939
 30
0.0
 40
0.125
  1
 RAIN BIRD RD-12
  7
ROMANS
100
AcDbText
  0
TEXT
  5
70
330
2
100
AcDbEntity
  8
text_bubbles
100
AcDbText
 10
4.760000000000001
 20
5.04
 30
0.0
 40
0.125
  1
POP-UP SPRAY SPRINKLER:
  7
ROMANS
100
AcDbText
  0
TEXT
  5
71
330
2
100
AcDbEntity
  8
text_bubbles
100
AcDbText
 10
4.35869636375867
 20
3.006145403462033
 30
0.0
 40
0.125
  1
7
  7
ROMANS
 72
     4
 11
4.418220173282479
 21
3.068645403462033
 31
0.0
100
AcDbText
  0
CIRCLE
  5
72
330
2
100
AcDbEntity
  8
text_bubbles
100
AcDbCircle
 10
4.418220173282479
 20
3.068645403462033
 30
0.0
 40
0.15625
  0
LWPOLYLINE
  5
73
330
2
100
AcDbEntity
  8
instruct-callout
100
AcDbPolyline
 90
        4
 70
     1
 43
0.0
 10
11.84072718331551
 20
10.00891746304441
 10
11.84072718331551
 20
8.577431441702172
 10
16.27242397469758
 20
8.577431441702172
 10
16.27242397469758
 20
10.00891746304441
  0
TEXT
  5
75
330
2
100
AcDbEntity
  8
instruct-callout
100
AcDbText
 10
12.17131960325753
 20
10.06603295376161
 30
0.0
 40
0.10000000149
  1
CHOOSING EQUIPMENT CALLOUT METHOD
  7
ROMANS
100
AcDbText
  0
TEXT
  5
76
330
2
100
AcDbEntity
  8
instruct-callout
100
AcDbText
 10
11.93856983421081
 20
9.691921890286732
 30
0.0
 40
0.10000000149
  1
CHOOSE EITHER LEADERS OR BUBBLE CALLOUTS
  7
ROMANS
100
AcDbText
  0
TEXT
  5
77
330
2
100
AcDbEntity
  8
instruct-callout
100
AcDbText
 10
11.93856983421081
 20
9.530021846799732
 30
0.0
 40
0.10000000149
  1
BY TURNING ON THE APPROPRIATE LAYER:
  7
ROMANS
100
AcDbText
  0
TEXT
  5
78
330
2
100
AcDbEntity
  8
instruct-callout
100
AcDbText
 10
12.37491356647363
 20
9.193004552324556
 30
0.0
 40
0.10000000149
  1
TEXT_LEADERS         TEXT_BUBBLES
  7
ROMANS
100
AcDbText
  0
LINE
  5
79
330
2
100
AcDbEntity
  8
instruct-callout
100
AcDbLine
 10
12.68203821843043
 20
8.940533298622941
 30
0.0
 11
12.81830676428905
 21
8.940533298622939
 31
0.0
  0
LINE
  5
7A
330
2
100
AcDbEntity
  8
instruct-callout
100
AcDbLine
 10
12.3942678039521
 20
8.820781596816658
 30
0.0
 11
12.68203821843043
 21
8.940533298622941
 31
0.0
  0
SOLID
  5
7B
330
2
100
AcDbEntity
  8
instruct-callout
100
AcDbTrace
 10
12.47965380149243
 20
8.823819922678547
 30
0.0
 11
12.4566019166007
 21
8.879214963999393
 31
0.0
 12
12.30194273508402
 22
8.78236178866377
 32
0.0
 13
12.30194273508402
 23
8.78236178866377
 33
0.0
  0
TEXT
  5
7C
330
2
100
AcDbEntity
  8
instruct-callout
100
AcDbText
 10
12.84428150130618
 20
8.875782689229041
 30
0.0
 40
0.10000000149
  1
ITEM 1
  7
ROMANS
100
AcDbText
  0
SOLID
  5
7D
330
2
100
AcDbEntity
  8
instruct-callout
100
AcDbTrace
 10
14.62212312954185
 20
8.837245957229946
 30
0.0
 11
14.63792542319619
 21
8.779364289015717
 31
0.0
 12
14.45637927172634
 22
8.760898242159814
 32
0.0
 13
14.45637927172634
 23
8.760898242159814
 33
0.0
  0
LINE
  5
7E
330
2
100
AcDbEntity
  8
instruct-callout
100
AcDbLine
 10
14.55284871875005
 20
8.787235398250381
 30
0.0
 11
14.8087301356749
 21
8.857093669714998
 31
0.0
  0
TEXT
  5
7F
330
2
100
AcDbEntity
  8
instruct-callout
100
AcDbText
 10
14.88884075397835
 20
8.840015114828203
 30
0.0
 40
0.1
  1
1
  7
ROMANS
 72
     4
 11
14.92931694445454
 21
8.890015114828203
 31
0.0
100
AcDbText
  0
CIRCLE
  5
80
330
2
100
AcDbEntity
  8
instruct-callout
100
AcDbCircle
 10
14.92931694445454
 20
8.890015114828203
 30
0.0
 40
0.125
  0
TEXT
  5
81
330
2
100
AcDbEntity
  8
instruct-callout
100
AcDbText
 10
11.8797545305326
 20
8.22620338496676
 30
0.0
 40
0.10000000149
  1
LAYER "INSTRUCT-CALLOUT".
  7
ROMANS
100
AcDbText
  0
TEXT
  5
82
330
2
100
AcDbEntity
  8
instruct-callout
100
AcDbText
 10
11.8797545305326
 20
8.38810342845476
 30
0.0
 40
0.10000000149
  1
TO TURN OFF THIS INSTRUCTION BOX, TURN OFF
  7
ROMANS
100
AcDbText
  0
LEADER
  5
83
330
2
100
AcDbEntity
  8
text_leaders
100
AcDbLeader
  3
Standard
 76
     3
 10
4.017390347188547
 20
2.490768401263158
 30
0.0
 10
4.547671385504213
 20
1.854146957075354
 30
0.0
 10
4.734025262982872
 20
1.854146957075354
 30
0.0
211
-1.0
221
0.0
231
0.0
210
0.0
220
0.0
230
-1.0
  0
LEADER
  5
86
330
2
100
AcDbEntity
  8
text_leaders
100
AcDbLeader
  3
Standard
 76
     3
 10
4.29762143997226
 20
2.514367375759217
 30
0.0
 10
4.547671385504212
 20
2.216369454843527
 30
0.0
 10
4.734025262982871
 20
2.216369454843528
 30
0.0
211
-1.0
221
0.0
231
0.0
210
0.0
220
0.0
230
-1.0
  0
LEADER
  5
87
330
2
100
AcDbEntity
  8
text_leaders
100
AcDbLeader
  3
Standard
 76
     3
 10
4.023508272480872
 20
2.615084070641933
 30
0.0
 10
4.553141627621172
 20
2.851022075562393
 30
0.0
 10
4.734025262982871
 20
2.851022075562392
 30
0.0
  0
LEADER
  5
88
330
2
100
AcDbEntity
  8
text_leaders
100
AcDbLeader
  3
Standard
 76
     3
 10
3.329591696293942
 20
2.825823828639862
 30
0.0
 10
4.553141627621172
 20
3.334987311574725
 30
0.0
 10
4.734025262982871
 20
3.334987311574724
 30
0.0
  0
LEADER
  5
89
330
2
100
AcDbEntity
  8
text_leaders
100
AcDbLeader
  3
Standard
 76
     3
 10
2.504530234049993
 20
3.298806529115216
 30
0.0
 10
4.553141627621174
 20
4.360133288270055
 30
0.0
 10
4.734025262982871
 20
4.360133288270055
 30
0.0
  0
LEADER
  5
8A
330
2
100
AcDbEntity
  8
text_leaders
100
AcDbLeader
  3
Standard
 76
     3
 10
2.672843235015546
 20
2.981780102837157
 30
0.0
 10
4.553141627621174
 20
3.764240429157801
 30
0.0
 10
4.734025262982871
 20
3.7642404291578
 30
0.0
  0
LEADER
  5
8B
330
2
100
AcDbEntity
  8
text_leaders
100
AcDbLeader
  3
Standard
 76
     3
 10
2.519604000704021
 20
3.073585248890471
 30
0.0
 10
4.553141627621174
 20
3.968766833315472
 30
0.0
 10
4.734025262982871
 20
3.968766833315471
 30
0.0
  0
LEADER
  5
8C
330
2
100
AcDbEntity
  8
text_leaders
100
AcDbLeader
  3
Standard
 76
     3
 10
2.627828782382153
 20
4.314429601266857
 30
0.0
 10
4.547671385504211
 20
5.155096412981608
 30
0.0
 10
4.734025262982871
 20
5.155096412981607
 30
0.0
  0
LEADER
  5
8D
330
2
100
AcDbEntity
  8
text_leaders
100
AcDbLeader
  3
Standard
 76
     3
 10
3.854600114133155
 20
6.076802910745991
 30
0.0
 10
4.547671385504212
 20
5.628999816770719
 30
0.0
 10
4.734025262982871
 20
5.628999816770718
 30
0.0
  0
LEADER
  5
8E
330
2
100
AcDbEntity
  8
text_bubbles
100
AcDbLeader
  3
Standard
 76
     2
 10
2.323424182674922
 20
3.000611898088905
 30
0.0
 10
0.8721571422536133
 20
3.449657701191062
 30
0.0
  0
LEADER
  5
8F
330
2
100
AcDbEntity
  8
text_bubbles
100
AcDbLeader
  3
Standard
 76
     2
 10
3.764201493254164
 20
2.490768401263157
 30
0.0
 10
3.897933242317456
 20
1.955348008174453
 30
0.0
  0
LEADER
  5
90
330
2
100
AcDbEntity
  8
text_bubbles
100
AcDbLeader
  3
Standard
 76
     2
 10
1.16763206897492
 20
8.318889554832516
 30
0.0
 10
0.8721571422536106
 20
7.783156182863425
 30
0.0
  0
LEADER
  5
91
330
2
100
AcDbEntity
  8
text_bubbles
100
AcDbLeader
  3
Standard
 76
     2
 10
3.985065673734272
 20
2.547969608810296
 30
0.0
 10
4.274120320707364
 20
1.955348008174453
 30
0.0
  0
LEADER
  5
92
330
2
100
AcDbEntity
  8
text_bubbles
100
AcDbLeader
  3
Standard
 76
     2
 10
2.578089725621017
 20
2.811412068278533
 30
0.0
 10
2.79189800336527
 20
1.955390121977157
 30
0.0
  0
LEADER
  5
93
330
2
100
AcDbEntity
  8
text_bubbles
100
AcDbLeader
  3
Standard
 76
     2
 10
4.485427435212832
 20
2.514367375759217
 30
0.0
 10
4.625182600554063
 20
1.954831094455034
 30
0.0
  0
LEADER
  5
94
330
2
100
AcDbEntity
  8
text_bubbles
100
AcDbLeader
  3
Standard
 76
     2
 10
3.38317752017002
 20
2.650858128234317
 30
0.0
 10
3.556611011978984
 20
1.956484286498694
 30
0.0
  0
LEADER
  5
95
330
2
100
AcDbEntity
  8
text_bubbles
100
AcDbLeader
  3
Standard
 76
     2
 10
2.337697083802058
 20
3.292905209985559
 30
0.0
 10
0.8721571422536133
 20
3.789774398326072
 30
0.0
  0
LEADER
  5
96
330
2
100
AcDbEntity
  8
text_bubbles
100
AcDbLeader
  3
Standard
 76
     2
 10
2.215426355022168
 20
6.858417567346656
 30
0.0
 10
0.8721571422536108
 20
7.317372032894621
 30
0.0
  0
INSERT
  5
97
330
2
100
AcDbEntity
  8
title
100
AcDbBlockReference
 66
     1
  2
titleblock
 10
0.0
 20
0.0
 30
0.0
  0
ATTRIB
  5
AB
330
97
100
AcDbEntity
  8
title
100
AcDbText
 10
0.5055556038023421
 20
0.7842270964783673
 30
0.0
 40
0.2
  1
D
  7
L200
 72
     4
 11
0.6064423705144839
 21
0.8842270964783672
 31
0.0
100
AcDbAttribute
  2
D
 70
     0
  0
ATTRIB
  5
AC
330
97
100
AcDbEntity
  8
title
100
AcDbText
 10
1.231442370514484
 20
1.34371230274675
 30
0.0
 40
0.2
  1

  7
L200
100
AcDbAttribute
  2
TITLE1
 70
     0
  0
ATTRIB
  5
AD
330
97
100
AcDbEntity
  8
title
100
AcDbText
 10
1.231442370514484
 20
0.9842270964783674
 30
0.0
 40
0.2
  1
POP-UP SPRAY SPRINKLER
  7
L200
100
AcDbAttribute
  2
TITLE2
 70
     0
  0
ATTRIB
  5
AE
330
97
100
AcDbEntity
  8
title
100
AcDbText
 10
2.713645751168312
 20
0.5927927664583189
 30
0.0
 40
0.2
  1
RD-12 WITH SWING JOINT
  7
L200
100
AcDbAttribute
  2
TITLE3
 70
     0
  0
ATTRIB
  5
AF
330
97
100
AcDbEntity
  8
title
100
AcDbText
 10
2.713645751168312
 20
0.2692560808167742
 30
0.0
 40
0.2
  1

  7
L200
100
AcDbAttribute
  2
TITLE4
 70
     0
  0
ATTRIB
  5
B0
330
97
100
AcDbEntity
  8
title
 62
     7
100
AcDbText
 10
7.464833877585428
 20
0.9696027915446398
 30
0.0
 40
0.08
  1
04-24-2012
  7
L80
 72
     2
 11
8.261024353775905
 21
0.9696027915446398
 31
0.0
100
AcDbAttribute
  2
REVISED
 70
     0
  0
ATTRIB
  5
B1
330
97
100
AcDbEntity
  8
title
 62
     7
100
AcDbText
 10
0.2639423705144839
 20
0.0847116480207214
 30
0.0
 40
0.08
  1
S-RD-12-SJ.DWG
  7
L80
100
AcDbAttribute
  2
DWG-NAME
 70
     0
  0
ATTRIB
  5
B2
330
97
100
AcDbEntity
  8
title
 62
     7
100
AcDbText
 10
1.231442370514484
 20
0.7005637793954894
 30
0.0
 40
0.1
  1
N.T.S.
  7
L100
100
AcDbAttribute
  2
SCALE
 70
     0
  0
SEQEND
  5
B3
330
97
100
AcDbEntity
  8
title
  0
ARC
  5
B4
330
2
100
AcDbEntity
  8
image
100
AcDbCircle
 10
3.771922263059686
 20
9.158382559951103
 30
0.0
 40
0.1566980695398199
100
AcDbArc
 50
98.53076560994793
 51
187.7294390983636
  0
ARC
  5
B5
330
2
100
AcDbEntity
  8
image
100
AcDbCircle
 10
3.593403254223858
 20
9.292271816577974
 30
0.0
 40
0.1566980695398199
100
AcDbArc
 50
278.5307656099479
 51
7.729439098363579
  0
ARC
  5
B6
330
2
100
AcDbEntity
  8
image
100
AcDbCircle
 10
3.349427275481557
 20
9.05275881305657
 30
0.0
 40
0.1566980695398199
100
AcDbArc
 50
98.53076560994793
 51
187.7294390983636
  0
ARC
  5
B7
330
2
100
AcDbEntity
  8
image
100
AcDbCircle
 10
3.17090826664573
 20
9.186648069683442
 30
0.0
 40
0.1566980695398199
100
AcDbArc
 50
278.5307656099479
 51
7.729439098363579
  0
ARC
  5
B8
330
2
100
AcDbEntity
  8
image
100
AcDbCircle
 10
3.462032931232834
 20
8.82276061185092
 30
0.0
 40
0.1566980695398199
100
AcDbArc
 50
159.7199718669748
 51
248.9186453553905
  0
ARC
  5
B9
330
2
100
AcDbEntity
  8
image
100
AcDbCircle
 10
3.258685377026752
 20
8.730863159469326
 30
0.0
 40
0.1566980695398199
100
AcDbArc
 50
339.7199718669747
 51
68.91864535539044
  0
ARC
  5
BA
330
2
100
AcDbEntity
  8
image
100
AcDbCircle
 10
3.780724241967563
 20
8.920729129438406
 30
0.0
 40
0.1566980695398199
100
AcDbArc
 50
98.53076560994793
 51
187.7294390983636
  0
ARC
  5
BB
330
2
100
AcDbEntity
  8
image
100
AcDbCircle
 10
3.602205233131734
 20
9.054618386065278
 30
0.0
 40
0.1566980695398199
100
AcDbArc
 50
278.5307656099479
 51
7.729439098363579
  0
ARC
  5
BC
330
2
100
AcDbEntity
  8
image
100
AcDbCircle
 10
2.9670187627721
 20
9.176380366637399
 30
0.0
 40
0.1566980695398199
100
AcDbArc
 50
143.5307656099477
 51
232.7294390983635
  0
ARC
  5
BD
330
2
100
AcDbEntity
  8
image
100
AcDbCircle
 10
2.746112759764698
 20
9.144822366207769
 30
0.0
 40
0.1566980695398199
100
AcDbArc
 50
323.5307656099477
 51
52.72943909836342
  0
ARC
  5
BE
330
2
100
AcDbEntity
  8
image
100
AcDbCircle
 10
3.111773844968861
 20
8.498234141860278
 30
0.0
 40
0.1566980695398199
100
AcDbArc
 50
98.53076560994793
 51
187.7294390983636
  0
ARC
  5
BF
330
2
100
AcDbEntity
  8
image
100
AcDbCircle
 10
2.933254836133032
 20
8.632123398487149
 30
0.0
 40
0.1566980695398199
100
AcDbArc
 50
278.5307656099479
 51
7.729439098363579
  0
ARC
  5
C0
330
2
100
AcDbEntity
  8
image
100
AcDbCircle
 10
3.45505102237609
 20
8.375006437149989
 30
0.0
 40
0.1566980695398199
100
AcDbArc
 50
98.53076560994793
 51
187.7294390983636
  0
ARC
  5
C1
330
2
100
AcDbEntity
  8
image
100
AcDbCircle
 10
3.276532013540261
 20
8.508895693776862
 30
0.0
 40
0.1566980695398199
100
AcDbArc
 50
278.5307656099479
 51
7.729439098363579
  0
ARC
  5
C2
330
2
100
AcDbEntity
  8
image
100
AcDbCircle
 10
3.012229967606178
 20
8.94211065325839
 30
0.0
 40
0.1566980695398199
100
AcDbArc
 50
339.7199718669747
 51
68.91864535539044
  0
ARC
  5
C3
330
2
100
AcDbEntity
  8
image
100
AcDbCircle
 10
3.21557752181226
 20
9.034008105639985
 30
0.0
 40
0.1566980695398199
100
AcDbArc
 50
159.7199718669748
 51
248.9186453553905
  0
ARC
  5
C4
330
2
100
AcDbEntity
  8
image
100
AcDbCircle
 10
3.029833925421933
 20
9.223773978310475
 30
0.0
 40
0.1566980695398199
100
AcDbArc
 50
339.7199718669747
 51
68.91864535539044
  0
ARC
  5
C5
330
2
100
AcDbEntity
  8
image
100
AcDbCircle
 10
3.233181479628016
 20
9.31567143069207
 30
0.0
 40
0.1566980695398199
100
AcDbArc
 50
159.7199718669748
 51
248.9186453553905
  0
ARC
  5
C6
330
2
100
AcDbEntity
  8
image
100
AcDbCircle
 10
3.469932870815816
 20
8.598833475851161
 30
0.0
 40
0.1566980695398199
100
AcDbArc
 50
339.7199718669747
 51
68.91864535539044
  0
ARC
  5
C7
330
2
100
AcDbEntity
  8
image
100
AcDbCircle
 10
3.673280425021899
 20
8.690730928232756
 30
0.0
 40
0.1566980695398199
100
AcDbArc
 50
159.7199718669748
 51
248.9186453553905
  0
ARC
  5
C8
330
2
100
AcDbEntity
  8
image
100
AcDbCircle
 10
3.41712099736855
 20
8.52841764458814
 30
0.0
 40
0.1566980695398199
100
AcDbArc
 50
339.7199718669747
 51
68.91864535539044
  0
ARC
  5
C9
330
2
100
AcDbEntity
  8
image
100
AcDbCircle
 10
3.620468551574633
 20
8.620315096969735
 30
0.0
 40
0.1566980695398199
100
AcDbArc
 50
159.7199718669748
 51
248.9186453553905
  0
ARC
  5
CA
330
2
100
AcDbEntity
  8
image
100
AcDbCircle
 10
3.584358596618226
 20
8.986120547797778
 30
0.0
 40
0.1566980695398199
100
AcDbArc
 50
339.7199718669747
 51
68.91864535539044
  0
ARC
  5
CB
330
2
100
AcDbEntity
  8
image
100
AcDbCircle
 10
3.787706150824308
 20
9.078018000179373
 30
0.0
 40
0.1566980695398199
100
AcDbArc
 50
159.7199718669748
 51
248.9186453553905
  0
ARC
  5
CC
330
2
100
AcDbEntity
  8
image
100
AcDbCircle
 10
3.285091313750386
 20
8.950912632166268
 30
0.0
 40
0.1566980695398199
100
AcDbArc
 50
339.7199718669747
 51
68.91864535539044
  0
ARC
  5
CD
330
2
100
AcDbEntity
  8
image
100
AcDbCircle
 10
3.488438867956467
 20
9.042810084547863
 30
0.0
 40
0.1566980695398199
100
AcDbArc
 50
159.7199718669748
 51
248.9186453553905
  0
ARC
  5
CE
330
2
100
AcDbEntity
  8
image
100
AcDbCircle
 10
3.41712099736855
 20
9.20617002049472
 30
0.0
 40
0.1566980695398199
100
AcDbArc
 50
339.7199718669747
 51
68.91864535539044
  0
ARC
  5
CF
330
2
100
AcDbEntity
  8
image
100
AcDbCircle
 10
3.620468551574633
 20
9.298067472876315
 30
0.0
 40
0.1566980695398199
100
AcDbArc
 50
159.7199718669748
 51
248.9186453553905
  0
ARC
  5
D0
330
2
100
AcDbEntity
  8
image
100
AcDbCircle
 10
3.126655693408587
 20
9.003724505613535
 30
0.0
 40
0.1566980695398199
100
AcDbArc
 50
339.7199718669747
 51
68.91864535539044
  0
ARC
  5
D1
330
2
100
AcDbEntity
  8
image
100
AcDbCircle
 10
3.33000324761467
 20
9.095621957995128
 30
0.0
 40
0.1566980695398199
100
AcDbArc
 50
159.7199718669748
 51
248.9186453553905
  0
ARC
  5
D2
330
2
100
AcDbEntity
  8
image
100
AcDbCircle
 10
2.886410944607059
 20
8.711183415037272
 30
0.0
 40
0.1566980695398199
100
AcDbArc
 50
339.7199718669747
 51
68.91864535539044
  0
ARC
  5
D3
330
2
100
AcDbEntity
  8
image
100
AcDbCircle
 10
3.089758498813141
 20
8.803080867418866
 30
0.0
 40
0.1566980695398199
100
AcDbArc
 50
159.7199718669748
 51
248.9186453553905
  0
ARC
  5
D4
330
2
100
AcDbEntity
  8
image
100
AcDbCircle
 10
3.065041841053444
 20
8.590031496943284
 30
0.0
 40
0.1566980695398199
100
AcDbArc
 50
339.7199718669747
 51
68.91864535539044
  0
ARC
  5
D5
330
2
100
AcDbEntity
  8
image
100
AcDbCircle
 10
3.268389395259526
 20
8.681928949324877
 30
0.0
 40
0.1566980695398199
100
AcDbArc
 50
159.7199718669748
 51
248.9186453553905
  0
ARC
  5
D6
330
2
100
AcDbEntity
  8
image
100
AcDbCircle
 10
3.126655693408587
 20
8.739665138377205
 30
0.0
 40
0.1566980695398199
100
AcDbArc
 50
339.7199718669747
 51
68.91864535539044
  0
ARC
  5
D7
330
2
100
AcDbEntity
  8
image
100
AcDbCircle
 10
3.33000324761467
 20
8.8315625907588
 30
0.0
 40
0.1566980695398199
100
AcDbArc
 50
159.7199718669748
 51
248.9186453553905
  0
ARC
  5
D8
330
2
100
AcDbEntity
  8
image
100
AcDbCircle
 10
3.487536828631571
 20
8.79247701182447
 30
0.0
 40
0.1566980695398199
100
AcDbArc
 50
339.7199718669747
 51
68.91864535539044
  0
ARC
  5
D9
330
2
100
AcDbEntity
  8
image
100
AcDbCircle
 10
3.690884382837654
 20
8.884374464206064
 30
0.0
 40
0.1566980695398199
100
AcDbArc
 50
159.7199718669748
 51
248.9186453553905
  0
ARC
  5
DA
330
2
100
AcDbEntity
  8
image
100
AcDbCircle
 10
3.637170470065491
 20
8.563625560219652
 30
0.0
 40
0.1566980695398199
100
AcDbArc
 50
339.7199718669747
 51
68.91864535539044
  0
ARC
  5
DB
330
2
100
AcDbEntity
  8
image
100
AcDbCircle
 10
3.840518024271574
 20
8.655523012601246
 30
0.0
 40
0.1566980695398199
100
AcDbArc
 50
159.7199718669748
 51
248.9186453553905
  0
ARC
  5
DC
330
2
100
AcDbEntity
  8
image
100
AcDbCircle
 10
2.904548380106496
 20
9.153624345115648
 30
0.0
 40
0.1566980695398199
100
AcDbArc
 50
323.5307656099477
 51
52.72943909836342
  0
ARC
  5
DD
330
2
100
AcDbEntity
  8
image
100
AcDbCircle
 10
3.125454383113899
 20
9.185182345545275
 30
0.0
 40
0.1566980695398199
100
AcDbArc
 50
143.5307656099477
 51
232.7294390983635
  0
ARC
  5
DE
330
2
100
AcDbEntity
  8
image
100
AcDbCircle
 10
3.362251283316135
 20
9.065604556036872
 30
0.0
 40
0.1566980695398199
100
AcDbArc
 50
323.5307656099477
 51
52.72943909836342
  0
ARC
  5
DF
330
2
100
AcDbEntity
  8
image
100
AcDbCircle
 10
3.583157286323538
 20
9.0971625564665
 30
0.0
 40
0.1566980695398199
100
AcDbArc
 50
143.5307656099477
 51
232.7294390983635
  0
ARC
  5
E0
330
2
100
AcDbEntity
  8
image
100
AcDbCircle
 10
3.239023578605847
 20
9.268050070918057
 30
0.0
 40
0.1566980695398199
100
AcDbArc
 50
323.5307656099477
 51
52.72943909836342
  0
ARC
  5
E1
330
2
100
AcDbEntity
  8
image
100
AcDbCircle
 10
3.459929581613251
 20
9.299608071347686
 30
0.0
 40
0.1566980695398199
100
AcDbArc
 50
143.5307656099477
 51
232.7294390983635
  0
ARC
  5
E2
330
2
100
AcDbEntity
  8
image
100
AcDbCircle
 10
3.485478988026422
 20
9.347267881088956
 30
0.0
 40
0.1566980695398199
100
AcDbArc
 50
323.5307656099477
 51
52.72943909836342
  0
ARC
  5
E3
330
2
100
AcDbEntity
  8
image
100
AcDbCircle
 10
3.706384991033824
 20
9.378825881518583
 30
0.0
 40
0.1566980695398199
100
AcDbArc
 50
143.5307656099477
 51
232.7294390983635
  0
ARC
  5
E4
330
2
100
AcDbEntity
  8
image
100
AcDbCircle
 10
3.626310650552465
 20
8.783941230984787
 30
0.0
 40
0.1566980695398199
100
AcDbArc
 50
323.5307656099477
 51
52.72943909836342
  0
ARC
  5
E5
330
2
100
AcDbEntity
  8
image
100
AcDbCircle
 10
3.847216653559866
 20
8.815499231414413
 30
0.0
 40
0.1566980695398199
100
AcDbArc
 50
143.5307656099477
 51
232.7294390983635
  0
ARC
  5
E6
330
2
100
AcDbEntity
  8
image
100
AcDbCircle
 10
3.485478988026422
 20
8.46706999030119
 30
0.0
 40
0.1566980695398199
100
AcDbArc
 50
323.5307656099477
 51
52.72943909836342
  0
ARC
  5
E7
330
2
100
AcDbEntity
  8
image
100
AcDbCircle
 10
3.706384991033824
 20
8.498627990730817
 30
0.0
 40
0.1566980695398199
100
AcDbArc
 50
143.5307656099477
 51
232.7294390983635
  0
ARC
  5
E8
330
2
100
AcDbEntity
  8
image
100
AcDbCircle
 10
3.327043367684624
 20
8.414258116853924
 30
0.0
 40
0.1566980695398199
100
AcDbArc
 50
323.5307656099477
 51
52.72943909836342
  0
ARC
  5
E9
330
2
100
AcDbEntity
  8
image
100
AcDbCircle
 10
3.547949370692026
 20
8.445816117283552
 30
0.0
 40
0.1566980695398199
100
AcDbArc
 50
143.5307656099477
 51
232.7294390983635
  0
ARC
  5
EA
330
2
100
AcDbEntity
  8
image
100
AcDbCircle
 10
3.036578063724661
 20
8.43186207466968
 30
0.0
 40
0.1566980695398199
100
AcDbArc
 50
323.5307656099477
 51
52.72943909836342
  0
ARC
  5
EB
330
2
100
AcDbEntity
  8
image
100
AcDbCircle
 10
3.257484066732064
 20
8.463420075099307
 30
0.0
 40
0.1566980695398199
100
AcDbArc
 50
143.5307656099477
 51
232.7294390983635
  0
ARC
  5
EC
330
2
100
AcDbEntity
  8
image
100
AcDbCircle
 10
3.221419620790092
 20
8.572693737195722
 30
0.0
 40
0.1566980695398199
100
AcDbArc
 50
323.5307656099477
 51
52.72943909836342
  0
ARC
  5
ED
330
2
100
AcDbEntity
  8
image
100
AcDbCircle
 10
3.442325623797494
 20
8.60425173762535
 30
0.0
 40
0.1566980695398199
100
AcDbArc
 50
143.5307656099477
 51
232.7294390983635
  0
ARC
  5
EE
330
2
100
AcDbEntity
  8
image
100
AcDbCircle
 10
3.34464732550038
 20
8.792743209892663
 30
0.0
 40
0.1566980695398199
100
AcDbArc
 50
323.5307656099477
 51
52.72943909836342
  0
ARC
  5
EF
330
2
100
AcDbEntity
  8
image
100
AcDbCircle
 10
3.565553328507781
 20
8.824301210322291
 30
0.0
 40
0.1566980695398199
100
AcDbArc
 50
143.5307656099477
 51
232.7294390983635
  0
ARC
  5
F0
330
2
100
AcDbEntity
  8
image
100
AcDbCircle
 10
3.4150631567634
 20
8.951178830234461
 30
0.0
 40
0.1566980695398199
100
AcDbArc
 50
323.5307656099477
 51
52.72943909836342
  0
ARC
  5
F1
330
2
100
AcDbEntity
  8
image
100
AcDbCircle
 10
3.635969159770803
 20
8.982736830664089
 30
0.0
 40
0.1566980695398199
100
AcDbArc
 50
143.5307656099477
 51
232.7294390983635
  0
ARC
  5
F2
330
2
100
AcDbEntity
  8
image
100
AcDbCircle
 10
3.459073051302789
 20
9.039198619313237
 30
0.0
 40
0.1566980695398199
100
AcDbArc
 50
323.5307656099477
 51
52.72943909836342
  0
ARC
  5
F3
330
2
100
AcDbEntity
  8
image
100
AcDbCircle
 10
3.679979054310192
 20
9.070756619742866
 30
0.0
 40
0.1566980695398199
100
AcDbArc
 50
143.5307656099477
 51
232.7294390983635
  0
ARC
  5
F4
330
2
100
AcDbEntity
  8
image
100
AcDbCircle
 10
3.142201810619193
 20
8.907168935695072
 30
0.0
 40
0.1566980695398199
100
AcDbArc
 50
323.5307656099477
 51
52.72943909836342
  0
ARC
  5
F5
330
2
100
AcDbEntity
  8
image
100
AcDbCircle
 10
3.363107813626596
 20
8.938726936124702
 30
0.0
 40
0.1566980695398199
100
AcDbArc
 50
143.5307656099477
 51
232.7294390983635
  0
ARC
  5
F6
330
2
100
AcDbEntity
  8
image
100
AcDbCircle
 10
3.001370148093151
 20
8.783941230984787
 30
0.0
 40
0.1566980695398199
100
AcDbArc
 50
323.5307656099477
 51
52.72943909836342
  0
ARC
  5
F7
330
2
100
AcDbEntity
  8
image
100
AcDbCircle
 10
3.222276151100553
 20
8.815499231414413
 30
0.0
 40
0.1566980695398199
100
AcDbArc
 50
143.5307656099477
 51
232.7294390983635
  0
ARC
  5
F8
330
2
100
AcDbEntity
  8
image
100
AcDbCircle
 10
2.922152337922252
 20
8.43186207466968
 30
0.0
 40
0.1566980695398199
100
AcDbArc
 50
323.5307656099477
 51
52.72943909836342
  0
ARC
  5
F9
330
2
100
AcDbEntity
  8
image
100
AcDbCircle
 10
3.143058340929654
 20
8.463420075099307
 30
0.0
 40
0.1566980695398199
100
AcDbArc
 50
143.5307656099477
 51
232.7294390983635
  0
ARC
  5
FA
330
2
100
AcDbEntity
  8
image
100
AcDbCircle
 10
2.772518696488331
 20
8.449466032485435
 30
0.0
 40
0.1566980695398199
100
AcDbArc
 50
323.5307656099477
 51
52.72943909836342
  0
ARC
  5
FB
330
2
100
AcDbEntity
  8
image
100
AcDbCircle
 10
2.993424699495734
 20
8.481024032915062
 30
0.0
 40
0.1566980695398199
100
AcDbArc
 50
143.5307656099477
 51
232.7294390983635
  0
ARC
  5
FC
330
2
100
AcDbEntity
  8
image
100
AcDbCircle
 10
2.816528591027719
 20
8.572693737195722
 30
0.0
 40
0.1566980695398199
100
AcDbArc
 50
323.5307656099477
 51
52.72943909836342
  0
ARC
  5
FD
330
2
100
AcDbEntity
  8
image
100
AcDbCircle
 10
3.037434594035123
 20
8.60425173762535
 30
0.0
 40
0.1566980695398199
100
AcDbArc
 50
143.5307656099477
 51
232.7294390983635
  0
ARC
  5
FE
330
2
100
AcDbEntity
  8
image
100
AcDbCircle
 10
2.904548380106496
 20
8.968782788050216
 30
0.0
 40
0.1566980695398199
100
AcDbArc
 50
323.5307656099477
 51
52.72943909836342
  0
ARC
  5
FF
330
2
100
AcDbEntity
  8
image
100
AcDbCircle
 10
3.125454383113899
 20
9.000340788479846
 30
0.0
 40
0.1566980695398199
100
AcDbArc
 50
143.5307656099477
 51
232.7294390983635
  0
ARC
  5
100
330
2
100
AcDbEntity
  8
image
100
AcDbCircle
 10
3.626310650552465
 20
9.127218408392014
 30
0.0
 40
0.1566980695398199
100
AcDbArc
 50
323.5307656099477
 51
52.72943909836342
  0
ARC
  5
101
330
2
100
AcDbEntity
  8
image
100
AcDbCircle
 10
3.847216653559866
 20
9.158776408821642
 30
0.0
 40
0.1566980695398199
100
AcDbArc
 50
143.5307656099477
 51
232.7294390983635
  0
ARC
  5
102
330
2
100
AcDbEntity
  8
image
100
AcDbCircle
 10
3.098191916079805
 20
9.285654028733812
 30
0.0
 40
0.1566980695398199
100
AcDbArc
 50
323.5307656099477
 51
52.72943909836342
  0
ARC
  5
103
330
2
100
AcDbEntity
  8
image
100
AcDbCircle
 10
3.319097919087208
 20
9.317212029163441
 30
0.0
 40
0.1566980695398199
100
AcDbArc
 50
143.5307656099477
 51
232.7294390983635
  0
ARC
  5
104
330
2
100
AcDbEntity
  8
image
100
AcDbCircle
 10
3.582300756013077
 20
8.440664053577556
 30
0.0
 40
0.1566980695398199
100
AcDbArc
 50
323.5307656099477
 51
52.72943909836342
  0
ARC
  5
105
330
2
100
AcDbEntity
  8
image
100
AcDbCircle
 10
3.80320675902048
 20
8.472222054007184
 30
0.0
 40
0.1566980695398199
100
AcDbArc
 50
143.5307656099477
 51
232.7294390983635
  0
ARC
  5
106
330
2
100
AcDbEntity
  8
image
100
AcDbCircle
 10
3.327863724550367
 20
8.681866546015154
 30
0.0
 40
0.1566980695398199
100
AcDbArc
 50
296.0563205359582
 51
25.25499402437389
  0
ARC
  5
107
330
2
100
AcDbEntity
  8
image
100
AcDbCircle
 10
3.538414594424487
 20
8.607949695763844
 30
0.0
 40
0.1566980695398199
100
AcDbArc
 50
116.0563205359582
 51
205.254994024374
  0
ARC
  5
108
330
2
100
AcDbEntity
  8
image
100
AcDbCircle
 10
3.159618814363005
 20
8.520936763459971
 30
0.0
 40
0.1566980695398199
100
AcDbArc
 50
296.0563205359582
 51
25.25499402437389
  0
ARC
  5
109
330
2
100
AcDbEntity
  8
image
100
AcDbCircle
 10
3.370169684237125
 20
8.447019913208663
 30
0.0
 40
0.1566980695398199
100
AcDbArc
 50
116.0563205359582
 51
205.254994024374
  0
ARC
  5
10A
330
2
100
AcDbEntity
  8
image
100
AcDbCircle
 10
3.137673826077696
 20
8.674551555899011
 30
0.0
 40
0.1566980695398199
100
AcDbArc
 50
296.0563205359582
 51
25.25499402437389
  0
ARC
  5
10B
330
2
100
AcDbEntity
  8
image
100
AcDbCircle
 10
3.348224695951815
 20
8.600634705647699
 30
0.0
 40
0.1566980695398199
100
AcDbArc
 50
116.0563205359582
 51
205.254994024374
  0
ARC
  5
10C
330
2
100
AcDbEntity
  8
image
100
AcDbCircle
 10
2.804841503750524
 20
9.000068616067444
 30
0.0
 40
0.1566980695398199
100
AcDbArc
 50
296.0563205359582
 51
25.25499402437389
  0
ARC
  5
10D
330
2
100
AcDbEntity
  8
image
100
AcDbCircle
 10
3.015392373624644
 20
8.926151765816136
 30
0.0
 40
0.1566980695398199
100
AcDbArc
 50
116.0563205359582
 51
205.254994024374
  0
ARC
  5
10E
330
2
100
AcDbEntity
  8
image
100
AcDbCircle
 10
3.554628603498551
 20
8.76964642740889
 30
0.0
 40
0.1566980695398199
100
AcDbArc
 50
296.0563205359582
 51
25.25499402437389
  0
ARC
  5
10F
330
2
100
AcDbEntity
  8
image
100
AcDbCircle
 10
3.76517947337267
 20
8.69572957715758
 30
0.0
 40
0.1566980695398199
100
AcDbArc
 50
116.0563205359582
 51
205.254994024374
  0
ARC
  5
110
330
2
100
AcDbEntity
  8
image
100
AcDbCircle
 10
3.232768775314032
 20
8.981781140777084
 30
0.0
 40
0.1566980695398199
100
AcDbArc
 50
296.0563205359582
 51
25.25499402437389
  0
ARC
  5
111
330
2
100
AcDbEntity
  8
image
100
AcDbCircle
 10
3.443319645188152
 20
8.907864290525774
 30
0.0
 40
0.1566980695398199
100
AcDbArc
 50
116.0563205359582
 51
205.254994024374
  0
ARC
  5
112
330
2
100
AcDbEntity
  8
image
100
AcDbCircle
 10
3.291288744074853
 20
9.175628378854916
 30
0.0
 40
0.1566980695398199
100
AcDbArc
 50
296.0563205359582
 51
25.25499402437389
  0
ARC
  5
113
330
2
100
AcDbEntity
  8
image
100
AcDbCircle
 10
3.501839613948973
 20
9.101711528603606
 30
0.0
 40
0.1566980695398199
100
AcDbArc
 50
116.0563205359582
 51
205.254994024374
  0
ARC
  5
114
330
2
100
AcDbEntity
  8
image
100
AcDbCircle
 10
3.024291386603604
 20
9.190258359087206
 30
0.0
 40
0.1566980695398199
100
AcDbArc
 50
296.0563205359582
 51
25.25499402437389
  0
ARC
  5
115
330
2
100
AcDbEntity
  8
image
100
AcDbCircle
 10
3.234842256477725
 20
9.116341508835896
 30
0.0
 40
0.1566980695398199
100
AcDbArc
 50
116.0563205359582
 51
205.254994024374
  0
ARC
  5
116
330
2
100
AcDbEntity
  8
image
100
AcDbCircle
 10
2.859703974463794
 20
9.376790607048894
 30
0.0
 40
0.1566980695398199
100
AcDbArc
 50
296.0563205359582
 51
25.25499402437389
  0
ARC
  5
117
330
2
100
AcDbEntity
  8
image
100
AcDbCircle
 10
3.070254844337914
 20
9.302873756797584
 30
0.0
 40
0.1566980695398199
100
AcDbArc
 50
116.0563205359582
 51
205.254994024374
  0
ARC
  5
118
330
2
100
AcDbEntity
  8
image
100
AcDbCircle
 10
2.845073982273589
 20
9.219518319551784
 30
0.0
 40
0.1566980695398199
100
AcDbArc
 50
296.0563205359582
 51
25.25499402437389
  0
ARC
  5
119
330
2
100
AcDbEntity
  8
image
100
AcDbCircle
 10
3.055624852147708
 20
9.145601469300473
 30
0.0
 40
0.1566980695398199
100
AcDbArc
 50
116.0563205359582
 51
205.254994024374
  0
ARC
  5
11A
330
2
100
AcDbEntity
  8
image
100
AcDbCircle
 10
2.753636531084805
 20
8.780618912583108
 30
0.0
 40
0.1566980695398199
100
AcDbArc
 50
296.0563205359582
 51
25.25499402437389
  0
ARC
  5
11B
330
2
100
AcDbEntity
  8
image
100
AcDbCircle
 10
2.964187400958925
 20
8.706702062331796
 30
0.0
 40
0.1566980695398199
100
AcDbArc
 50
116.0563205359582
 51
205.254994024374
  0
ARC
  5
11C
330
2
100
AcDbEntity
  8
image
100
AcDbCircle
 10
3.430273669881803
 20
8.839138833512265
 30
0.0
 40
0.1566980695398199
100
AcDbArc
 50
296.0563205359582
 51
25.25499402437389
  0
ARC
  5
11D
330
2
100
AcDbEntity
  8
image
100
AcDbCircle
 10
3.640824539755924
 20
8.765221983260953
 30
0.0
 40
0.1566980695398199
100
AcDbArc
 50
116.0563205359582
 51
205.254994024374
  0
ARC
  5
11E
330
2
100
AcDbEntity
  8
image
100
AcDbCircle
 10
2.023960707464555
 20
9.158382559951103
 30
0.0
 40
0.1566980695398199
100
AcDbArc
 50
98.53076560994793
 51
187.7294390983636
  0
ARC
  5
11F
330
2
100
AcDbEntity
  8
image
100
AcDbCircle
 10
1.845441698628727
 20
9.292271816577974
 30
0.0
 40
0.1566980695398199
100
AcDbArc
 50
278.5307656099479
 51
7.729439098363579
  0
ARC
  5
120
330
2
100
AcDbEntity
  8
image
100
AcDbCircle
 10
1.601465719886427
 20
9.05275881305657
 30
0.0
 40
0.1566980695398199
100
AcDbArc
 50
98.53076560994793
 51
187.7294390983636
  0
ARC
  5
121
330
2
100
AcDbEntity
  8
image
100
AcDbCircle
 10
1.422946711050599
 20
9.186648069683442
 30
0.0
 40
0.1566980695398199
100
AcDbArc
 50
278.5307656099479
 51
7.729439098363579
  0
ARC
  5
122
330
2
100
AcDbEntity
  8
image
100
AcDbCircle
 10
1.714071375637703
 20
8.82276061185092
 30
0.0
 40
0.1566980695398199
100
AcDbArc
 50
159.7199718669748
 51
248.9186453553905
  0
ARC
  5
123
330
2
100
AcDbEntity
  8
image
100
AcDbCircle
 10
1.510723821431621
 20
8.730863159469326
 30
0.0
 40
0.1566980695398199
100
AcDbArc
 50
339.7199718669747
 51
68.91864535539044
  0
ARC
  5
124
330
2
100
AcDbEntity
  8
image
100
AcDbCircle
 10
2.032762686372433
 20
8.920729129438406
 30
0.0
 40
0.1566980695398199
100
AcDbArc
 50
98.53076560994793
 51
187.7294390983636
  0
ARC
  5
125
330
2
100
AcDbEntity
  8
image
100
AcDbCircle
 10
1.854243677536603
 20
9.054618386065278
 30
0.0
 40
0.1566980695398199
100
AcDbArc
 50
278.5307656099479
 51
7.729439098363579
  0
ARC
  5
126
330
2
100
AcDbEntity
  8
image
100
AcDbCircle
 10
1.219057207176969
 20
9.176380366637399
 30
0.0
 40
0.1566980695398199
100
AcDbArc
 50
143.5307656099477
 51
232.7294390983635
  0
ARC
  5
127
330
2
100
AcDbEntity
  8
image
100
AcDbCircle
 10
0.9981512041695673
 20
9.144822366207769
 30
0.0
 40
0.1566980695398199
100
AcDbArc
 50
323.5307656099477
 51
52.72943909836342
  0
ARC
  5
128
330
2
100
AcDbEntity
  8
image
100
AcDbCircle
 10
1.36381228937373
 20
8.498234141860278
 30
0.0
 40
0.1566980695398199
100
AcDbArc
 50
98.53076560994793
 51
187.7294390983636
  0
ARC
  5
129
330
2
100
AcDbEntity
  8
image
100
AcDbCircle
 10
1.185293280537901
 20
8.632123398487149
 30
0.0
 40
0.1566980695398199
100
AcDbArc
 50
278.5307656099479
 51
7.729439098363579
  0
ARC
  5
12A
330
2
100
AcDbEntity
  8
image
100
AcDbCircle
 10
1.707089466780959
 20
8.375006437149989
 30
0.0
 40
0.1566980695398199
100
AcDbArc
 50
98.53076560994793
 51
187.7294390983636
  0
ARC
  5
12B
330
2
100
AcDbEntity
  8
image
100
AcDbCircle
 10
1.52857045794513
 20
8.508895693776862
 30
0.0
 40
0.1566980695398199
100
AcDbArc
 50
278.5307656099479
 51
7.729439098363579
  0
ARC
  5
12C
330
2
100
AcDbEntity
  8
image
100
AcDbCircle
 10
1.264268412011047
 20
8.94211065325839
 30
0.0
 40
0.1566980695398199
100
AcDbArc
 50
339.7199718669747
 51
68.91864535539044
  0
ARC
  5
12D
330
2
100
AcDbEntity
  8
image
100
AcDbCircle
 10
1.467615966217129
 20
9.034008105639985
 30
0.0
 40
0.1566980695398199
100
AcDbArc
 50
159.7199718669748
 51
248.9186453553905
  0
ARC
  5
12E
330
2
100
AcDbEntity
  8
image
100
AcDbCircle
 10
1.281872369826802
 20
9.223773978310475
 30
0.0
 40
0.1566980695398199
100
AcDbArc
 50
339.7199718669747
 51
68.91864535539044
  0
ARC
  5
12F
330
2
100
AcDbEntity
  8
image
100
AcDbCircle
 10
1.485219924032885
 20
9.31567143069207
 30
0.0
 40
0.1566980695398199
100
AcDbArc
 50
159.7199718669748
 51
248.9186453553905
  0
ARC
  5
130
330
2
100
AcDbEntity
  8
image
100
AcDbCircle
 10
1.721971315220685
 20
8.598833475851161
 30
0.0
 40
0.1566980695398199
100
AcDbArc
 50
339.7199718669747
 51
68.91864535539044
  0
ARC
  5
131
330
2
100
AcDbEntity
  8
image
100
AcDbCircle
 10
1.925318869426768
 20
8.690730928232756
 30
0.0
 40
0.1566980695398199
100
AcDbArc
 50
159.7199718669748
 51
248.9186453553905
  0
ARC
  5
132
330
2
100
AcDbEntity
  8
image
100
AcDbCircle
 10
1.669159441773419
 20
8.52841764458814
 30
0.0
 40
0.1566980695398199
100
AcDbArc
 50
339.7199718669747
 51
68.91864535539044
  0
ARC
  5
133
330
2
100
AcDbEntity
  8
image
100
AcDbCircle
 10
1.872506995979502
 20
8.620315096969735
 30
0.0
 40
0.1566980695398199
100
AcDbArc
 50
159.7199718669748
 51
248.9186453553905
  0
ARC
  5
134
330
2
100
AcDbEntity
  8
image
100
AcDbCircle
 10
1.836397041023095
 20
8.986120547797778
 30
0.0
 40
0.1566980695398199
100
AcDbArc
 50
339.7199718669747
 51
68.91864535539044
  0
ARC
  5
135
330
2
100
AcDbEntity
  8
image
100
AcDbCircle
 10
2.039744595229177
 20
9.078018000179373
 30
0.0
 40
0.1566980695398199
100
AcDbArc
 50
159.7199718669748
 51
248.9186453553905
  0
ARC
  5
136
330
2
100
AcDbEntity
  8
image
100
AcDbCircle
 10
1.537129758155255
 20
8.950912632166268
 30
0.0
 40
0.1566980695398199
100
AcDbArc
 50
339.7199718669747
 51
68.91864535539044
  0
ARC
  5
137
330
2
100
AcDbEntity
  8
image
100
AcDbCircle
 10
1.740477312361337
 20
9.042810084547863
 30
0.0
 40
0.1566980695398199
100
AcDbArc
 50
159.7199718669748
 51
248.9186453553905
  0
ARC
  5
138
330
2
100
AcDbEntity
  8
image
100
AcDbCircle
 10
1.669159441773419
 20
9.20617002049472
 30
0.0
 40
0.1566980695398199
100
AcDbArc
 50
339.7199718669747
 51
68.91864535539044
  0
ARC
  5
139
330
2
100
AcDbEntity
  8
image
100
AcDbCircle
 10
1.872506995979502
 20
9.298067472876315
 30
0.0
 40
0.1566980695398199
100
AcDbArc
 50
159.7199718669748
 51
248.9186453553905
  0
ARC
  5
13A
330
2
100
AcDbEntity
  8
image
100
AcDbCircle
 10
1.378694137813456
 20
9.003724505613535
 30
0.0
 40
0.1566980695398199
100
AcDbArc
 50
339.7199718669747
 51
68.91864535539044
  0
ARC
  5
13B
330
2
100
AcDbEntity
  8
image
100
AcDbCircle
 10
1.582041692019539
 20
9.095621957995128
 30
0.0
 40
0.1566980695398199
100
AcDbArc
 50
159.7199718669748
 51
248.9186453553905
  0
ARC
  5
13C
330
2
100
AcDbEntity
  8
image
100
AcDbCircle
 10
1.138449389011928
 20
8.711183415037272
 30
0.0
 40
0.1566980695398199
100
AcDbArc
 50
339.7199718669747
 51
68.91864535539044
  0
ARC
  5
13D
330
2
100
AcDbEntity
  8
image
100
AcDbCircle
 10
1.34179694321801
 20
8.803080867418866
 30
0.0
 40
0.1566980695398199
100
AcDbArc
 50
159.7199718669748
 51
248.9186453553905
  0
ARC
  5
13E
330
2
100
AcDbEntity
  8
image
100
AcDbCircle
 10
1.317080285458313
 20
8.590031496943284
 30
0.0
 40
0.1566980695398199
100
AcDbArc
 50
339.7199718669747
 51
68.91864535539044
  0
ARC
  5
13F
330
2
100
AcDbEntity
  8
image
100
AcDbCircle
 10
1.520427839664395
 20
8.681928949324877
 30
0.0
 40
0.1566980695398199
100
AcDbArc
 50
159.7199718669748
 51
248.9186453553905
  0
ARC
  5
140
330
2
100
AcDbEntity
  8
image
100
AcDbCircle
 10
1.378694137813456
 20
8.739665138377205
 30
0.0
 40
0.1566980695398199
100
AcDbArc
 50
339.7199718669747
 51
68.91864535539044
  0
ARC
  5
141
330
2
100
AcDbEntity
  8
image
100
AcDbCircle
 10
1.582041692019539
 20
8.8315625907588
 30
0.0
 40
0.1566980695398199
100
AcDbArc
 50
159.7199718669748
 51
248.9186453553905
  0
ARC
  5
142
330
2
100
AcDbEntity
  8
image
100
AcDbCircle
 10
1.73957527303644
 20
8.79247701182447
 30
0.0
 40
0.1566980695398199
100
AcDbArc
 50
339.7199718669747
 51
68.91864535539044
  0
ARC
  5
143
330
2
100
AcDbEntity
  8
image
100
AcDbCircle
 10
1.942922827242523
 20
8.884374464206064
 30
0.0
 40
0.1566980695398199
100
AcDbArc
 50
159.7199718669748
 51
248.9186453553905
  0
ARC
  5
144
330
2
100
AcDbEntity
  8
image
100
AcDbCircle
 10
1.88920891447036
 20
8.563625560219652
 30
0.0
 40
0.1566980695398199
100
AcDbArc
 50
339.7199718669747
 51
68.91864535539044
  0
ARC
  5
145
330
2
100
AcDbEntity
  8
image
100
AcDbCircle
 10
2.092556468676443
 20
8.655523012601246
 30
0.0
 40
0.1566980695398199
100
AcDbArc
 50
159.7199718669748
 51
248.9186453553905
  0
ARC
  5
146
330
2
100
AcDbEntity
  8
image
100
AcDbCircle
 10
1.156586824511365
 20
9.153624345115648
 30
0.0
 40
0.1566980695398199
100
AcDbArc
 50
323.5307656099477
 51
52.72943909836342
  0
ARC
  5
147
330
2
100
AcDbEntity
  8
image
100
AcDbCircle
 10
1.377492827518768
 20
9.185182345545275
 30
0.0
 40
0.1566980695398199
100
AcDbArc
 50
143.5307656099477
 51
232.7294390983635
  0
ARC
  5
148
330
2
100
AcDbEntity
  8
image
100
AcDbCircle
 10
1.614289727721004
 20
9.065604556036872
 30
0.0
 40
0.1566980695398199
100
AcDbArc
 50
323.5307656099477
 51
52.72943909836342
  0
ARC
  5
149
330
2
100
AcDbEntity
  8
image
100
AcDbCircle
 10
1.835195730728407
 20
9.0971625564665
 30
0.0
 40
0.1566980695398199
100
AcDbArc
 50
143.5307656099477
 51
232.7294390983635
  0
ARC
  5
14A
330
2
100
AcDbEntity
  8
image
100
AcDbCircle
 10
1.491062023010716
 20
9.268050070918057
 30
0.0
 40
0.1566980695398199
100
AcDbArc
 50
323.5307656099477
 51
52.72943909836342
  0
ARC
  5
14B
330
2
100
AcDbEntity
  8
image
100
AcDbCircle
 10
1.71196802601812
 20
9.299608071347686
 30
0.0
 40
0.1566980695398199
100
AcDbArc
 50
143.5307656099477
 51
232.7294390983635
  0
ARC
  5
14C
330
2
100
AcDbEntity
  8
image
100
AcDbCircle
 10
1.737517432431292
 20
9.347267881088956
 30
0.0
 40
0.1566980695398199
100
AcDbArc
 50
323.5307656099477
 51
52.72943909836342
  0
ARC
  5
14D
330
2
100
AcDbEntity
  8
image
100
AcDbCircle
 10
1.958423435438693
 20
9.378825881518583
 30
0.0
 40
0.1566980695398199
100
AcDbArc
 50
143.5307656099477
 51
232.7294390983635
  0
ARC
  5
14E
330
2
100
AcDbEntity
  8
image
100
AcDbCircle
 10
1.878349094957334
 20
8.783941230984787
 30
0.0
 40
0.1566980695398199
100
AcDbArc
 50
323.5307656099477
 51
52.72943909836342
  0
ARC
  5
14F
330
2
100
AcDbEntity
  8
image
100
AcDbCircle
 10
2.099255097964735
 20
8.815499231414413
 30
0.0
 40
0.1566980695398199
100
AcDbArc
 50
143.5307656099477
 51
232.7294390983635
  0
ARC
  5
150
330
2
100
AcDbEntity
  8
image
100
AcDbCircle
 10
1.737517432431292
 20
8.46706999030119
 30
0.0
 40
0.1566980695398199
100
AcDbArc
 50
323.5307656099477
 51
52.72943909836342
  0
ARC
  5
151
330
2
100
AcDbEntity
  8
image
100
AcDbCircle
 10
1.958423435438693
 20
8.498627990730817
 30
0.0
 40
0.1566980695398199
100
AcDbArc
 50
143.5307656099477
 51
232.7294390983635
  0
ARC
  5
152
330
2
100
AcDbEntity
  8
image
100
AcDbCircle
 10
1.579081812089493
 20
8.414258116853924
 30
0.0
 40
0.1566980695398199
100
AcDbArc
 50
323.5307656099477
 51
52.72943909836342
  0
ARC
  5
153
330
2
100
AcDbEntity
  8
image
100
AcDbCircle
 10
1.799987815096895
 20
8.445816117283552
 30
0.0
 40
0.1566980695398199
100
AcDbArc
 50
143.5307656099477
 51
232.7294390983635
  0
ARC
  5
154
330
2
100
AcDbEntity
  8
image
100
AcDbCircle
 10
1.28861650812953
 20
8.43186207466968
 30
0.0
 40
0.1566980695398199
100
AcDbArc
 50
323.5307656099477
 51
52.72943909836342
  0
ARC
  5
155
330
2
100
AcDbEntity
  8
image
100
AcDbCircle
 10
1.509522511136933
 20
8.463420075099307
 30
0.0
 40
0.1566980695398199
100
AcDbArc
 50
143.5307656099477
 51
232.7294390983635
  0
ARC
  5
156
330
2
100
AcDbEntity
  8
image
100
AcDbCircle
 10
1.473458065194961
 20
8.572693737195722
 30
0.0
 40
0.1566980695398199
100
AcDbArc
 50
323.5307656099477
 51
52.72943909836342
  0
ARC
  5
157
330
2
100
AcDbEntity
  8
image
100
AcDbCircle
 10
1.694364068202363
 20
8.60425173762535
 30
0.0
 40
0.1566980695398199
100
AcDbArc
 50
143.5307656099477
 51
232.7294390983635
  0
ARC
  5
158
330
2
100
AcDbEntity
  8
image
100
AcDbCircle
 10
1.596685769905249
 20
8.792743209892663
 30
0.0
 40
0.1566980695398199
100
AcDbArc
 50
323.5307656099477
 51
52.72943909836342
  0
ARC
  5
159
330
2
100
AcDbEntity
  8
image
100
AcDbCircle
 10
1.81759177291265
 20
8.824301210322291
 30
0.0
 40
0.1566980695398199
100
AcDbArc
 50
143.5307656099477
 51
232.7294390983635
  0
ARC
  5
15A
330
2
100
AcDbEntity
  8
image
100
AcDbCircle
 10
1.667101601168269
 20
8.951178830234461
 30
0.0
 40
0.1566980695398199
100
AcDbArc
 50
323.5307656099477
 51
52.72943909836342
  0
ARC
  5
15B
330
2
100
AcDbEntity
  8
image
100
AcDbCircle
 10
1.888007604175673
 20
8.982736830664089
 30
0.0
 40
0.1566980695398199
100
AcDbArc
 50
143.5307656099477
 51
232.7294390983635
  0
ARC
  5
15C
330
2
100
AcDbEntity
  8
image
100
AcDbCircle
 10
1.711111495707658
 20
9.039198619313237
 30
0.0
 40
0.1566980695398199
100
AcDbArc
 50
323.5307656099477
 51
52.72943909836342
  0
ARC
  5
15D
330
2
100
AcDbEntity
  8
image
100
AcDbCircle
 10
1.932017498715061
 20
9.070756619742866
 30
0.0
 40
0.1566980695398199
100
AcDbArc
 50
143.5307656099477
 51
232.7294390983635
  0
ARC
  5
15E
330
2
100
AcDbEntity
  8
image
100
AcDbCircle
 10
1.394240255024062
 20
8.907168935695072
 30
0.0
 40
0.1566980695398199
100
AcDbArc
 50
323.5307656099477
 51
52.72943909836342
  0
ARC
  5
15F
330
2
100
AcDbEntity
  8
image
100
AcDbCircle
 10
1.615146258031465
 20
8.938726936124702
 30
0.0
 40
0.1566980695398199
100
AcDbArc
 50
143.5307656099477
 51
232.7294390983635
  0
ARC
  5
160
330
2
100
AcDbEntity
  8
image
100
AcDbCircle
 10
1.25340859249802
 20
8.783941230984787
 30
0.0
 40
0.1566980695398199
100
AcDbArc
 50
323.5307656099477
 51
52.72943909836342
  0
ARC
  5
161
330
2
100
AcDbEntity
  8
image
100
AcDbCircle
 10
1.474314595505422
 20
8.815499231414413
 30
0.0
 40
0.1566980695398199
100
AcDbArc
 50
143.5307656099477
 51
232.7294390983635
  0
ARC
  5
162
330
2
100
AcDbEntity
  8
image
100
AcDbCircle
 10
1.174190782327121
 20
8.43186207466968
 30
0.0
 40
0.1566980695398199
100
AcDbArc
 50
323.5307656099477
 51
52.72943909836342
  0
ARC
  5
163
330
2
100
AcDbEntity
  8
image
100
AcDbCircle
 10
1.395096785334523
 20
8.463420075099307
 30
0.0
 40
0.1566980695398199
100
AcDbArc
 50
143.5307656099477
 51
232.7294390983635
  0
ARC
  5
164
330
2
100
AcDbEntity
  8
image
100
AcDbCircle
 10
1.0245571408932
 20
8.449466032485435
 30
0.0
 40
0.1566980695398199
100
AcDbArc
 50
323.5307656099477
 51
52.72943909836342
  0
ARC
  5
165
330
2
100
AcDbEntity
  8
image
100
AcDbCircle
 10
1.245463143900603
 20
8.481024032915062
 30
0.0
 40
0.1566980695398199
100
AcDbArc
 50
143.5307656099477
 51
232.7294390983635
  0
ARC
  5
166
330
2
100
AcDbEntity
  8
image
100
AcDbCircle
 10
1.068567035432588
 20
8.572693737195722
 30
0.0
 40
0.1566980695398199
100
AcDbArc
 50
323.5307656099477
 51
52.72943909836342
  0
ARC
  5
167
330
2
100
AcDbEntity
  8
image
100
AcDbCircle
 10
1.289473038439992
 20
8.60425173762535
 30
0.0
 40
0.1566980695398199
100
AcDbArc
 50
143.5307656099477
 51
232.7294390983635
  0
ARC
  5
168
330
2
100
AcDbEntity
  8
image
100
AcDbCircle
 10
1.156586824511365
 20
8.968782788050216
 30
0.0
 40
0.1566980695398199
100
AcDbArc
 50
323.5307656099477
 51
52.72943909836342
  0
ARC
  5
169
330
2
100
AcDbEntity
  8
image
100
AcDbCircle
 10
1.377492827518768
 20
9.000340788479846
 30
0.0
 40
0.1566980695398199
100
AcDbArc
 50
143.5307656099477
 51
232.7294390983635
  0
ARC
  5
16A
330
2
100
AcDbEntity
  8
image
100
AcDbCircle
 10
1.878349094957334
 20
9.127218408392014
 30
0.0
 40
0.1566980695398199
100
AcDbArc
 50
323.5307656099477
 51
52.72943909836342
  0
ARC
  5
16B
330
2
100
AcDbEntity
  8
image
100
AcDbCircle
 10
2.099255097964735
 20
9.158776408821642
 30
0.0
 40
0.1566980695398199
100
AcDbArc
 50
143.5307656099477
 51
232.7294390983635
  0
ARC
  5
16C
330
2
100
AcDbEntity
  8
image
100
AcDbCircle
 10
1.350230360484674
 20
9.285654028733812
 30
0.0
 40
0.1566980695398199
100
AcDbArc
 50
323.5307656099477
 51
52.72943909836342
  0
ARC
  5
16D
330
2
100
AcDbEntity
  8
image
100
AcDbCircle
 10
1.571136363492077
 20
9.317212029163441
 30
0.0
 40
0.1566980695398199
100
AcDbArc
 50
143.5307656099477
 51
232.7294390983635
  0
ARC
  5
16E
330
2
100
AcDbEntity
  8
image
100
AcDbCircle
 10
1.834339200417946
 20
8.440664053577556
 30
0.0
 40
0.1566980695398199
100
AcDbArc
 50
323.5307656099477
 51
52.72943909836342
  0
ARC
  5
16F
330
2
100
AcDbEntity
  8
image
100
AcDbCircle
 10
2.055245203425349
 20
8.472222054007184
 30
0.0
 40
0.1566980695398199
100
AcDbArc
 50
143.5307656099477
 51
232.7294390983635
  0
ARC
  5
170
330
2
100
AcDbEntity
  8
image
100
AcDbCircle
 10
1.579902168955236
 20
8.681866546015154
 30
0.0
 40
0.1566980695398199
100
AcDbArc
 50
296.0563205359582
 51
25.25499402437389
  0
ARC
  5
171
330
2
100
AcDbEntity
  8
image
100
AcDbCircle
 10
1.790453038829356
 20
8.607949695763844
 30
0.0
 40
0.1566980695398199
100
AcDbArc
 50
116.0563205359582
 51
205.254994024374
  0
ARC
  5
172
330
2
100
AcDbEntity
  8
image
100
AcDbCircle
 10
1.411657258767874
 20
8.520936763459971
 30
0.0
 40
0.1566980695398199
100
AcDbArc
 50
296.0563205359582
 51
25.25499402437389
  0
ARC
  5
173
330
2
100
AcDbEntity
  8
image
100
AcDbCircle
 10
1.622208128641994
 20
8.447019913208663
 30
0.0
 40
0.1566980695398199
100
AcDbArc
 50
116.0563205359582
 51
205.254994024374
  0
ARC
  5
174
330
2
100
AcDbEntity
  8
image
100
AcDbCircle
 10
1.389712270482565
 20
8.674551555899011
 30
0.0
 40
0.1566980695398199
100
AcDbArc
 50
296.0563205359582
 51
25.25499402437389
  0
ARC
  5
175
330
2
100
AcDbEntity
  8
image
100
AcDbCircle
 10
1.600263140356684
 20
8.600634705647699
 30
0.0
 40
0.1566980695398199
100
AcDbArc
 50
116.0563205359582
 51
205.254994024374
  0
ARC
  5
176
330
2
100
AcDbEntity
  8
image
100
AcDbCircle
 10
1.056879948155393
 20
9.000068616067444
 30
0.0
 40
0.1566980695398199
100
AcDbArc
 50
296.0563205359582
 51
25.25499402437389
  0
ARC
  5
177
330
2
100
AcDbEntity
  8
image
100
AcDbCircle
 10
1.267430818029513
 20
8.926151765816136
 30
0.0
 40
0.1566980695398199
100
AcDbArc
 50
116.0563205359582
 51
205.254994024374
  0
ARC
  5
178
330
2
100
AcDbEntity
  8
image
100
AcDbCircle
 10
1.80666704790342
 20
8.76964642740889
 30
0.0
 40
0.1566980695398199
100
AcDbArc
 50
296.0563205359582
 51
25.25499402437389
  0
ARC
  5
179
330
2
100
AcDbEntity
  8
image
100
AcDbCircle
 10
2.017217917777539
 20
8.69572957715758
 30
0.0
 40
0.1566980695398199
100
AcDbArc
 50
116.0563205359582
 51
205.254994024374
  0
ARC
  5
17A
330
2
100
AcDbEntity
  8
image
100
AcDbCircle
 10
1.484807219718901
 20
8.981781140777084
 30
0.0
 40
0.1566980695398199
100
AcDbArc
 50
296.0563205359582
 51
25.25499402437389
  0
ARC
  5
17B
330
2
100
AcDbEntity
  8
image
100
AcDbCircle
 10
1.695358089593021
 20
8.907864290525774
 30
0.0
 40
0.1566980695398199
100
AcDbArc
 50
116.0563205359582
 51
205.254994024374
  0
ARC
  5
17C
330
2
100
AcDbEntity
  8
image
100
AcDbCircle
 10
1.543327188479722
 20
9.175628378854916
 30
0.0
 40
0.1566980695398199
100
AcDbArc
 50
296.0563205359582
 51
25.25499402437389
  0
ARC
  5
17D
330
2
100
AcDbEntity
  8
image
100
AcDbCircle
 10
1.753878058353842
 20
9.101711528603606
 30
0.0
 40
0.1566980695398199
100
AcDbArc
 50
116.0563205359582
 51
205.254994024374
  0
ARC
  5
17E
330
2
100
AcDbEntity
  8
image
100
AcDbCircle
 10
1.276329831008474
 20
9.190258359087206
 30
0.0
 40
0.1566980695398199
100
AcDbArc
 50
296.0563205359582
 51
25.25499402437389
  0
ARC
  5
17F
330
2
100
AcDbEntity
  8
image
100
AcDbCircle
 10
1.486880700882594
 20
9.116341508835896
 30
0.0
 40
0.1566980695398199
100
AcDbArc
 50
116.0563205359582
 51
205.254994024374
  0
ARC
  5
180
330
2
100
AcDbEntity
  8
image
100
AcDbCircle
 10
1.111742418868663
 20
9.376790607048894
 30
0.0
 40
0.1566980695398199
100
AcDbArc
 50
296.0563205359582
 51
25.25499402437389
  0
ARC
  5
181
330
2
100
AcDbEntity
  8
image
100
AcDbCircle
 10
1.322293288742784
 20
9.302873756797584
 30
0.0
 40
0.1566980695398199
100
AcDbArc
 50
116.0563205359582
 51
205.254994024374
  0
ARC
  5
182
330
2
100
AcDbEntity
  8
image
100
AcDbCircle
 10
1.097112426678458
 20
9.219518319551784
 30
0.0
 40
0.1566980695398199
100
AcDbArc
 50
296.0563205359582
 51
25.25499402437389
  0
ARC
  5
183
330
2
100
AcDbEntity
  8
image
100
AcDbCircle
 10
1.307663296552577
 20
9.145601469300473
 30
0.0
 40
0.1566980695398199
100
AcDbArc
 50
116.0563205359582
 51
205.254994024374
  0
ARC
  5
184
330
2
100
AcDbEntity
  8
image
100
AcDbCircle
 10
1.005674975489674
 20
8.780618912583108
 30
0.0
 40
0.1566980695398199
100
AcDbArc
 50
296.0563205359582
 51
25.25499402437389
  0
ARC
  5
185
330
2
100
AcDbEntity
  8
image
100
AcDbCircle
 10
1.216225845363794
 20
8.706702062331796
 30
0.0
 40
0.1566980695398199
100
AcDbArc
 50
116.0563205359582
 51
205.254994024374
  0
ARC
  5
186
330
2
100
AcDbEntity
  8
image
100
AcDbCircle
 10
1.682312114286672
 20
8.839138833512265
 30
0.0
 40
0.1566980695398199
100
AcDbArc
 50
296.0563205359582
 51
25.25499402437389
  0
ARC
  5
187
330
2
100
AcDbEntity
  8
image
100
AcDbCircle
 10
1.892862984160793
 20
8.765221983260953
 30
0.0
 40
0.1566980695398199
100
AcDbArc
 50
116.0563205359582
 51
205.254994024374
  0
LINE
  5
188
330
2
100
AcDbEntity
  8
image
100
AcDbLine
 10
2.616251411244775
 20
8.093134301372902
 30
0.0
 11
2.20427362618584
 21
8.093134301372902
 31
0.0
  0
LINE
  5
189
330
2
100
AcDbEntity
  8
image
100
AcDbLine
 10
2.20427362618584
 20
8.111490835628526
 30
0.0
 11
2.616251411244775
 21
8.111490835628526
 31
0.0
  0
LINE
  5
18A
330
2
100
AcDbEntity
  8
image
100
AcDbLine
 10
2.20427362618584
 20
8.136440284168404
 30
0.0
 11
2.20427362618584
 21
7.705911406521912
 31
0.0
  0
LINE
  5
18B
330
2
100
AcDbEntity
  8
image
100
AcDbLine
 10
2.20427362618584
 20
8.136440284168404
 30
0.0
 11
2.131197638299699
 21
8.136440284168404
 31
0.0
  0
LINE
  5
18C
330
2
100
AcDbEntity
  8
image
100
AcDbLine
 10
2.131197638299699
 20
8.136440284168404
 30
0.0
 11
2.131197638299699
 21
8.27238588041509
 31
0.0
  0
LINE
  5
18D
330
2
100
AcDbEntity
  8
image
100
AcDbLine
 10
2.131197638299699
 20
8.27238588041509
 30
0.0
 11
2.056835616880654
 21
8.27238588041509
 31
0.0
  0
LINE
  5
18E
330
2
100
AcDbEntity
  8
image
100
AcDbLine
 10
2.056835616880654
 20
8.27238588041509
 30
0.0
 11
2.056835616880654
 21
8.318889554832516
 31
0.0
  0
LINE
  5
18F
330
2
100
AcDbEntity
  8
image
100
AcDbLine
 10
2.056835616880651
 20
8.272385880415086
 30
0.0
 11
2.131197638299699
 21
8.136440284168404
 31
0.0
  0
LINE
  5
190
330
2
100
AcDbEntity
  8
image
100
AcDbLine
 10
2.763689420549966
 20
8.272385880415086
 30
0.0
 11
2.689327399130921
 21
8.136440284168404
 31
0.0
  0
LINE
  5
191
330
2
100
AcDbEntity
  8
image
100
AcDbLine
 10
2.763689420549966
 20
8.27238588041509
 30
0.0
 11
2.763689420549966
 21
8.318889554832516
 31
0.0
  0
LINE
  5
192
330
2
100
AcDbEntity
  8
image
100
AcDbLine
 10
2.689327399130921
 20
8.27238588041509
 30
0.0
 11
2.763689420549966
 21
8.27238588041509
 31
0.0
  0
LINE
  5
193
330
2
100
AcDbEntity
  8
image
100
AcDbLine
 10
2.689327399130921
 20
8.136440284168404
 30
0.0
 11
2.689327399130921
 21
8.27238588041509
 31
0.0
  0
LINE
  5
194
330
2
100
AcDbEntity
  8
image
100
AcDbLine
 10
2.616251411244775
 20
8.136440284168404
 30
0.0
 11
2.689327399130921
 21
8.136440284168404
 31
0.0
  0
LINE
  5
195
330
2
100
AcDbEntity
  8
image
100
AcDbLine
 10
2.056835616880654
 20
8.318889554832516
 30
0.0
 11
2.763689420549966
 21
8.318889554832516
 31
0.0
  0
LINE
  5
196
330
2
100
AcDbEntity
  8
image
100
AcDbLine
 10
2.131197638299699
 20
8.27238588041509
 30
0.0
 11
2.689327399130921
 21
8.27238588041509
 31
0.0
  0
LINE
  5
197
330
2
100
AcDbEntity
  8
image
100
AcDbLine
 10
2.20427362618584
 20
8.136440284168404
 30
0.0
 11
2.616251411244775
 21
8.136440284168404
 31
0.0
  0
LINE
  5
198
330
2
100
AcDbEntity
  8
image
100
AcDbLine
 10
2.289216933815172
 20
8.27238588041509
 30
0.0
 11
2.289216933815172
 21
8.136440284168404
 31
0.0
  0
LINE
  5
199
330
2
100
AcDbEntity
  8
image
100
AcDbLine
 10
2.326397944524698
 20
8.27238588041509
 30
0.0
 11
2.326397944524698
 21
8.136440284168404
 31
0.0
  0
LINE
  5
19A
330
2
100
AcDbEntity
  8
image
100
AcDbLine
 10
2.498525161695111
 20
8.27238588041509
 30
0.0
 11
2.498525161695111
 21
8.136440284168404
 31
0.0
  0
LINE
  5
19B
330
2
100
AcDbEntity
  8
image
100
AcDbLine
 10
2.536998084734545
 20
8.27238588041509
 30
0.0
 11
2.536998084734545
 21
8.136440284168404
 31
0.0
  0
LINE
  5
19C
330
2
100
AcDbEntity
  8
image
100
AcDbLine
 10
2.763689420549966
 20
8.318889554832516
 30
0.0
 11
3.854600114133152
 21
8.318889554832514
 31
0.0
  0
LINE
  5
19D
330
2
100
AcDbEntity
  8
image
100
AcDbLine
 10
2.056835616880658
 20
8.318889554832516
 30
0.0
 11
1.002858564229321
 21
8.318889554832516
 31
0.0
  0
LINE
  5
19E
330
2
100
AcDbEntity
  8
image
100
AcDbLine
 10
2.20427362618584
 20
7.705911406521912
 30
0.0
 11
2.204273626185843
 21
5.463824762435389
 31
0.0
  0
LINE
  5
19F
330
2
100
AcDbEntity
  8
image
100
AcDbLine
 10
2.616251411244773
 20
8.136440284168404
 30
0.0
 11
2.616251411244777
 21
5.833587265643568
 31
0.0
  0
HATCH
  5
1A0
330
2
100
AcDbEntity
  8
image
100
AcDbHatch
 10
0.0
 20
0.0
 30
0.0
210
0.0
220
0.0
230
1.0
  2
EARTH
 70
     0
 71
     0
 91
        2
 92
        7
 72
     0
 73
     1
 93
       12
 10
2.20427362618584
 20
8.136440284168404
 10
2.131197638299699
 20
8.136440284168404
 10
2.056835616880654
 20
8.272385880415079
 10
2.056835616880654
 20
8.318889554832516
 10
1.338858758392309
 20
8.318889554832516
 10
1.438032323586021
 20
8.141070211980963
 10
1.559503940947943
 20
7.902952285199351
 10
1.71875309604891
 20
7.803780897023149
 10
1.855609173496156
 20
7.666924819575903
 10
2.112170940112124
 20
7.640643873717251
 10
2.20427362618584
 20
7.640643873717251
 10
2.20427362618584
 20
7.705911406521912
 97
        0
 92
        7
 72
     0
 73
     1
 93
       13
 10
3.138536065441869
 20
7.988186489107912
 10
3.319592058140947
 20
8.126272379758525
 10
3.40444487188333
 20
8.211125193500908
 10
3.411839582108636
 20
8.318889554832516
 10
2.763689420549966
 20
8.318889554832516
 10
2.763689420549966
 20
8.272385880415086
 10
2.689327399130921
 20
8.136440284168404
 10
2.616251411244775
 20
8.136440284168404
 10
2.616251411244775
 20
7.705911406521912
 10
2.616251411244775
 20
7.635607462395589
 10
2.707087653010223
 20
7.720543019980619
 10
2.821667378045852
 20
7.832237464924681
 10
2.908700878237456
 20
7.928056929388271
 97
        0
 75
     0
 76
     1
 52
45.0
 41
0.65
 77
     0
 78
     6
 53
45.0
 43
-0.0000000000000027
 44
2.242086644086523
 45
0.0
 46
0.229809703885628
 79
     2
 49
0.1625
 49
-0.1625
 53
45.0
 43
-0.0430893194785579
 44
2.285175963565078
 45
0.0
 46
0.229809703885628
 79
     2
 49
0.1625
 49
-0.1625
 53
45.0
 43
-0.0861786389571132
 44
2.328265283043633
 45
0.0
 46
0.229809703885628
 79
     2
 49
0.1625
 49
-0.1625
 53
135.0
 43
-0.0861786389571132
 44
2.356991496029337
 45
-0.2298097038856279
 46
0.0
 79
     2
 49
0.1625
 49
-0.1625
 53
135.0
 43
-0.0430893194785579
 44
2.400080815507892
 45
-0.2298097038856279
 46
0.0
 79
     2
 49
0.1625
 49
-0.1625
 53
135.0
 43
-0.0000000000000026
 44
2.443170134986447
 45
-0.2298097038856279
 46
0.0
 79
     2
 49
0.1625
 49
-0.1625
 47
0.0063015408172647
 98
        2
 10
2.076444055374675
 20
7.934459996103126
 10
2.820333494917908
 20
7.959666154574719
  0
INSERT
  5
1A1
330
2
100
AcDbEntity
  8
image
100
AcDbBlockReference
  2
RD
 10
2.410262518715311
 20
3.591500621557045
 30
0.0
  0
TEXT
  5
1AB
330
2
100
AcDbEntity
  8
option-noz-mpr
100
AcDbText
 10
4.760000000000001
 20
4.737999999999997
 30
0.0
 40
0.125
  1
 WITH PLASTIC MPR NOZZLE
  7
ROMANS
100
AcDbText
  0
TEXT
  5
1AD
330
2
100
AcDbEntity
  8
option-noz-u-series
100
AcDbText
 10
4.760000000000001
 20
4.737999999999997
 30
0.0
 40
0.125
  1
 WITH U-SERIES NOZZLE
  7
ROMANS
100
AcDbText
  0
TEXT
  5
1AF
330
2
100
AcDbEntity
  8
option-noz-van
100
AcDbText
 10
4.760000000000001
 20
4.737999999999997
 30
0.0
 40
0.125
  1
 WITH VAN NOZZLE
  7
ROMANS
100
AcDbText
  0
TEXT
  5
1B1
330
2
100
AcDbEntity
  8
option-noz-hevan
100
AcDbText
 10
4.760000000000001
 20
4.737999999999997
 30
0.0
 40
0.125
  1
 WITH HE-VAN NOZZLE
  7
ROMANS
100
AcDbText
  0
TEXT
  5
1B3
330
2
100
AcDbEntity
  8
option-noz-sq
100
AcDbText
 10
4.760000000000001
 20
4.737999999999997
 30
0.0
 40
0.125
  1
 WITH SQ NOZZLE
  7
ROMANS
100
AcDbText
  0
TEXT
  5
1B5
330
2
100
AcDbEntity
  8
option-noz-rotary
100
AcDbText
 10
4.760000000000001
 20
4.737999999999997
 30
0.0
 40
0.125
  1
 WITH ROTARY NOZZLE
  7
ROMANS
100
AcDbText
  0
TEXT
  5
1B7
330
2
100
AcDbEntity
  8
option-sam
100
AcDbText
 10
6.59714795306505
 20
4.888999999999999
 30
0.0
 40
0.125
  1
-SAM
  7
ROMANS
100
AcDbText
  0
TEXT
  5
1B9
330
2
100
AcDbEntity
  8
option-prs-f
100
AcDbText
 10
6.59714795306505
 20
4.888999999999999
 30
0.0
 40
0.125
  1
-PRS-F
  7
ROMANS
100
AcDbText
  0
TEXT
  5
1BB
330
2
100
AcDbEntity
  8
option-prs-f-np
100
AcDbText
 10
6.59714795306505
 20
4.888999999999999
 30
0.0
 40
0.125
  1
-PRS-F-NP
  7
ROMANS
100
AcDbText
  0
TEXT
  5
1BD
330
2
100
AcDbEntity
  8
option-sam-prs
100
AcDbText
 10
6.59714795306505
 20
4.888999999999999
 30
0.0
 40
0.125
  1
-SAM-PRS
  7
ROMANS
100
AcDbText
  0
TEXT
  5
1BF
330
2
100
AcDbEntity
  8
option-np
100
AcDbText
 10
6.59714795306505
 20
4.888999999999999
 30
0.0
 40
0.125
  1
-NP
  7
ROMANS
100
AcDbText
  0
TEXT
  5
1C1
330
2
100
AcDbEntity
  8
option-sam-np
100
AcDbText
 10
6.59714795306505
 20
4.888999999999999
 30
0.0
 40
0.125
  1
-SAM-NP
  7
ROMANS
100
AcDbText
  0
TEXT
  5
1C3
330
2
100
AcDbEntity
  8
option-sam-prs-f
100
AcDbText
 10
6.59714795306505
 20
4.888999999999999
 30
0.0
 40
0.125
  1
-SAM-PRS-F
  7
ROMANS
100
AcDbText
  0
TEXT
  5
1C5
330
2
100
AcDbEntity
  8
option-sam-prs-f-np
100
AcDbText
 10
6.59714795306505
 20
4.888999999999999
 30
0.0
 40
0.125
  1
-SAM-PRS-NP-F
  7
ROMANS
100
AcDbText
  0
TEXT
  5
1C7
330
2
100
AcDbEntity
  8
option-sam-p45-f-np
100
AcDbText
 10
6.59714795306505
 20
4.888999999999999
 30
0.0
 40
0.125
  1
-SAM-P45-NP-F
  7
ROMANS
100
AcDbText
  0
MTEXT
  5
1C9
330
2
100
AcDbEntity
  8
instruct-option
100
AcDbMText
 10
11.0
 20
7.5
 30
0.0
 40
0.075
 41
5.02575
 71
     1
 72
     1
  3
{\LCHOOSING NOZZLES AND OPTIONAL FEATURES\P\PNOZZLES}^I^I^I^I^I^I^I^I^I^I^I{\LLAYER NAME\P}HE-VAN NOZZLE^I^I^I^I^I^I^I^I^IOPTION-NOZ-HEVAN\PMPR NOZZLE^I^I^I^I^I^I^I^I^I^IOPTION-NOZ-MPR\PROTARY NOZZLE^I^I^I^I^I^I^I^I^IOPTION-NOZ-ROTARY\PSQ NOZZLE^I^I^I^I^I^I^I^I^I^IOPTION-NOZ-SQ\PU-SERIES NOZZLE^I^I^I^I
  3
^I^I^I^I^IOPTION-NOZ-U-SERIES\PVAN NOZZLE^I^I^I^I^I^I^I^I^I^IOPTION-NOZ-VAN\P\P{\LOPTION}^I^I^I^I^I^I^I^I^I^I^I{\LLAYER NAME}\PNON-POTABLE CAP^I^I^I^I^I^I^I^I^IOPTION-NP\PPRS 30PSI WITH FLOW SHIELD^I^I^I ^I^I^I^IOPTION-PRS-F\PPRS 30PSI WITH FLOW SHIELD NON-POTABLE CAP^I^I^IOPTION-PRS-F-NP\PSAM 
  3
^I^I^I^I^I^I^I^I^I^I^I^IOPTION-SAM\PSAM WITH NON-POTABLE CAP^I^I^I^I^I^I^IOPTION-SAM-NP\P{\Fc:\program files\autocad 2009\fonts\romans|c0;SAM-PRS 45PSI WITH FLOW SHIELD^I^I^I^I^I^IOPTION-SAM-P45-F}\PSAM-PRS 45PSI WITH FLOW SHIELD NON-POTABLE CAP^I^IOPTION-SAM-P45-F-NP\PSAM-PRS
  1
 30PSI ^I^I^I^I^I^I^I^I^IOPTION-SAM-PRS\PSAM-PRS 30PSI WITH FLOW SHIELD^I^I^I^I^I^IOPTION-SAM-PRS-F\PSAM-PRS 30PSI WITH FLOW SHIELD NON-POTABLE CAP^I^IOPTION-SAM-PRS-F-NP
  7
ROMANS
 73
     1
 44
1.0
1001
ACAD
1000
MTEXTBEGIN
1070
    73
1070
     1
1070
    44
1040
1.0
1070
    74
1070
     0
1000
MTEXTEND
  0
TEXT
  5
1CB
330
2
100
AcDbEntity
  8
option-sam-p45-f
100
AcDbText
 10
6.59714795306505
 20
4.888999999999999
 30
0.0
 40
0.125
  1
-SAM-P45-F
  7
ROMANS
100
AcDbText
  0
INSERT
  5
1CE
330
2
100
AcDbEntity
  8
0
100
AcDbBlockReference
  2
A$C7808359E
 10
2.276208750110287
 20
6.84357211877705
 30
0.0
  0
LINE
  5
30F
330
2
100
AcDbEntity
  8
image
100
AcDbLine
 10
2.616251411244775
 20
5.894353640081882
 30
0.0
 11
2.61625141124478
 21
3.591500621557045
 31
0.0
  0
LINE
  5
310
330
2
100
AcDbEntity
  8
image
100
AcDbLine
 10
2.204273626185843
 20
5.463824762435389
 30
0.0
 11
2.204273626185843
 21
3.591500621557045
 31
0.0
  0
ENDSEC
  0
SECTION
  2
OBJECTS
  0
DICTIONARY
  5
7
330
0
100
AcDbDictionary
281
     1
  3
ACAD_CIP_PREVIOUS_PRODUCT_INFO
350
325
  3
ACAD_COLOR
350
291
  3
ACAD_GROUP
350
27E
  3
ACAD_LAYOUT
350
266
  3
ACAD_MATERIAL
350
C
  3
ACAD_MLEADERSTYLE
350
2D6
  3
ACAD_MLINESTYLE
350
27F
  3
ACAD_PLOTSETTINGS
350
280
  3
ACAD_PLOTSTYLENAME
350
6
  3
ACAD_SCALELIST
350
292
  3
ACAD_TABLESTYLE
350
293
  3
ACAD_VISUALSTYLE
350
27A
  3
ACDB_RECOMPOSE_DATA
350
45B
  3
AcDbVariableDictionary
350
294
  3
DWGPROPS
350
45C
1001
BBSI_Bookmarks
1000
1
1000
1
1000
0
1000
1
1000
0
1000
0
1000
0
1000
0
1000
0
1000
0
1000
0
1001
BBSI_BookmarksEx
1000
0
1000
0
1000

1000
0
1001
BBSI_PltSel
1000
2
1000
11x17bw_fit
  0
DICTIONARY
  5
2F4
330
277
100
AcDbDictionary
280
     1
281
     1
  0
DICTIONARY
  5
26D
330
26C
100
AcDbDictionary
280
     1
281
     1
  3
ACAD_LAYERFILTERS
360
2DE
  3
ACAD_LAYERSTATES
360
26F
  0
DICTIONARY
  5
3B9
330
2
100
AcDbDictionary
280
     1
281
     1
  0
DICTIONARY
  5
44A
330
1D2
100
AcDbDictionary
280
     1
281
     1
  3
ACAD_SORTENTS
360
44B
  0
XRECORD
  5
325
102
{ACAD_REACTORS
330
7
102
}
330
7
100
AcDbXrecord
280
     1
300
ARCHDESK
300
2012
300
FDSPRM_F_S
  0
DICTIONARY
  5
291
102
{ACAD_REACTORS
330
7
102
}
330
7
100
AcDbDictionary
281
     1
  0
DICTIONARY
  5
27E
102
{ACAD_REACTORS
330
7
102
}
330
7
100
AcDbDictionary
281
     1
  0
DICTIONARY
  5
266
102
{ACAD_REACTORS
330
7
102
}
330
7
100
AcDbDictionary
281
     1
  3
Layout1
350
26B
  3
Model
350
265
  0
DICTIONARY
  5
C
102
{ACAD_REACTORS
330
7
102
}
330
7
100
AcDbDictionary
281
     1
  3
ByBlock
350
289
  3
ByLayer
350
281
  3
Global
350
B
  0
DICTIONARY
  5
2D6
102
{ACAD_REACTORS
330
7
102
}
330
7
100
AcDbDictionary
281
     1
  3
Standard
350
2D7
  0
DICTIONARY
  5
27F
102
{ACAD_REACTORS
330
7
102
}
330
7
100
AcDbDictionary
281
     1
  3
Standard
350
2A1
  0
DICTIONARY
  5
280
102
{ACAD_REACTORS
330
7
102
}
330
7
100
AcDbDictionary
281
     1
  0
ACDBDICTIONARYWDFLT
  5
6
102
{ACAD_REACTORS
330
7
102
}
330
7
100
AcDbDictionary
281
     1
  3
Normal
350
5
100
AcDbDictionaryWithDefault
340
5
  0
DICTIONARY
  5
292
102
{ACAD_REACTORS
330
7
102
}
330
7
100
AcDbDictionary
281
     1
  3
A0
350
2A7
  3
A1
350
2A8
  3
A2
350
2A9
  3
A3
350
2AA
  3
A4
350
2AB
  3
A5
350
2AC
  3
A6
350
2AD
  3
A7
350
2AE
  3
A8
350
2AF
  3
A9
350
2B0
  3
B0
350
2B1
  3
B1
350
2B2
  3
B2
350
2B3
  3
B3
350
2B4
  3
B4
350
2B5
  3
B5
350
2B6
  3
B6
350
2B7
  3
B7
350
2B8
  3
B8
350
2B9
  3
B9
350
2BA
  3
C0
350
2BB
  3
C1
350
2BC
  3
C2
350
2BD
  3
C3
350
2BE
  3
C4
350
2BF
  3
C5
350
2C0
  3
C6
350
2C1
  3
C7
350
2C2
  3
C8
350
2C3
  3
C9
350
2C4
  3
D0
350
2C5
  3
D1
350
2C6
  3
D2
350
2C7
  0
DICTIONARY
  5
293
102
{ACAD_REACTORS
330
7
102
}
330
7
100
AcDbDictionary
281
     1
  3
Standard
350
2A2
  0
DICTIONARY
  5
27A
102
{ACAD_REACTORS
330
7
102
}
330
7
100
AcDbDictionary
281
     1
  3
2dWireframe
350
279
  3
3D Hidden
350
2CE
  3
3dWireframe
350
2A6
  3
Basic
350
2CD
  3
Brighten
350
2D1
  3
ColorChange
350
2D5
  3
Conceptual
350
2CF
  3
Dim
350
2D0
  3
EdgeColorOff
350
31F
  3
Facepattern
350
2D4
  3
Flat
350
2C9
  3
FlatWithEdges
350
2CA
  3
Gouraud
350
2CB
  3
GouraudWithEdges
350
2CC
  3
Hidden
350
317
  3
JitterOff
350
31D
  3
Linepattern
350
2D3
  3
OverhangOff
350
31E
  3
Realistic
350
2A5
  3
Shaded
350
31C
  3
Shaded with edges
350
31B
  3
Shades of Gray
350
318
  3
Sketchy
350
319
  3
Thicken
350
2D2
  3
Wireframe
350
316
  3
X-Ray
350
31A
  0
XRECORD
  5
45B
102
{ACAD_REACTORS
330
7
102
}
330
7
100
AcDbXrecord
280
     1
 90
        1
330
2A2
  0
DICTIONARY
  5
294
102
{ACAD_REACTORS
330
7
102
}
330
7
100
AcDbDictionary
281
     1
  3
CANNOSCALE
350
295
  3
CMLEADERSTYLE
350
296
  3
CTABLESTYLE
350
297
  3
DIMASSOC
350
298
  3
HIDETEXT
350
299
  3
INDEXCTL
350
2FA
  3
LAYEREVAL
350
2F9
  3
LAYERNOTIFY
350
29A
  3
LIGHTINGUNITS
350
29B
  3
MSLTSCALE
350
29C
  3
SORTENTS
350
29D
  3
UPDATETHUMBNAIL
350
29E
  3
XCLIPFRAME
350
457
  0
XRECORD
  5
45C
102
{ACAD_REACTORS
330
7
102
}
330
7
100
AcDbXrecord
280
     1
  1
DWGPROPS COOKIE
  2

  3

  4

  6

  7

  8
JD
  9

300
=
301
=
302
=
303
=
304
=
305
=
306
=
307
=
308
=
309
=
 40
0.4722371875000001
 41
2449623.426764237
 42
2456042.440467454
  1

 90
        0
  0
DICTIONARY
  5
2DE
102
{ACAD_REACTORS
330
26D
102
}
330
26D
100
AcDbDictionary
281
     1
  3
_0100-
350
2E1
  3
_0280-
350
2E0
  3
_Add Alternate
350
2E3
  3
_Bid Alternate
350
2E4
  3
_Color 253
350
2E6
  3
_Color 8
350
2E2
  3
_Color 84
350
2E5
  3
_Contours
350
2EC
  3
_Demo
350
2E7
  3
_Existing
350
2E8
  3
_Hardscape
350
2EB
  3
_NoXref
350
2DF
  3
_Row
350
2E9
  3
_Utility
350
2EA
  0
DICTIONARY
  5
26F
102
{ACAD_REACTORS
330
26D
102
}
330
26D
100
AcDbDictionary
281
     1
  0
SORTENTSTABLE
  5
44B
102
{ACAD_REACTORS
330
44A
102
}
330
44A
100
AcDbSortentsTable
330
1D2
  0
LAYOUT
  5
26B
102
{ACAD_XDICTIONARY
360
460
102
}
102
{ACAD_REACTORS
330
266
102
}
330
266
100
AcDbPlotSettings
  1

  2
S:\AutoCAD 2002\Plotters\1055B&WDraftShaded.pc3
  4

  6

 40
0.0
 41
0.0
 42
0.0
 43
0.0
 44
0.0
 45
0.0
 46
0.0
 47
0.0
 48
0.0
 49
0.0
140
0.0
141
0.0
142
1.0
143
1.0
 70
   688
 72
     0
 73
     0
 74
     5
  7
monochrome.ctb
 75
    16
147
1.0
148
0.0
149
0.0
100
AcDbLayout
  1
Layout1
 70
     1
 71
     1
 10
0.0
 20
0.0
 11
12.0
 21
9.0
 12
0.0
 22
0.0
 32
0.0
 14
1.000000000000000E+20
 24
1.000000000000000E+20
 34
1.000000000000000E+20
 15
-1.000000000000000E+20
 25
-1.000000000000000E+20
 35
-1.000000000000000E+20
146
0.0
 13
0.0
 23
0.0
 33
0.0
 16
1.0
 26
0.0
 36
0.0
 17
0.0
 27
1.0
 37
0.0
 76
     0
330
268
  0
LAYOUT
  5
265
102
{ACAD_XDICTIONARY
360
45E
102
}
102
{ACAD_REACTORS
330
266
102
}
330
266
100
AcDbPlotSettings
  1

  2
Adobe PDF.pc3
  4
User119
  6

 40
3.174999952316284
 41
3.174999952316284
 42
3.17498779296875
 43
3.17498779296875
 44
279.3999938964844
 45
431.8000183105469
 46
3.937003075599676
 47
3.302015282631007
 48
0.0
 49
0.0
140
16.48999999999999
141
10.44
142
1.0
143
1.0
 70
 11940
 72
     0
 73
     1
 74
     4
  7
monochrome.ctb
 75
     0
147
1.015767204569846
148
0.0
149
0.0
100
AcDbLayout
  1
Model
 70
     1
 71
     0
 10
0.0
 20
0.0
 11
12.0
 21
9.0
 12
0.0
 22
0.0
 32
0.0
 14
0.0
 24
0.0
 34
0.0
 15
0.0
 25
0.0
 35
0.0
146
0.0
 13
0.0
 23
0.0
 33
0.0
 16
1.0
 26
0.0
 36
0.0
 17
0.0
 27
1.0
 37
0.0
 76
     0
330
2
331
314
1001
ACAD_PSEXT
1000
Adobe PDF.pc3
1000
Adobe PDF Converter
1000
Documents\*.pdf
1000

1070
     0
  0
MATERIAL
  5
289
102
{ACAD_XDICTIONARY
360
28A
102
}
102
{ACAD_REACTORS
330
C
102
}
330
C
100
AcDbMaterial
  1
ByBlock
 72
     0
 43
0.0208333333333333
 43
0.0
 43
0.0
 43
0.0
 43
0.0
 43
0.0208333333333333
 43
0.0
 43
0.0
 43
0.0
 43
0.0
 43
1.0
 43
0.0
 43
0.0
 43
0.0
 43
0.0
 43
1.0
 77
     0
 47
0.0208333333333333
 47
0.0
 47
0.0
 47
0.0
 47
0.0
 47
0.0208333333333333
 47
0.0
 47
0.0
 47
0.0
 47
0.0
 47
1.0
 47
0.0
 47
0.0
 47
0.0
 47
0.0
 47
1.0
171
     0
 49
0.0208333333333333
 49
0.0
 49
0.0
 49
0.0
 49
0.0
 49
0.0208333333333333
 49
0.0
 49
0.0
 49
0.0
 49
0.0
 49
1.0
 49
0.0
 49
0.0
 49
0.0
 49
0.0
 49
1.0
175
     0
142
0.0208333333333333
142
0.0
142
0.0
142
0.0
142
0.0
142
0.0208333333333333
142
0.0
142
0.0
142
0.0
142
0.0
142
1.0
142
0.0
142
0.0
142
0.0
142
0.0
142
1.0
179
     0
144
0.0208333333333333
144
0.0
144
0.0
144
0.0
144
0.0
144
0.0208333333333333
144
0.0
144
0.0
144
0.0
144
0.0
144
1.0
144
0.0
144
0.0
144
0.0
144
0.0
144
1.0
147
0.0208333333333333
147
0.0
147
0.0
147
0.0
147
0.0
147
0.0208333333333333
147
0.0
147
0.0
147
0.0
147
0.0
147
1.0
147
0.0
147
0.0
147
0.0
147
0.0
147
1.0
  0
MATERIAL
  5
281
102
{ACAD_XDICTIONARY
360
282
102
}
102
{ACAD_REACTORS
330
C
102
}
330
C
100
AcDbMaterial
  1
ByLayer
 72
     0
 43
0.0208333333333333
 43
0.0
 43
0.0
 43
0.0
 43
0.0
 43
0.0208333333333333
 43
0.0
 43
0.0
 43
0.0
 43
0.0
 43
1.0
 43
0.0
 43
0.0
 43
0.0
 43
0.0
 43
1.0
 77
     0
 47
0.0208333333333333
 47
0.0
 47
0.0
 47
0.0
 47
0.0
 47
0.0208333333333333
 47
0.0
 47
0.0
 47
0.0
 47
0.0
 47
1.0
 47
0.0
 47
0.0
 47
0.0
 47
0.0
 47
1.0
171
     0
 49
0.0208333333333333
 49
0.0
 49
0.0
 49
0.0
 49
0.0
 49
0.0208333333333333
 49
0.0
 49
0.0
 49
0.0
 49
0.0
 49
1.0
 49
0.0
 49
0.0
 49
0.0
 49
0.0
 49
1.0
175
     0
142
0.0208333333333333
142
0.0
142
0.0
142
0.0
142
0.0
142
0.0208333333333333
142
0.0
142
0.0
142
0.0
142
0.0
142
1.0
142
0.0
142
0.0
142
0.0
142
0.0
142
1.0
179
     0
144
0.0208333333333333
144
0.0
144
0.0
144
0.0
144
0.0
144
0.0208333333333333
144
0.0
144
0.0
144
0.0
144
0.0
144
1.0
144
0.0
144
0.0
144
0.0
144
0.0
144
1.0
147
0.0208333333333333
147
0.0
147
0.0
147
0.0
147
0.0
147
0.0208333333333333
147
0.0
147
0.0
147
0.0
147
0.0
147
1.0
147
0.0
147
0.0
147
0.0
147
0.0
147
1.0
  0
MATERIAL
  5
B
102
{ACAD_XDICTIONARY
360
D
102
}
102
{ACAD_REACTORS
330
C
102
}
330
C
100
AcDbMaterial
  1
Global
 72
     0
 43
0.0208333333333333
 43
0.0
 43
0.0
 43
0.0
 43
0.0
 43
0.0208333333333333
 43
0.0
 43
0.0
 43
0.0
 43
0.0
 43
1.0
 43
0.0
 43
0.0
 43
0.0
 43
0.0
 43
1.0
 77
     0
 47
0.0208333333333333
 47
0.0
 47
0.0
 47
0.0
 47
0.0
 47
0.0208333333333333
 47
0.0
 47
0.0
 47
0.0
 47
0.0
 47
1.0
 47
0.0
 47
0.0
 47
0.0
 47
0.0
 47
1.0
171
     0
 49
0.0208333333333333
 49
0.0
 49
0.0
 49
0.0
 49
0.0
 49
0.0208333333333333
 49
0.0
 49
0.0
 49
0.0
 49
0.0
 49
1.0
 49
0.0
 49
0.0
 49
0.0
 49
0.0
 49
1.0
175
     0
142
0.0208333333333333
142
0.0
142
0.0
142
0.0
142
0.0
142
0.0208333333333333
142
0.0
142
0.0
142
0.0
142
0.0
142
1.0
142
0.0
142
0.0
142
0.0
142
0.0
142
1.0
179
     0
144
0.0208333333333333
144
0.0
144
0.0
144
0.0
144
0.0
144
0.0208333333333333
144
0.0
144
0.0
144
0.0
144
0.0
144
1.0
144
0.0
144
0.0
144
0.0
144
0.0
144
1.0
147
0.0208333333333333
147
0.0
147
0.0
147
0.0
147
0.0
147
0.0208333333333333
147
0.0
147
0.0
147
0.0
147
0.0
147
1.0
147
0.0
147
0.0
147
0.0
147
0.0
147
1.0
  0
MLEADERSTYLE
  5
2D7
102
{ACAD_XDICTIONARY
360
459
102
}
102
{ACAD_REACTORS
330
2D6
102
}
330
2D6
100
AcDbMLeaderStyle
170
     2
171
     1
172
     0
 90
        2
 40
0.0
 41
0.0
173
     1
 91
-1056964608
340
273
 92
       -2
290
     1
 42
0.09
291
     1
 43
0.36
  3
Standard
 44
0.18
300

342
85
174
     1
178
     6
175
     1
176
     0
 93
-1056964608
 45
0.18
292
     0
297
     0
 46
0.18
 94
-1056964608
 47
1.0
 49
1.0
140
1.0
293
     1
141
0.0
294
     1
177
     0
142
1.0
295
     0
296
     0
143
0.125
1001
ACAD_MLEADERVER
1070
     2
  0
MLINESTYLE
  5
2A1
102
{ACAD_REACTORS
330
27F
102
}
330
27F
100
AcDbMlineStyle
  2
STANDARD
 70
     0
  3

 62
   256
 51
90.0
 52
90.0
 71
     2
 49
0.5
 62
   256
  6
BYLAYER
 49
-0.5
 62
   256
  6
BYLAYER
  0
ACDBPLACEHOLDER
  5
5
102
{ACAD_REACTORS
330
6
102
}
330
6
  0
SCALE
  5
2A7
102
{ACAD_REACTORS
330
292
102
}
330
292
100
AcDbScale
 70
     0
300
1:1
140
1.0
141
1.0
290
     1
  0
SCALE
  5
2A8
102
{ACAD_REACTORS
330
292
102
}
330
292
100
AcDbScale
 70
     0
300
1:2
140
1.0
141
2.0
290
     0
  0
SCALE
  5
2A9
102
{ACAD_REACTORS
330
292
102
}
330
292
100
AcDbScale
 70
     0
300
1:4
140
1.0
141
4.0
290
     0
  0
SCALE
  5
2AA
102
{ACAD_REACTORS
330
292
102
}
330
292
100
AcDbScale
 70
     0
300
1:5
140
1.0
141
5.0
290
     0
  0
SCALE
  5
2AB
102
{ACAD_REACTORS
330
292
102
}
330
292
100
AcDbScale
 70
     0
300
1:8
140
1.0
141
8.0
290
     0
  0
SCALE
  5
2AC
102
{ACAD_REACTORS
330
292
102
}
330
292
100
AcDbScale
 70
     0
300
1:10
140
1.0
141
10.0
290
     0
  0
SCALE
  5
2AD
102
{ACAD_REACTORS
330
292
102
}
330
292
100
AcDbScale
 70
     0
300
1:16
140
1.0
141
16.0
290
     0
  0
SCALE
  5
2AE
102
{ACAD_REACTORS
330
292
102
}
330
292
100
AcDbScale
 70
     0
300
1:20
140
1.0
141
20.0
290
     0
  0
SCALE
  5
2AF
102
{ACAD_REACTORS
330
292
102
}
330
292
100
AcDbScale
 70
     0
300
1:30
140
1.0
141
30.0
290
     0
  0
SCALE
  5
2B0
102
{ACAD_REACTORS
330
292
102
}
330
292
100
AcDbScale
 70
     0
300
1:40
140
1.0
141
40.0
290
     0
  0
SCALE
  5
2B1
102
{ACAD_REACTORS
330
292
102
}
330
292
100
AcDbScale
 70
     0
300
1:50
140
1.0
141
50.0
290
     0
  0
SCALE
  5
2B2
102
{ACAD_REACTORS
330
292
102
}
330
292
100
AcDbScale
 70
     0
300
1:100
140
1.0
141
100.0
290
     0
  0
SCALE
  5
2B3
102
{ACAD_REACTORS
330
292
102
}
330
292
100
AcDbScale
 70
     0
300
2:1
140
2.0
141
1.0
290
     0
  0
SCALE
  5
2B4
102
{ACAD_REACTORS
330
292
102
}
330
292
100
AcDbScale
 70
     0
300
4:1
140
4.0
141
1.0
290
     0
  0
SCALE
  5
2B5
102
{ACAD_REACTORS
330
292
102
}
330
292
100
AcDbScale
 70
     0
300
8:1
140
8.0
141
1.0
290
     0
  0
SCALE
  5
2B6
102
{ACAD_REACTORS
330
292
102
}
330
292
100
AcDbScale
 70
     0
300
10:1
140
10.0
141
1.0
290
     0
  0
SCALE
  5
2B7
102
{ACAD_REACTORS
330
292
102
}
330
292
100
AcDbScale
 70
     0
300
100:1
140
100.0
141
1.0
290
     0
  0
SCALE
  5
2B8
102
{ACAD_REACTORS
330
292
102
}
330
292
100
AcDbScale
 70
     0
300
1/128" = 1'-0"
140
0.0078125
141
12.0
290
     0
  0
SCALE
  5
2B9
102
{ACAD_REACTORS
330
292
102
}
330
292
100
AcDbScale
 70
     0
300
1/64" = 1'-0"
140
0.015625
141
12.0
290
     0
  0
SCALE
  5
2BA
102
{ACAD_REACTORS
330
292
102
}
330
292
100
AcDbScale
 70
     0
300
1/32" = 1'-0"
140
0.03125
141
12.0
290
     0
  0
SCALE
  5
2BB
102
{ACAD_REACTORS
330
292
102
}
330
292
100
AcDbScale
 70
     0
300
1/16" = 1'-0"
140
0.0625
141
12.0
290
     0
  0
SCALE
  5
2BC
102
{ACAD_REACTORS
330
292
102
}
330
292
100
AcDbScale
 70
     0
300
3/32" = 1'-0"
140
0.09375
141
12.0
290
     0
  0
SCALE
  5
2BD
102
{ACAD_REACTORS
330
292
102
}
330
292
100
AcDbScale
 70
     0
300
1/8" = 1'-0"
140
0.125
141
12.0
290
     0
  0
SCALE
  5
2BE
102
{ACAD_REACTORS
330
292
102
}
330
292
100
AcDbScale
 70
     0
300
3/16" = 1'-0"
140
0.1875
141
12.0
290
     0
  0
SCALE
  5
2BF
102
{ACAD_REACTORS
330
292
102
}
330
292
100
AcDbScale
 70
     0
300
1/4" = 1'-0"
140
0.25
141
12.0
290
     0
  0
SCALE
  5
2C0
102
{ACAD_REACTORS
330
292
102
}
330
292
100
AcDbScale
 70
     0
300
3/8" = 1'-0"
140
0.375
141
12.0
290
     0
  0
SCALE
  5
2C1
102
{ACAD_REACTORS
330
292
102
}
330
292
100
AcDbScale
 70
     0
300
1/2" = 1'-0"
140
0.5
141
12.0
290
     0
  0
SCALE
  5
2C2
102
{ACAD_REACTORS
330
292
102
}
330
292
100
AcDbScale
 70
     0
300
3/4" = 1'-0"
140
0.75
141
12.0
290
     0
  0
SCALE
  5
2C3
102
{ACAD_REACTORS
330
292
102
}
330
292
100
AcDbScale
 70
     0
300
1" = 1'-0"
140
1.0
141
12.0
290
     0
  0
SCALE
  5
2C4
102
{ACAD_REACTORS
330
292
102
}
330
292
100
AcDbScale
 70
     0
300
1-1/2" = 1'-0"
140
1.5
141
12.0
290
     0
  0
SCALE
  5
2C5
102
{ACAD_REACTORS
330
292
102
}
330
292
100
AcDbScale
 70
     0
300
3" = 1'-0"
140
3.0
141
12.0
290
     0
  0
SCALE
  5
2C6
102
{ACAD_REACTORS
330
292
102
}
330
292
100
AcDbScale
 70
     0
300
6" = 1'-0"
140
6.0
141
12.0
290
     0
  0
SCALE
  5
2C7
102
{ACAD_REACTORS
330
292
102
}
330
292
100
AcDbScale
 70
     0
300
1'-0" = 1'-0"
140
12.0
141
12.0
290
     0
  0
TABLESTYLE
  5
2A2
102
{ACAD_XDICTIONARY
360
2A3
102
}
102
{ACAD_REACTORS
330
293
102
}
330
293
100
AcDbTableStyle
  3
Standard
 70
     0
 71
     0
 40
0.06
 41
0.06
280
     0
281
     0
  7
STANDARD
140
0.18
170
     2
 62
     0
 63
     7
283
     0
274
    -2
284
     1
 64
     0
275
    -2
285
     1
 65
     0
276
    -2
286
     1
 66
     0
277
    -2
287
     1
 67
     0
278
    -2
288
     1
 68
     0
279
    -2
289
     1
 69
     0
  7
STANDARD
140
0.25
170
     5
 62
     0
 63
     7
283
     0
274
    -2
284
     1
 64
     0
275
    -2
285
     1
 65
     0
276
    -2
286
     1
 66
     0
277
    -2
287
     1
 67
     0
278
    -2
288
     1
 68
     0
279
    -2
289
     1
 69
     0
  7
STANDARD
140
0.18
170
     5
 62
     0
 63
     7
283
     0
274
    -2
284
     1
 64
     0
275
    -2
285
     1
 65
     0
276
    -2
286
     1
 66
     0
277
    -2
287
     1
 67
     0
278
    -2
288
     1
 68
     0
279
    -2
289
     1
 69
     0
  0
VISUALSTYLE
  5
279
102
{ACAD_XDICTIONARY
360
462
102
}
102
{ACAD_REACTORS
330
27A
102
}
330
27A
100
AcDbVisualStyle
  2
2dWireframe
 70
     4
 71
     0
 72
     2
 73
     0
 90
        0
 40
-0.6
 41
-30.0
 62
     5
 63
     7
 74
     1
 91
        4
 64
     7
 65
   257
 75
     1
175
     1
 42
1.0
 92
        0
 66
   257
 43
1.0
 76
     1
 77
     6
 78
     2
 67
     7
 79
     5
170
     0
171
     0
290
     0
174
     0
 93
        1
 44
0.0
173
     0
291
     0
 45
0.0
1001
ACAD
1000
AcDbSavedByObjectVersion
1070
     0
  0
VISUALSTYLE
  5
2CE
102
{ACAD_XDICTIONARY
360
475
102
}
102
{ACAD_REACTORS
330
27A
102
}
330
27A
100
AcDbVisualStyle
  2
3D Hidden
 70
     6
 71
     1
 72
     2
 73
     2
 90
        0
 40
-0.6
 41
-30.0
 62
     5
 63
     7
 74
     2
 91
        2
 64
     7
 65
   257
 75
     2
175
     1
 42
40.0
 92
        0
 66
   257
 43
1.0
 76
     1
 77
     6
 78
     2
 67
     7
 79
     3
170
     0
171
     0
290
     0
174
     0
 93
        1
 44
0.0
173
     0
291
     0
 45
0.0
1001
ACAD
1000
AcDbSavedByObjectVersion
1070
     0
  0
VISUALSTYLE
  5
2A6
102
{ACAD_XDICTIONARY
360
469
102
}
102
{ACAD_REACTORS
330
27A
102
}
330
27A
100
AcDbVisualStyle
  2
3dWireframe
 70
     5
 71
     0
 72
     2
 73
     0
 90
        0
 40
-0.6
 41
-30.0
 62
     5
 63
     7
 74
     1
 91
        4
 64
     7
 65
   257
 75
     1
175
     1
 42
1.0
 92
        0
 66
   257
 43
1.0
 76
     1
 77
     6
 78
     2
 67
     7
 79
     5
170
     0
171
     0
290
     0
174
     0
 93
        1
 44
0.0
173
     0
291
     0
 45
0.0
1001
ACAD
1000
AcDbSavedByObjectVersion
1070
     0
  0
VISUALSTYLE
  5
2CD
102
{ACAD_XDICTIONARY
360
473
102
}
102
{ACAD_REACTORS
330
27A
102
}
330
27A
100
AcDbVisualStyle
  2
Basic
 70
     7
 71
     1
 72
     0
 73
     1
 90
        0
 40
-0.6
 41
-30.0
 62
     5
 63
     7
 74
     0
 91
        4
 64
     7
 65
   257
 75
     1
175
     1
 42
1.0
 92
        8
 66
     7
 43
1.0
 76
     1
 77
     6
 78
     2
 67
     7
 79
     5
170
     0
171
     0
290
     0
174
     0
 93
        1
 44
0.0
173
     0
291
     1
 45
0.0
1001
ACAD
1000
AcDbSavedByObjectVersion
1070
     0
  0
VISUALSTYLE
  5
2D1
102
{ACAD_XDICTIONARY
360
47B
102
}
102
{ACAD_REACTORS
330
27A
102
}
330
27A
100
AcDbVisualStyle
  2
Brighten
 70
    12
 71
     2
 72
     2
 73
     0
 90
        0
 40
-0.6
 41
-30.0
 62
     5
 63
     7
 74
     1
 91
        4
 64
     7
 65
   257
 75
     1
175
     1
 42
1.0
 92
        8
 66
     7
 43
1.0
 76
     1
 77
     6
 78
     2
 67
     7
 79
     5
170
     0
171
     0
290
     0
174
     0
 93
        1
 44
50.0
173
     0
291
     1
 45
0.0
1001
ACAD
1000
AcDbSavedByObjectVersion
1070
     0
  0
VISUALSTYLE
  5
2D5
102
{ACAD_XDICTIONARY
360
483
102
}
102
{ACAD_REACTORS
330
27A
102
}
330
27A
100
AcDbVisualStyle
  2
ColorChange
 70
    16
 71
     2
 72
     2
 73
     3
 90
        0
 40
-0.6
 41
-30.0
 62
     5
 63
     8
 74
     1
 91
        4
 64
     7
 65
   257
 75
     1
175
     1
 42
1.0
 92
        8
 66
     8
 43
1.0
 76
     1
 77
     6
 78
     2
 67
     7
 79
     5
170
     0
171
     0
290
     0
174
     0
 93
        1
 44
0.0
173
     0
291
     1
 45
0.0
1001
ACAD
1000
AcDbSavedByObjectVersion
1070
     0
  0
VISUALSTYLE
  5
2CF
102
{ACAD_XDICTIONARY
360
477
102
}
102
{ACAD_REACTORS
330
27A
102
}
330
27A
100
AcDbVisualStyle
  2
Conceptual
 70
     9
 71
     3
 72
     2
 73
     0
 90
        0
 40
-0.6
 41
-30.0
 62
     5
 63
     7
 74
     2
 91
        2
 64
     7
 65
   257
 75
     1
175
     1
 42
40.0
 92
        8
 66
     7
 43
1.0
 76
     1
 77
     6
 78
     2
 67
     7
 79
     3
170
     0
171
     0
290
     0
174
     0
 93
        1
 44
0.0
173
     0
291
     0
 45
0.0
1001
ACAD
1000
AcDbSavedByObjectVersion
1070
     0
  0
VISUALSTYLE
  5
2D0
102
{ACAD_XDICTIONARY
360
479
102
}
102
{ACAD_REACTORS
330
27A
102
}
330
27A
100
AcDbVisualStyle
  2
Dim
 70
    11
 71
     2
 72
     2
 73
     0
 90
        0
 40
-0.6
 41
-30.0
 62
     5
 63
     7
 74
     1
 91
        4
 64
     7
 65
   257
 75
     1
175
     1
 42
1.0
 92
        8
 66
     7
 43
1.0
 76
     1
 77
     6
 78
     2
 67
     7
 79
     5
170
     0
171
     0
290
     0
174
     0
 93
        1
 44
-50.0
173
     0
291
     1
 45
0.0
1001
ACAD
1000
AcDbSavedByObjectVersion
1070
     0
  0
VISUALSTYLE
  5
31F
102
{ACAD_XDICTIONARY
360
497
102
}
102
{ACAD_REACTORS
330
27A
102
}
330
27A
100
AcDbVisualStyle
  2
EdgeColorOff
 70
    22
 71
     2
 72
     2
 73
     0
 90
        0
 40
-0.6
 41
-30.0
 62
     5
 63
     7
 74
     1
 91
        4
 64
     7
 65
   257
 75
     1
175
     1
 42
1.0
 92
        8
 66
     7
 43
1.0
 76
     1
 77
     6
 78
     2
 67
     7
 79
     5
170
     0
171
     0
290
     0
174
     0
 93
        1
 44
0.0
173
     0
291
     1
 45
0.0
1001
ACAD
1000
AcDbSavedByObjectVersion
1070
     0
  0
VISUALSTYLE
  5
2D4
102
{ACAD_XDICTIONARY
360
481
102
}
102
{ACAD_REACTORS
330
27A
102
}
330
27A
100
AcDbVisualStyle
  2
Facepattern
 70
    15
 71
     2
 72
     2
 73
     0
 90
        0
 40
-0.6
 41
-30.0
 62
     5
 63
     7
 74
     1
 91
        4
 64
     7
 65
   257
 75
     1
175
     1
 42
1.0
 92
        8
 66
     7
 43
1.0
 76
     1
 77
     6
 78
     2
 67
     7
 79
     5
170
     0
171
     0
290
     0
174
     0
 93
        1
 44
0.0
173
     0
291
     1
 45
0.0
1001
ACAD
1000
AcDbSavedByObjectVersion
1070
     0
  0
VISUALSTYLE
  5
2C9
102
{ACAD_XDICTIONARY
360
46B
102
}
102
{ACAD_REACTORS
330
27A
102
}
330
27A
100
AcDbVisualStyle
  2
Flat
 70
     0
 71
     2
 72
     1
 73
     1
 90
        2
 40
-0.6
 41
30.0
 62
     5
 63
     7
 74
     0
 91
        4
 64
     7
 65
   257
 75
     1
175
     1
 42
1.0
 92
        8
 66
     7
 43
1.0
 76
     1
 77
     6
 78
     2
 67
     7
 79
     5
170
     0
171
     0
290
     0
174
     0
 93
       13
 44
0.0
173
     0
291
     1
 45
0.0
1001
ACAD
1000
AcDbSavedByObjectVersion
1070
     0
  0
VISUALSTYLE
  5
2CA
102
{ACAD_XDICTIONARY
360
46D
102
}
102
{ACAD_REACTORS
330
27A
102
}
330
27A
100
AcDbVisualStyle
  2
FlatWithEdges
 70
     1
 71
     2
 72
     1
 73
     1
 90
        2
 40
-0.6
 41
30.0
 62
     5
 63
     7
 74
     1
 91
        4
 64
     7
 65
   257
 75
     1
175
     1
 42
1.0
 92
        0
 66
   257
 43
1.0
 76
     1
 77
     6
 78
     2
 67
     7
 79
     5
170
     0
171
     0
290
     0
174
     0
 93
       13
 44
0.0
173
     0
291
     1
 45
0.0
1001
ACAD
1000
AcDbSavedByObjectVersion
1070
     0
  0
VISUALSTYLE
  5
2CB
102
{ACAD_XDICTIONARY
360
46F
102
}
102
{ACAD_REACTORS
330
27A
102
}
330
27A
100
AcDbVisualStyle
  2
Gouraud
 70
     2
 71
     2
 72
     2
 73
     1
 90
        2
 40
-0.6
 41
30.0
 62
     5
 63
     7
 74
     0
 91
        4
 64
     7
 65
   257
 75
     1
175
     1
 42
1.0
 92
        0
 66
     7
 43
1.0
 76
     1
 77
     6
 78
     2
 67
     7
 79
     5
170
     0
171
     0
290
     0
174
     0
 93
       13
 44
0.0
173
     0
291
     1
 45
0.0
1001
ACAD
1000
AcDbSavedByObjectVersion
1070
     0
  0
VISUALSTYLE
  5
2CC
102
{ACAD_XDICTIONARY
360
471
102
}
102
{ACAD_REACTORS
330
27A
102
}
330
27A
100
AcDbVisualStyle
  2
GouraudWithEdges
 70
     3
 71
     2
 72
     2
 73
     1
 90
        2
 40
-0.6
 41
30.0
 62
     5
 63
     7
 74
     1
 91
        4
 64
     7
 65
   257
 75
     1
175
     1
 42
1.0
 92
        0
 66
   257
 43
1.0
 76
     1
 77
     6
 78
     2
 67
     7
 79
     5
170
     0
171
     0
290
     0
174
     0
 93
       13
 44
0.0
173
     0
291
     1
 45
0.0
1001
ACAD
1000
AcDbSavedByObjectVersion
1070
     0
  0
VISUALSTYLE
  5
317
102
{ACAD_XDICTIONARY
360
487
102
}
102
{ACAD_REACTORS
330
27A
102
}
330
27A
100
AcDbVisualStyle
  2
Hidden
 70
     6
 71
     1
 72
     2
 73
     2
 90
        0
 40
-0.6
 41
-30.0
 62
     5
 63
     7
 74
     2
 91
        2
 64
     7
 65
   257
 75
     2
175
     1
 42
40.0
 92
        0
 66
   257
 43
1.0
 76
     1
 77
     6
 78
     2
 67
     7
 79
     3
170
     0
171
     0
290
     0
174
     0
 93
        1
 44
0.0
173
     0
291
     0
 45
0.0
1001
ACAD
1000
AcDbSavedByObjectVersion
1070
     0
  0
VISUALSTYLE
  5
31D
102
{ACAD_XDICTIONARY
360
493
102
}
102
{ACAD_REACTORS
330
27A
102
}
330
27A
100
AcDbVisualStyle
  2
JitterOff
 70
    20
 71
     2
 72
     2
 73
     0
 90
        0
 40
-0.6
 41
-30.0
 62
     5
 63
     7
 74
     1
 91
        4
 64
     7
 65
   257
 75
     1
175
     1
 42
1.0
 92
       10
 66
     7
 43
1.0
 76
     1
 77
     6
 78
     2
 67
     7
 79
     5
170
     0
171
     0
290
     0
174
     0
 93
        1
 44
0.0
173
     0
291
     1
 45
0.0
1001
ACAD
1000
AcDbSavedByObjectVersion
1070
     0
  0
VISUALSTYLE
  5
2D3
102
{ACAD_XDICTIONARY
360
47F
102
}
102
{ACAD_REACTORS
330
27A
102
}
330
27A
100
AcDbVisualStyle
  2
Linepattern
 70
    14
 71
     2
 72
     2
 73
     0
 90
        0
 40
-0.6
 41
-30.0
 62
     5
 63
     7
 74
     1
 91
        4
 64
     7
 65
   257
 75
     7
175
     7
 42
1.0
 92
        8
 66
     7
 43
1.0
 76
     1
 77
     6
 78
     2
 67
     7
 79
     5
170
     0
171
     0
290
     0
174
     0
 93
        1
 44
0.0
173
     0
291
     1
 45
0.0
1001
ACAD
1000
AcDbSavedByObjectVersion
1070
     0
  0
VISUALSTYLE
  5
31E
102
{ACAD_XDICTIONARY
360
495
102
}
102
{ACAD_REACTORS
330
27A
102
}
330
27A
100
AcDbVisualStyle
  2
OverhangOff
 70
    21
 71
     2
 72
     2
 73
     0
 90
        0
 40
-0.6
 41
-30.0
 62
     5
 63
     7
 74
     1
 91
        4
 64
     7
 65
   257
 75
     1
175
     1
 42
1.0
 92
        9
 66
     7
 43
1.0
 76
     1
 77
     6
 78
     2
 67
     7
 79
     5
170
     0
171
     0
290
     0
174
     0
 93
        1
 44
0.0
173
     0
291
     1
 45
0.0
1001
ACAD
1000
AcDbSavedByObjectVersion
1070
     0
  0
VISUALSTYLE
  5
2A5
102
{ACAD_XDICTIONARY
360
467
102
}
102
{ACAD_REACTORS
330
27A
102
}
330
27A
100
AcDbVisualStyle
  2
Realistic
 70
     8
 71
     2
 72
     2
 73
     0
 90
        0
 40
-0.6
 41
-30.0
 62
     5
 63
     7
 74
     1
 91
        0
 64
     7
 65
   257
 75
     1
175
     1
 42
1.0
 92
        8
 66
     8
 43
1.0
 76
     1
 77
     6
 78
     2
 67
     7
 79
     5
170
     0
171
     0
290
     0
174
     0
 93
       13
 44
0.0
173
     0
291
     0
 45
0.0
1001
ACAD
1000
AcDbSavedByObjectVersion
1070
     0
  0
VISUALSTYLE
  5
31C
102
{ACAD_XDICTIONARY
360
491
102
}
102
{ACAD_REACTORS
330
27A
102
}
330
27A
100
AcDbVisualStyle
  2
Shaded
 70
    27
 71
     2
 72
     2
 73
     1
 90
        2
 40
-0.6
 41
30.0
 62
     5
 63
     7
 74
     0
 91
        4
 64
     7
 65
   257
 75
     1
175
     1
 42
1.0
 92
        8
 66
   257
 43
1.0
 76
     1
 77
     6
 78
     2
 67
     8
 79
     3
170
     0
171
     0
290
     0
174
     0
 93
        5
 44
0.0
173
     0
291
     0
 45
0.0
1001
ACAD
1000
AcDbSavedByObjectVersion
1070
     0
  0
VISUALSTYLE
  5
31B
102
{ACAD_XDICTIONARY
360
48F
102
}
102
{ACAD_REACTORS
330
27A
102
}
330
27A
100
AcDbVisualStyle
  2
Shaded with edges
 70
    26
 71
     2
 72
     2
 73
     1
 90
        2
 40
-0.6
 41
30.0
 62
     5
 63
     7
 74
     1
 91
       10
 64
     7
 65
   257
 75
     2
175
     1
 42
1.0
 92
        8
 66
   257
 43
1.0
 76
     1
 77
     6
 78
     2
 67
     7
 79
     3
170
     0
171
     0
290
     0
174
     0
 93
        5
 44
0.0
173
     0
291
     0
 45
0.0
1001
ACAD
1000
AcDbSavedByObjectVersion
1070
     0
  0
VISUALSTYLE
  5
318
102
{ACAD_XDICTIONARY
360
489
102
}
102
{ACAD_REACTORS
330
27A
102
}
330
27A
100
AcDbVisualStyle
  2
Shades of Gray
 70
    23
 71
     2
 72
     2
 73
     3
 90
        0
 40
-0.6
 41
-30.0
 62
     5
 63
     7
 74
     2
 91
        2
 64
     7
 65
     7
 75
     1
175
     1
 42
40.0
 92
        8
 66
     7
 43
1.0
 76
     1
 77
     6
 78
     2
 67
     7
 79
     3
170
     0
171
     0
290
     0
174
     0
 93
        1
 44
0.0
173
     0
291
     0
 45
0.0
1001
ACAD
1000
AcDbSavedByObjectVersion
1070
     0
  0
VISUALSTYLE
  5
319
102
{ACAD_XDICTIONARY
360
48B
102
}
102
{ACAD_REACTORS
330
27A
102
}
330
27A
100
AcDbVisualStyle
  2
Sketchy
 70
    24
 71
     1
 72
     2
 73
     2
 90
        0
 40
-0.6
 41
-30.0
 62
     5
 63
     7
 74
     2
 91
        2
 64
     7
 65
     7
 75
     1
175
     1
 42
40.0
 92
       11
 66
     7
 43
1.0
 76
     1
 77
     6
 78
     2
 67
     7
 79
     6
170
     0
171
     0
290
     0
174
     0
 93
        1
 44
0.0
173
     0
291
     0
 45
0.0
1001
ACAD
1000
AcDbSavedByObjectVersion
1070
     0
  0
VISUALSTYLE
  5
2D2
102
{ACAD_XDICTIONARY
360
47D
102
}
102
{ACAD_REACTORS
330
27A
102
}
330
27A
100
AcDbVisualStyle
  2
Thicken
 70
    13
 71
     2
 72
     2
 73
     0
 90
        0
 40
-0.6
 41
-30.0
 62
     5
 63
     7
 74
     1
 91
        4
 64
     7
 65
   257
 75
     1
175
     1
 42
1.0
 92
       12
 66
     7
 43
1.0
 76
     1
 77
     6
 78
     2
 67
     7
 79
     5
170
     0
171
     0
290
     0
174
     0
 93
        1
 44
0.0
173
     0
291
     1
 45
0.0
1001
ACAD
1000
AcDbSavedByObjectVersion
1070
     0
  0
VISUALSTYLE
  5
316
102
{ACAD_XDICTIONARY
360
485
102
}
102
{ACAD_REACTORS
330
27A
102
}
330
27A
100
AcDbVisualStyle
  2
Wireframe
 70
     5
 71
     0
 72
     2
 73
     0
 90
        0
 40
-0.6
 41
-30.0
 62
     5
 63
     7
 74
     1
 91
        4
 64
     7
 65
   257
 75
     1
175
     1
 42
1.0
 92
        0
 66
   257
 43
1.0
 76
     1
 77
     6
 78
     2
 67
     7
 79
     3
170
     0
171
     0
290
     0
174
     0
 93
        1
 44
0.0
173
     0
291
     0
 45
0.0
1001
ACAD
1000
AcDbSavedByObjectVersion
1070
     0
  0
VISUALSTYLE
  5
31A
102
{ACAD_XDICTIONARY
360
48D
102
}
102
{ACAD_REACTORS
330
27A
102
}
330
27A
100
AcDbVisualStyle
  2
X-Ray
 70
    25
 71
     2
 72
     2
 73
     1
 90
        1
 40
0.5
 41
-30.0
 62
     5
 63
     7
 74
     1
 91
        0
 64
     7
 65
   257
 75
     1
175
     1
 42
1.0
 92
        8
 66
     7
 43
1.0
 76
     1
 77
     6
 78
     2
 67
     7
 79
     3
170
     0
171
     0
290
     0
174
     0
 93
       13
 44
0.0
173
     0
291
     0
 45
0.0
1001
ACAD
1000
AcDbSavedByObjectVersion
1070
     0
  0
DICTIONARYVAR
  5
295
102
{ACAD_REACTORS
330
294
102
}
330
294
100
DictionaryVariables
280
     0
  1
1:1
  0
DICTIONARYVAR
  5
296
102
{ACAD_REACTORS
330
294
102
}
330
294
100
DictionaryVariables
280
     0
  1
STANDARD
  0
DICTIONARYVAR
  5
297
102
{ACAD_REACTORS
330
294
102
}
330
294
100
DictionaryVariables
280
     0
  1
STANDARD
  0
DICTIONARYVAR
  5
298
102
{ACAD_REACTORS
330
294
102
}
330
294
100
DictionaryVariables
280
     0
  1
1
  0
DICTIONARYVAR
  5
299
102
{ACAD_REACTORS
330
294
102
}
330
294
100
DictionaryVariables
280
     0
  1
1
  0
DICTIONARYVAR
  5
2FA
102
{ACAD_REACTORS
330
294
102
}
330
294
100
DictionaryVariables
280
     0
  1
0
  0
DICTIONARYVAR
  5
2F9
102
{ACAD_REACTORS
330
294
102
}
330
294
100
DictionaryVariables
280
     0
  1
0
  0
DICTIONARYVAR
  5
29A
102
{ACAD_REACTORS
330
294
102
}
330
294
100
DictionaryVariables
280
     0
  1
15
  0
DICTIONARYVAR
  5
29B
102
{ACAD_REACTORS
330
294
102
}
330
294
100
DictionaryVariables
280
     0
  1
0
  0
DICTIONARYVAR
  5
29C
102
{ACAD_REACTORS
330
294
102
}
330
294
100
DictionaryVariables
280
     0
  1
0
  0
DICTIONARYVAR
  5
29D
102
{ACAD_REACTORS
330
294
102
}
330
294
100
DictionaryVariables
280
     0
  1
48
  0
DICTIONARYVAR
  5
29E
102
{ACAD_REACTORS
330
294
102
}
330
294
100
DictionaryVariables
280
     0
  1
0
  0
DICTIONARYVAR
  5
457
102
{ACAD_REACTORS
330
294
102
}
330
294
100
DictionaryVariables
280
     0
  1
0
  0
XRECORD
  5
2E1
102
{ACAD_REACTORS
330
2DE
102
}
330
2DE
100
AcDbXrecord
280
     1
  1
_0100-
  1
*0100-*
  1
*
  1
*
 70
     0
  1
*
  1
*
  0
XRECORD
  5
2E0
102
{ACAD_REACTORS
330
2DE
102
}
330
2DE
100
AcDbXrecord
280
     1
  1
_0280-
  1
*0280-*
  1
*
  1
*
 70
     0
  1
*
  1
*
  0
XRECORD
  5
2E3
102
{ACAD_REACTORS
330
2DE
102
}
330
2DE
100
AcDbXrecord
280
     1
  1
_Add Alternate
  1
*add*alt*
  1
*
  1
*
 70
     0
  1
*
  1
*
  0
XRECORD
  5
2E4
102
{ACAD_REACTORS
330
2DE
102
}
330
2DE
100
AcDbXrecord
280
     1
  1
_Bid Alternate
  1
*bid*alt*
  1
*
  1
*
 70
     0
  1
*
  1
*
  0
XRECORD
  5
2E6
102
{ACAD_REACTORS
330
2DE
102
}
330
2DE
100
AcDbXrecord
280
     1
  1
_Color 253
  1
*
  1
253
  1
*
 70
     0
  1
*
  1
*
  0
XRECORD
  5
2E2
102
{ACAD_REACTORS
330
2DE
102
}
330
2DE
100
AcDbXrecord
280
     1
  1
_Color 8
  1
*
  1
8
  1
*
 70
     0
  1
*
  1
*
  0
XRECORD
  5
2E5
102
{ACAD_REACTORS
330
2DE
102
}
330
2DE
100
AcDbXrecord
280
     1
  1
_Color 84
  1
*
  1
84
  1
*
 70
     0
  1
*
  1
*
  0
XRECORD
  5
2EC
102
{ACAD_REACTORS
330
2DE
102
}
330
2DE
100
AcDbXrecord
280
     1
  1
_Contours
  1
*contour*,*cont-*,*cp cont*,*p-cont*
  1
*
  1
*
 70
     0
  1
*
  1
*
  0
XRECORD
  5
2E7
102
{ACAD_REACTORS
330
2DE
102
}
330
2DE
100
AcDbXrecord
280
     1
  1
_Demo
  1
*demo*
  1
*
  1
*
 70
     0
  1
*
  1
*
  0
XRECORD
  5
2E8
102
{ACAD_REACTORS
330
2DE
102
}
330
2DE
100
AcDbXrecord
280
     1
  1
_Existing
  1
*exist*,*ex*
  1
*
  1
*
 70
     0
  1
*
  1
*
  0
XRECORD
  5
2EB
102
{ACAD_REACTORS
330
2DE
102
}
330
2DE
100
AcDbXrecord
280
     1
  1
_Hardscape
  1
*sidewalk*,*sw*,*curb*,*walk*,*-lip*,*tbc*
  1
*
  1
*
 70
     0
  1
*
  1
*
  0
XRECORD
  5
2DF
102
{ACAD_REACTORS
330
2DE
102
}
330
2DE
100
AcDbXrecord
280
     1
  1
_NoXref
  1
~*|*
  1
*
  1
*
 70
     0
  1
*
  1
*
  0
XRECORD
  5
2E9
102
{ACAD_REACTORS
330
2DE
102
}
330
2DE
100
AcDbXrecord
280
     1
  1
_Row
  1
*row*
  1
*
  1
*
 70
     0
  1
*
  1
*
  0
XRECORD
  5
2EA
102
{ACAD_REACTORS
330
2DE
102
}
330
2DE
100
AcDbXrecord
280
     1
  1
_Utility
  1
*ut-*,*utility*,*wat*
  1
*
  1
*
 70
     0
  1
*
  1
*
  0
DICTIONARY
  5
460
330
26B
100
AcDbDictionary
280
     1
281
     1
  3
ACAD_XREC_ROUNDTRIP
360
461
  0
DICTIONARY
  5
45E
330
265
100
AcDbDictionary
280
     1
281
     1
  3
ACAD_XREC_ROUNDTRIP
360
45F
  0
DICTIONARY
  5
28A
330
289
100
AcDbDictionary
280
     1
281
     1
  3
ACAD_XREC_ROUNDTRIP
360
465
  3
BUMPTILE
360
28B
  3
DIFFUSETILE
360
28C
  3
OPACITYTILE
360
28D
  3
REFLECTIONTILE
360
28E
  3
REFRACTIONTILE
360
28F
  3
SPECULARTILE
360
290
  0
DICTIONARY
  5
282
330
281
100
AcDbDictionary
280
     1
281
     1
  3
ACAD_XREC_ROUNDTRIP
360
464
  3
BUMPTILE
360
283
  3
DIFFUSETILE
360
284
  3
OPACITYTILE
360
285
  3
REFLECTIONTILE
360
286
  3
REFRACTIONTILE
360
287
  3
SPECULARTILE
360
288
  0
DICTIONARY
  5
D
330
B
100
AcDbDictionary
280
     1
281
     1
  3
ACAD_XREC_ROUNDTRIP
360
45D
  3
BUMPTILE
360
E
  3
DIFFUSETILE
360
F
  3
OPACITYTILE
360
10
  3
REFLECTIONTILE
360
11
  3
REFRACTIONTILE
360
12
  3
SPECULARTILE
360
13
  0
DICTIONARY
  5
459
330
2D7
100
AcDbDictionary
280
     1
281
     1
  3
ACAD_XREC_ROUNDTRIP
360
45A
  0
DICTIONARY
  5
2A3
330
2A2
100
AcDbDictionary
280
     1
281
     1
  3
ACAD_ROUNDTRIP_2008_TABLESTYLE_CELLSTYLEMAP
360
458
  3
ACAD_XREC_ROUNDTRIP
360
466
  0
DICTIONARY
  5
462
330
279
100
AcDbDictionary
280
     1
281
     1
  3
ACAD_XREC_ROUNDTRIP
360
463
  0
DICTIONARY
  5
475
330
2CE
100
AcDbDictionary
280
     1
281
     1
  3
ACAD_XREC_ROUNDTRIP
360
476
  0
DICTIONARY
  5
469
330
2A6
100
AcDbDictionary
280
     1
281
     1
  3
ACAD_XREC_ROUNDTRIP
360
46A
  0
DICTIONARY
  5
473
330
2CD
100
AcDbDictionary
280
     1
281
     1
  3
ACAD_XREC_ROUNDTRIP
360
474
  0
DICTIONARY
  5
47B
330
2D1
100
AcDbDictionary
280
     1
281
     1
  3
ACAD_XREC_ROUNDTRIP
360
47C
  0
DICTIONARY
  5
483
330
2D5
100
AcDbDictionary
280
     1
281
     1
  3
ACAD_XREC_ROUNDTRIP
360
484
  0
DICTIONARY
  5
477
330
2CF
100
AcDbDictionary
280
     1
281
     1
  3
ACAD_XREC_ROUNDTRIP
360
478
  0
DICTIONARY
  5
479
330
2D0
100
AcDbDictionary
280
     1
281
     1
  3
ACAD_XREC_ROUNDTRIP
360
47A
  0
DICTIONARY
  5
497
330
31F
100
AcDbDictionary
280
     1
281
     1
  3
ACAD_XREC_ROUNDTRIP
360
498
  0
DICTIONARY
  5
481
330
2D4
100
AcDbDictionary
280
     1
281
     1
  3
ACAD_XREC_ROUNDTRIP
360
482
  0
DICTIONARY
  5
46B
330
2C9
100
AcDbDictionary
280
     1
281
     1
  3
ACAD_XREC_ROUNDTRIP
360
46C
  0
DICTIONARY
  5
46D
330
2CA
100
AcDbDictionary
280
     1
281
     1
  3
ACAD_XREC_ROUNDTRIP
360
46E
  0
DICTIONARY
  5
46F
330
2CB
100
AcDbDictionary
280
     1
281
     1
  3
ACAD_XREC_ROUNDTRIP
360
470
  0
DICTIONARY
  5
471
330
2CC
100
AcDbDictionary
280
     1
281
     1
  3
ACAD_XREC_ROUNDTRIP
360
472
  0
DICTIONARY
  5
487
330
317
100
AcDbDictionary
280
     1
281
     1
  3
ACAD_XREC_ROUNDTRIP
360
488
  0
DICTIONARY
  5
493
330
31D
100
AcDbDictionary
280
     1
281
     1
  3
ACAD_XREC_ROUNDTRIP
360
494
  0
DICTIONARY
  5
47F
330
2D3
100
AcDbDictionary
280
     1
281
     1
  3
ACAD_XREC_ROUNDTRIP
360
480
  0
DICTIONARY
  5
495
330
31E
100
AcDbDictionary
280
     1
281
     1
  3
ACAD_XREC_ROUNDTRIP
360
496
  0
DICTIONARY
  5
467
330
2A5
100
AcDbDictionary
280
     1
281
     1
  3
ACAD_XREC_ROUNDTRIP
360
468
  0
DICTIONARY
  5
491
330
31C
100
AcDbDictionary
280
     1
281
     1
  3
ACAD_XREC_ROUNDTRIP
360
492
  0
DICTIONARY
  5
48F
330
31B
100
AcDbDictionary
280
     1
281
     1
  3
ACAD_XREC_ROUNDTRIP
360
490
  0
DICTIONARY
  5
489
330
318
100
AcDbDictionary
280
     1
281
     1
  3
ACAD_XREC_ROUNDTRIP
360
48A
  0
DICTIONARY
  5
48B
330
319
100
AcDbDictionary
280
     1
281
     1
  3
ACAD_XREC_ROUNDTRIP
360
48C
  0
DICTIONARY
  5
47D
330
2D2
100
AcDbDictionary
280
     1
281
     1
  3
ACAD_XREC_ROUNDTRIP
360
47E
  0
DICTIONARY
  5
485
330
316
100
AcDbDictionary
280
     1
281
     1
  3
ACAD_XREC_ROUNDTRIP
360
486
  0
DICTIONARY
  5
48D
330
31A
100
AcDbDictionary
280
     1
281
     1
  3
ACAD_XREC_ROUNDTRIP
360
48E
  0
XRECORD
  5
461
102
{ACAD_REACTORS
330
460
102
}
330
460
100
AcDbXrecord
280
     1
102
SHADEPLOT
 70
     0
102
SHADEPLOTRESLEVEL
 70
     2
102
SHADEPLOTCUSTOMDPI
 70
   300
  0
XRECORD
  5
45F
102
{ACAD_REACTORS
330
45E
102
}
330
45E
100
AcDbXrecord
280
     1
102
SHADEPLOT
 70
     0
102
SHADEPLOTRESLEVEL
 70
     2
102
SHADEPLOTCUSTOMDPI
 70
   300
  0
XRECORD
  5
465
102
{ACAD_REACTORS
330
28A
102
}
330
28A
100
AcDbXrecord
280
     1
102
MATERIAL
148
0.0
149
0.0
149
0.0
 93
        0
 94
      127
282
     0
 72
     0
 77
     0
171
     0
175
     0
179
     0
273
     0
  0
XRECORD
  5
28B
102
{ACAD_REACTORS
330
28A
102
}
330
28A
100
AcDbXrecord
280
     1
270
     1
271
     1
  0
XRECORD
  5
28C
102
{ACAD_REACTORS
330
28A
102
}
330
28A
100
AcDbXrecord
280
     1
270
     1
271
     1
  0
XRECORD
  5
28D
102
{ACAD_REACTORS
330
28A
102
}
330
28A
100
AcDbXrecord
280
     1
270
     1
271
     1
  0
XRECORD
  5
28E
102
{ACAD_REACTORS
330
28A
102
}
330
28A
100
AcDbXrecord
280
     1
270
     1
271
     1
  0
XRECORD
  5
28F
102
{ACAD_REACTORS
330
28A
102
}
330
28A
100
AcDbXrecord
280
     1
270
     1
271
     1
  0
XRECORD
  5
290
102
{ACAD_REACTORS
330
28A
102
}
330
28A
100
AcDbXrecord
280
     1
270
     1
271
     1
  0
XRECORD
  5
464
102
{ACAD_REACTORS
330
282
102
}
330
282
100
AcDbXrecord
280
     1
102
MATERIAL
148
0.0
149
0.0
149
0.0
 93
        0
 94
      127
282
     0
 72
     0
 77
     0
171
     0
175
     0
179
     0
273
     0
  0
XRECORD
  5
283
102
{ACAD_REACTORS
330
282
102
}
330
282
100
AcDbXrecord
280
     1
270
     1
271
     1
  0
XRECORD
  5
284
102
{ACAD_REACTORS
330
282
102
}
330
282
100
AcDbXrecord
280
     1
270
     1
271
     1
  0
XRECORD
  5
285
102
{ACAD_REACTORS
330
282
102
}
330
282
100
AcDbXrecord
280
     1
270
     1
271
     1
  0
XRECORD
  5
286
102
{ACAD_REACTORS
330
282
102
}
330
282
100
AcDbXrecord
280
     1
270
     1
271
     1
  0
XRECORD
  5
287
102
{ACAD_REACTORS
330
282
102
}
330
282
100
AcDbXrecord
280
     1
270
     1
271
     1
  0
XRECORD
  5
288
102
{ACAD_REACTORS
330
282
102
}
330
282
100
AcDbXrecord
280
     1
270
     1
271
     1
  0
XRECORD
  5
45D
102
{ACAD_REACTORS
330
D
102
}
330
D
100
AcDbXrecord
280
     1
102
MATERIAL
148
0.0
149
0.0
149
0.0
 93
        0
 94
      127
282
     0
 72
     0
 77
     0
171
     0
175
     0
179
     0
273
     0
  0
XRECORD
  5
E
102
{ACAD_REACTORS
330
D
102
}
330
D
100
AcDbXrecord
280
     1
270
     1
271
     1
  0
XRECORD
  5
F
102
{ACAD_REACTORS
330
D
102
}
330
D
100
AcDbXrecord
280
     1
270
     1
271
     1
  0
XRECORD
  5
10
102
{ACAD_REACTORS
330
D
102
}
330
D
100
AcDbXrecord
280
     1
270
     1
271
     1
  0
XRECORD
  5
11
102
{ACAD_REACTORS
330
D
102
}
330
D
100
AcDbXrecord
280
     1
270
     1
271
     1
  0
XRECORD
  5
12
102
{ACAD_REACTORS
330
D
102
}
330
D
100
AcDbXrecord
280
     1
270
     1
271
     1
  0
XRECORD
  5
13
102
{ACAD_REACTORS
330
D
102
}
330
D
100
AcDbXrecord
280
     1
270
     1
271
     1
  0
XRECORD
  5
45A
102
{ACAD_REACTORS
330
459
102
}
330
459
100
AcDbXrecord
280
     1
102
ACAD_ROUNDTRIP_2012_MLEADER_STYLE
298
     1
  0
CELLSTYLEMAP
  5
458
102
{ACAD_REACTORS
330
2A3
102
}
330
2A3
100
AcDbCellStyleMap
 90
        3
300
CELLSTYLE
  1
TABLEFORMAT_BEGIN
 90
        5
170
     1
 91
        0
 92
    32768
 62
   257
 93
        1
300
CONTENTFORMAT
  1
CONTENTFORMAT_BEGIN
 90
        0
 91
        0
 92
      512
 93
        0
300

 40
0.0
140
1.0
 94
        5
 62
     0
340
85
144
0.25
309
CONTENTFORMAT_END
171
     1
301
MARGIN
  1
CELLMARGIN_BEGIN
 40
0.06
 40
0.06
 40
0.06
 40
0.06
 40
0.18
 40
0.18
309
CELLMARGIN_END
 94
        6
 95
        1
302
GRIDFORMAT
  1
GRIDFORMAT_BEGIN
 90
        0
 91
        1
 62
     0
 92
       -2
340
0
 93
        0
 40
0.045
309
GRIDFORMAT_END
 95
        2
302
GRIDFORMAT
  1
GRIDFORMAT_BEGIN
 90
        0
 91
        1
 62
     0
 92
       -2
340
0
 93
        0
 40
0.045
309
GRIDFORMAT_END
 95
        4
302
GRIDFORMAT
  1
GRIDFORMAT_BEGIN
 90
        0
 91
        1
 62
     0
 92
       -2
340
0
 93
        0
 40
0.045
309
GRIDFORMAT_END
 95
        8
302
GRIDFORMAT
  1
GRIDFORMAT_BEGIN
 90
        0
 91
        1
 62
     0
 92
       -2
340
0
 93
        0
 40
0.045
309
GRIDFORMAT_END
 95
       16
302
GRIDFORMAT
  1
GRIDFORMAT_BEGIN
 90
        0
 91
        1
 62
     0
 92
       -2
340
0
 93
        0
 40
0.045
309
GRIDFORMAT_END
 95
       32
302
GRIDFORMAT
  1
GRIDFORMAT_BEGIN
 90
        0
 91
        1
 62
     0
 92
       -2
340
0
 93
        0
 40
0.045
309
GRIDFORMAT_END
309
TABLEFORMAT_END
  1
CELLSTYLE_BEGIN
 90
        1
 91
        1
300
_TITLE
309
CELLSTYLE_END
300
CELLSTYLE
  1
TABLEFORMAT_BEGIN
 90
        5
170
     1
 91
        0
 92
        0
 62
   257
 93
        1
300
CONTENTFORMAT
  1
CONTENTFORMAT_BEGIN
 90
        0
 91
        0
 92
      512
 93
        0
300

 40
0.0
140
1.0
 94
        5
 62
     0
340
85
144
0.18
309
CONTENTFORMAT_END
171
     1
301
MARGIN
  1
CELLMARGIN_BEGIN
 40
0.06
 40
0.06
 40
0.06
 40
0.06
 40
0.18
 40
0.18
309
CELLMARGIN_END
 94
        6
 95
        1
302
GRIDFORMAT
  1
GRIDFORMAT_BEGIN
 90
        0
 91
        1
 62
     0
 92
       -2
340
0
 93
        0
 40
0.045
309
GRIDFORMAT_END
 95
        2
302
GRIDFORMAT
  1
GRIDFORMAT_BEGIN
 90
        0
 91
        1
 62
     0
 92
       -2
340
0
 93
        0
 40
0.045
309
GRIDFORMAT_END
 95
        4
302
GRIDFORMAT
  1
GRIDFORMAT_BEGIN
 90
        0
 91
        1
 62
     0
 92
       -2
340
0
 93
        0
 40
0.045
309
GRIDFORMAT_END
 95
        8
302
GRIDFORMAT
  1
GRIDFORMAT_BEGIN
 90
        0
 91
        1
 62
     0
 92
       -2
340
0
 93
        0
 40
0.045
309
GRIDFORMAT_END
 95
       16
302
GRIDFORMAT
  1
GRIDFORMAT_BEGIN
 90
        0
 91
        1
 62
     0
 92
       -2
340
0
 93
        0
 40
0.045
309
GRIDFORMAT_END
 95
       32
302
GRIDFORMAT
  1
GRIDFORMAT_BEGIN
 90
        0
 91
        1
 62
     0
 92
       -2
340
0
 93
        0
 40
0.045
309
GRIDFORMAT_END
309
TABLEFORMAT_END
  1
CELLSTYLE_BEGIN
 90
        2
 91
        1
300
_HEADER
309
CELLSTYLE_END
300
CELLSTYLE
  1
TABLEFORMAT_BEGIN
 90
        5
170
     1
 91
        0
 92
        0
 62
   257
 93
        1
300
CONTENTFORMAT
  1
CONTENTFORMAT_BEGIN
 90
        0
 91
        0
 92
      512
 93
        0
300

 40
0.0
140
1.0
 94
        2
 62
     0
340
85
144
0.18
309
CONTENTFORMAT_END
171
     1
301
MARGIN
  1
CELLMARGIN_BEGIN
 40
0.06
 40
0.06
 40
0.06
 40
0.06
 40
0.18
 40
0.18
309
CELLMARGIN_END
 94
        6
 95
        1
302
GRIDFORMAT
  1
GRIDFORMAT_BEGIN
 90
        0
 91
        1
 62
     0
 92
       -2
340
0
 93
        0
 40
0.045
309
GRIDFORMAT_END
 95
        2
302
GRIDFORMAT
  1
GRIDFORMAT_BEGIN
 90
        0
 91
        1
 62
     0
 92
       -2
340
0
 93
        0
 40
0.045
309
GRIDFORMAT_END
 95
        4
302
GRIDFORMAT
  1
GRIDFORMAT_BEGIN
 90
        0
 91
        1
 62
     0
 92
       -2
340
0
 93
        0
 40
0.045
309
GRIDFORMAT_END
 95
        8
302
GRIDFORMAT
  1
GRIDFORMAT_BEGIN
 90
        0
 91
        1
 62
     0
 92
       -2
340
0
 93
        0
 40
0.045
309
GRIDFORMAT_END
 95
       16
302
GRIDFORMAT
  1
GRIDFORMAT_BEGIN
 90
        0
 91
        1
 62
     0
 92
       -2
340
0
 93
        0
 40
0.045
309
GRIDFORMAT_END
 95
       32
302
GRIDFORMAT
  1
GRIDFORMAT_BEGIN
 90
        0
 91
        1
 62
     0
 92
       -2
340
0
 93
        0
 40
0.045
309
GRIDFORMAT_END
309
TABLEFORMAT_END
  1
CELLSTYLE_BEGIN
 90
        3
 91
        2
300
_DATA
309
CELLSTYLE_END
  0
XRECORD
  5
466
102
{ACAD_REACTORS
330
2A3
102
}
330
2A3
100
AcDbXrecord
280
     1
102
ACAD_ROUNDTRIP_PRE2007_TABLESTYLE
 90
      512
 91
        0
  1

 92
      512
 93
        0
  2

 94
      512
 95
        0
  3

  0
XRECORD
  5
463
102
{ACAD_REACTORS
330
462
102
}
330
462
100
AcDbXrecord
280
     1
102
RTVSPropertyOp0
 70
     1
102
RTVSPropertyOp1
 70
     1
102
RTVSPropertyOp2
 70
     1
102
RTVSPropertyOp3
 70
     1
102
RTVSPropertyOp4
 70
     1
102
RTVSPropertyOp5
 70
     1
102
RTVSPropertyOp6
 70
     1
102
RTVSPropertyOp7
 70
     1
102
RTVSPropertyOp8
 70
     1
102
RTVSPropertyOp9
 70
     1
102
RTVSPropertyOp10
 70
     1
102
RTVSPropertyOp11
 70
     1
102
RTVSPropertyOp12
 70
     1
102
RTVSPropertyOp13
 70
     1
102
RTVSPropertyOp14
 70
     1
102
RTVSPropertyOp15
 70
     1
102
RTVSPropertyOp16
 70
     1
102
RTVSPropertyOp17
 70
     1
102
RTVSPropertyOp18
 70
     1
102
RTVSPropertyOp19
 70
     1
102
RTVSPropertyOp20
 70
     1
102
RTVSPropertyOp21
 70
     1
102
RTVSPropertyOp22
 70
     1
102
RTVSPropertyOp23
 70
     1
102
RTVSPropertyOp24
 70
     1
102
RTVSPropertyOp25
 70
     1
102
RTVSPropertyOp26
 70
     1
102
RTVSPropertyOp27
 70
     1
102
RTVSPropertyOp28
 70
     1
102
RTVSPropertyOp29
 70
     1
102
RTVSPropertyOp30
 70
     1
102
RTVSPropertyOp31
 70
     1
102
RTVSPropertyOp32
 70
     1
  0
XRECORD
  5
476
102
{ACAD_REACTORS
330
475
102
}
330
475
100
AcDbXrecord
280
     1
102
RTVSPropertyOp0
 70
     1
102
RTVSPropertyOp1
 70
     1
102
RTVSPropertyOp2
 70
     1
102
RTVSPropertyOp3
 70
     1
102
RTVSPropertyOp4
 70
     1
102
RTVSPropertyOp5
 70
     1
102
RTVSPropertyOp6
 70
     1
102
RTVSPropertyOp7
 70
     1
102
RTVSPropertyOp8
 70
     1
102
RTVSPropertyOp9
 70
     1
102
RTVSPropertyOp10
 70
     1
102
RTVSPropertyOp11
 70
     1
102
RTVSPropertyOp12
 70
     1
102
RTVSPropertyOp13
 70
     1
102
RTVSPropertyOp14
 70
     1
102
RTVSPropertyOp15
 70
     1
102
RTVSPropertyOp16
 70
     1
102
RTVSPropertyOp17
 70
     1
102
RTVSPropertyOp18
 70
     1
102
RTVSPropertyOp19
 70
     1
102
RTVSPropertyOp20
 70
     1
102
RTVSPropertyOp21
 70
     1
102
RTVSPropertyOp22
 70
     1
102
RTVSPropertyOp23
 70
     1
102
RTVSPropertyOp24
 70
     1
102
RTVSPropertyOp25
 70
     1
102
RTVSPropertyOp26
 70
     1
102
RTVSPropertyOp27
 70
     1
102
RTVSPropertyOp28
 70
     1
102
RTVSPropertyOp29
 70
     1
102
RTVSPropertyOp30
 70
     1
102
RTVSPropertyOp31
 70
     1
102
RTVSPropertyOp32
 70
     1
  0
XRECORD
  5
46A
102
{ACAD_REACTORS
330
469
102
}
330
469
100
AcDbXrecord
280
     1
102
RTVSPropertyOp0
 70
     1
102
RTVSPropertyOp1
 70
     1
102
RTVSPropertyOp2
 70
     1
102
RTVSPropertyOp3
 70
     1
102
RTVSPropertyOp4
 70
     1
102
RTVSPropertyOp5
 70
     1
102
RTVSPropertyOp6
 70
     1
102
RTVSPropertyOp7
 70
     1
102
RTVSPropertyOp8
 70
     1
102
RTVSPropertyOp9
 70
     1
102
RTVSPropertyOp10
 70
     1
102
RTVSPropertyOp11
 70
     1
102
RTVSPropertyOp12
 70
     1
102
RTVSPropertyOp13
 70
     1
102
RTVSPropertyOp14
 70
     1
102
RTVSPropertyOp15
 70
     1
102
RTVSPropertyOp16
 70
     1
102
RTVSPropertyOp17
 70
     1
102
RTVSPropertyOp18
 70
     1
102
RTVSPropertyOp19
 70
     1
102
RTVSPropertyOp20
 70
     1
102
RTVSPropertyOp21
 70
     1
102
RTVSPropertyOp22
 70
     1
102
RTVSPropertyOp23
 70
     1
102
RTVSPropertyOp24
 70
     1
102
RTVSPropertyOp25
 70
     1
102
RTVSPropertyOp26
 70
     1
102
RTVSPropertyOp27
 70
     1
102
RTVSPropertyOp28
 70
     1
102
RTVSPropertyOp29
 70
     1
102
RTVSPropertyOp30
 70
     1
102
RTVSPropertyOp31
 70
     1
102
RTVSPropertyOp32
 70
     1
  0
XRECORD
  5
474
102
{ACAD_REACTORS
330
473
102
}
330
473
100
AcDbXrecord
280
     1
102
RTVSPropertyOp0
 70
     1
102
RTVSPropertyOp1
 70
     1
102
RTVSPropertyOp2
 70
     1
102
RTVSPropertyOp3
 70
     1
102
RTVSPropertyOp4
 70
     1
102
RTVSPropertyOp5
 70
     1
102
RTVSPropertyOp6
 70
     1
102
RTVSPropertyOp7
 70
     1
102
RTVSPropertyOp8
 70
     1
102
RTVSPropertyOp9
 70
     1
102
RTVSPropertyOp10
 70
     1
102
RTVSPropertyOp11
 70
     1
102
RTVSPropertyOp12
 70
     1
102
RTVSPropertyOp13
 70
     1
102
RTVSPropertyOp14
 70
     1
102
RTVSPropertyOp15
 70
     1
102
RTVSPropertyOp16
 70
     1
102
RTVSPropertyOp17
 70
     1
102
RTVSPropertyOp18
 70
     1
102
RTVSPropertyOp19
 70
     1
102
RTVSPropertyOp20
 70
     1
102
RTVSPropertyOp21
 70
     1
102
RTVSPropertyOp22
 70
     1
102
RTVSPropertyOp23
 70
     1
102
RTVSPropertyOp24
 70
     1
102
RTVSPropertyOp25
 70
     1
102
RTVSPropertyOp26
 70
     1
102
RTVSPropertyOp27
 70
     1
102
RTVSPropertyOp28
 70
     1
102
RTVSPropertyOp29
 70
     1
102
RTVSPropertyOp30
 70
     1
102
RTVSPropertyOp31
 70
     1
102
RTVSPropertyOp32
 70
     1
  0
XRECORD
  5
47C
102
{ACAD_REACTORS
330
47B
102
}
330
47B
100
AcDbXrecord
280
     1
102
RTVSPropertyOp0
 70
     1
102
RTVSPropertyOp1
 70
     1
102
RTVSPropertyOp2
 70
     1
102
RTVSPropertyOp3
 70
     1
102
RTVSPropertyOp4
 70
     1
102
RTVSPropertyOp5
 70
     1
102
RTVSPropertyOp6
 70
     1
102
RTVSPropertyOp7
 70
     1
102
RTVSPropertyOp8
 70
     1
102
RTVSPropertyOp9
 70
     1
102
RTVSPropertyOp10
 70
     1
102
RTVSPropertyOp11
 70
     1
102
RTVSPropertyOp12
 70
     1
102
RTVSPropertyOp13
 70
     1
102
RTVSPropertyOp14
 70
     1
102
RTVSPropertyOp15
 70
     1
102
RTVSPropertyOp16
 70
     1
102
RTVSPropertyOp17
 70
     1
102
RTVSPropertyOp18
 70
     1
102
RTVSPropertyOp19
 70
     1
102
RTVSPropertyOp20
 70
     1
102
RTVSPropertyOp21
 70
     1
102
RTVSPropertyOp22
 70
     1
102
RTVSPropertyOp23
 70
     1
102
RTVSPropertyOp24
 70
     1
102
RTVSPropertyOp25
 70
     1
102
RTVSPropertyOp26
 70
     1
102
RTVSPropertyOp27
 70
     1
102
RTVSPropertyOp28
 70
     1
102
RTVSPropertyOp29
 70
     1
102
RTVSPropertyOp30
 70
     1
102
RTVSPropertyOp31
 70
     1
102
RTVSPropertyOp32
 70
     1
  0
XRECORD
  5
484
102
{ACAD_REACTORS
330
483
102
}
330
483
100
AcDbXrecord
280
     1
102
RTVSPropertyOp0
 70
     1
102
RTVSPropertyOp1
 70
     1
102
RTVSPropertyOp2
 70
     1
102
RTVSPropertyOp3
 70
     1
102
RTVSPropertyOp4
 70
     1
102
RTVSPropertyOp5
 70
     1
102
RTVSPropertyOp6
 70
     1
102
RTVSPropertyOp7
 70
     1
102
RTVSPropertyOp8
 70
     1
102
RTVSPropertyOp9
 70
     1
102
RTVSPropertyOp10
 70
     1
102
RTVSPropertyOp11
 70
     1
102
RTVSPropertyOp12
 70
     1
102
RTVSPropertyOp13
 70
     1
102
RTVSPropertyOp14
 70
     1
102
RTVSPropertyOp15
 70
     1
102
RTVSPropertyOp16
 70
     1
102
RTVSPropertyOp17
 70
     1
102
RTVSPropertyOp18
 70
     1
102
RTVSPropertyOp19
 70
     1
102
RTVSPropertyOp20
 70
     1
102
RTVSPropertyOp21
 70
     1
102
RTVSPropertyOp22
 70
     1
102
RTVSPropertyOp23
 70
     1
102
RTVSPropertyOp24
 70
     1
102
RTVSPropertyOp25
 70
     1
102
RTVSPropertyOp26
 70
     1
102
RTVSPropertyOp27
 70
     1
102
RTVSPropertyOp28
 70
     1
102
RTVSPropertyOp29
 70
     1
102
RTVSPropertyOp30
 70
     1
102
RTVSPropertyOp31
 70
     1
102
RTVSPropertyOp32
 70
     1
  0
XRECORD
  5
478
102
{ACAD_REACTORS
330
477
102
}
330
477
100
AcDbXrecord
280
     1
102
RTVSPropertyOp0
 70
     1
102
RTVSPropertyOp1
 70
     1
102
RTVSPropertyOp2
 70
     1
102
RTVSPropertyOp3
 70
     1
102
RTVSPropertyOp4
 70
     1
102
RTVSPropertyOp5
 70
     1
102
RTVSPropertyOp6
 70
     1
102
RTVSPropertyOp7
 70
     1
102
RTVSPropertyOp8
 70
     1
102
RTVSPropertyOp9
 70
     1
102
RTVSPropertyOp10
 70
     1
102
RTVSPropertyOp11
 70
     1
102
RTVSPropertyOp12
 70
     1
102
RTVSPropertyOp13
 70
     1
102
RTVSPropertyOp14
 70
     1
102
RTVSPropertyOp15
 70
     1
102
RTVSPropertyOp16
 70
     1
102
RTVSPropertyOp17
 70
     1
102
RTVSPropertyOp18
 70
     1
102
RTVSPropertyOp19
 70
     1
102
RTVSPropertyOp20
 70
     1
102
RTVSPropertyOp21
 70
     1
102
RTVSPropertyOp22
 70
     1
102
RTVSPropertyOp23
 70
     1
102
RTVSPropertyOp24
 70
     1
102
RTVSPropertyOp25
 70
     1
102
RTVSPropertyOp26
 70
     1
102
RTVSPropertyOp27
 70
     1
102
RTVSPropertyOp28
 70
     1
102
RTVSPropertyOp29
 70
     1
102
RTVSPropertyOp30
 70
     1
102
RTVSPropertyOp31
 70
     1
102
RTVSPropertyOp32
 70
     1
  0
XRECORD
  5
47A
102
{ACAD_REACTORS
330
479
102
}
330
479
100
AcDbXrecord
280
     1
102
RTVSPropertyOp0
 70
     1
102
RTVSPropertyOp1
 70
     1
102
RTVSPropertyOp2
 70
     1
102
RTVSPropertyOp3
 70
     1
102
RTVSPropertyOp4
 70
     1
102
RTVSPropertyOp5
 70
     1
102
RTVSPropertyOp6
 70
     1
102
RTVSPropertyOp7
 70
     1
102
RTVSPropertyOp8
 70
     1
102
RTVSPropertyOp9
 70
     1
102
RTVSPropertyOp10
 70
     1
102
RTVSPropertyOp11
 70
     1
102
RTVSPropertyOp12
 70
     1
102
RTVSPropertyOp13
 70
     1
102
RTVSPropertyOp14
 70
     1
102
RTVSPropertyOp15
 70
     1
102
RTVSPropertyOp16
 70
     1
102
RTVSPropertyOp17
 70
     1
102
RTVSPropertyOp18
 70
     1
102
RTVSPropertyOp19
 70
     1
102
RTVSPropertyOp20
 70
     1
102
RTVSPropertyOp21
 70
     1
102
RTVSPropertyOp22
 70
     1
102
RTVSPropertyOp23
 70
     1
102
RTVSPropertyOp24
 70
     1
102
RTVSPropertyOp25
 70
     1
102
RTVSPropertyOp26
 70
     1
102
RTVSPropertyOp27
 70
     1
102
RTVSPropertyOp28
 70
     1
102
RTVSPropertyOp29
 70
     1
102
RTVSPropertyOp30
 70
     1
102
RTVSPropertyOp31
 70
     1
102
RTVSPropertyOp32
 70
     1
  0
XRECORD
  5
498
102
{ACAD_REACTORS
330
497
102
}
330
497
100
AcDbXrecord
280
     1
102
RTVSPropertyOp0
 70
     0
102
RTVSPropertyOp1
 70
     0
102
RTVSPropertyOp2
 70
     0
102
RTVSPropertyOp3
 70
     0
102
RTVSPropertyOp4
 70
     0
102
RTVSPropertyOp5
 70
     0
102
RTVSPropertyOp6
 70
     0
102
RTVSPropertyOp7
 70
     0
102
RTVSPropertyOp8
 70
     0
102
RTVSPropertyOp9
 70
     0
102
RTVSPropertyOp10
 70
     0
102
RTVSPropertyOp11
 70
     0
102
RTVSPropertyOp12
 70
     0
102
RTVSPropertyOp13
 70
     0
102
RTVSPropertyOp14
 70
     2
102
RTVSPropertyOp15
 70
     0
102
RTVSPropertyOp16
 70
     0
102
RTVSPropertyOp17
 70
     0
102
RTVSPropertyOp18
 70
     0
102
RTVSPropertyOp19
 70
     0
102
RTVSPropertyOp20
 70
     0
102
RTVSPropertyOp21
 70
     0
102
RTVSPropertyOp22
 70
     0
102
RTVSPropertyOp23
 70
     0
102
RTVSPropertyOp24
 70
     0
102
RTVSPropertyOp25
 70
     0
102
RTVSPropertyOp26
 70
     0
102
RTVSPropertyOp27
 70
     0
102
RTVSPropertyOp28
 70
     0
102
RTVSPropertyOp29
 70
     0
102
RTVSPropertyOp30
 70
     0
102
RTVSPropertyOp31
 70
     0
102
RTVSPropertyOp32
 70
     0
  0
XRECORD
  5
482
102
{ACAD_REACTORS
330
481
102
}
330
481
100
AcDbXrecord
280
     1
102
RTVSPropertyOp0
 70
     1
102
RTVSPropertyOp1
 70
     1
102
RTVSPropertyOp2
 70
     1
102
RTVSPropertyOp3
 70
     1
102
RTVSPropertyOp4
 70
     1
102
RTVSPropertyOp5
 70
     1
102
RTVSPropertyOp6
 70
     1
102
RTVSPropertyOp7
 70
     1
102
RTVSPropertyOp8
 70
     1
102
RTVSPropertyOp9
 70
     1
102
RTVSPropertyOp10
 70
     1
102
RTVSPropertyOp11
 70
     1
102
RTVSPropertyOp12
 70
     1
102
RTVSPropertyOp13
 70
     1
102
RTVSPropertyOp14
 70
     1
102
RTVSPropertyOp15
 70
     1
102
RTVSPropertyOp16
 70
     1
102
RTVSPropertyOp17
 70
     1
102
RTVSPropertyOp18
 70
     1
102
RTVSPropertyOp19
 70
     1
102
RTVSPropertyOp20
 70
     1
102
RTVSPropertyOp21
 70
     1
102
RTVSPropertyOp22
 70
     1
102
RTVSPropertyOp23
 70
     1
102
RTVSPropertyOp24
 70
     1
102
RTVSPropertyOp25
 70
     1
102
RTVSPropertyOp26
 70
     1
102
RTVSPropertyOp27
 70
     1
102
RTVSPropertyOp28
 70
     1
102
RTVSPropertyOp29
 70
     1
102
RTVSPropertyOp30
 70
     1
102
RTVSPropertyOp31
 70
     1
102
RTVSPropertyOp32
 70
     1
  0
XRECORD
  5
46C
102
{ACAD_REACTORS
330
46B
102
}
330
46B
100
AcDbXrecord
280
     1
102
RTVSPropertyOp0
 70
     1
102
RTVSPropertyOp1
 70
     1
102
RTVSPropertyOp2
 70
     1
102
RTVSPropertyOp3
 70
     1
102
RTVSPropertyOp4
 70
     1
102
RTVSPropertyOp5
 70
     1
102
RTVSPropertyOp6
 70
     1
102
RTVSPropertyOp7
 70
     1
102
RTVSPropertyOp8
 70
     1
102
RTVSPropertyOp9
 70
     1
102
RTVSPropertyOp10
 70
     1
102
RTVSPropertyOp11
 70
     1
102
RTVSPropertyOp12
 70
     1
102
RTVSPropertyOp13
 70
     1
102
RTVSPropertyOp14
 70
     1
102
RTVSPropertyOp15
 70
     1
102
RTVSPropertyOp16
 70
     1
102
RTVSPropertyOp17
 70
     1
102
RTVSPropertyOp18
 70
     1
102
RTVSPropertyOp19
 70
     1
102
RTVSPropertyOp20
 70
     1
102
RTVSPropertyOp21
 70
     1
102
RTVSPropertyOp22
 70
     1
102
RTVSPropertyOp23
 70
     1
102
RTVSPropertyOp24
 70
     1
102
RTVSPropertyOp25
 70
     1
102
RTVSPropertyOp26
 70
     1
102
RTVSPropertyOp27
 70
     1
102
RTVSPropertyOp28
 70
     1
102
RTVSPropertyOp29
 70
     1
102
RTVSPropertyOp30
 70
     1
102
RTVSPropertyOp31
 70
     1
102
RTVSPropertyOp32
 70
     1
  0
XRECORD
  5
46E
102
{ACAD_REACTORS
330
46D
102
}
330
46D
100
AcDbXrecord
280
     1
102
RTVSPropertyOp0
 70
     1
102
RTVSPropertyOp1
 70
     1
102
RTVSPropertyOp2
 70
     1
102
RTVSPropertyOp3
 70
     1
102
RTVSPropertyOp4
 70
     1
102
RTVSPropertyOp5
 70
     1
102
RTVSPropertyOp6
 70
     1
102
RTVSPropertyOp7
 70
     1
102
RTVSPropertyOp8
 70
     1
102
RTVSPropertyOp9
 70
     1
102
RTVSPropertyOp10
 70
     1
102
RTVSPropertyOp11
 70
     1
102
RTVSPropertyOp12
 70
     1
102
RTVSPropertyOp13
 70
     1
102
RTVSPropertyOp14
 70
     1
102
RTVSPropertyOp15
 70
     1
102
RTVSPropertyOp16
 70
     1
102
RTVSPropertyOp17
 70
     1
102
RTVSPropertyOp18
 70
     1
102
RTVSPropertyOp19
 70
     1
102
RTVSPropertyOp20
 70
     1
102
RTVSPropertyOp21
 70
     1
102
RTVSPropertyOp22
 70
     1
102
RTVSPropertyOp23
 70
     1
102
RTVSPropertyOp24
 70
     1
102
RTVSPropertyOp25
 70
     1
102
RTVSPropertyOp26
 70
     1
102
RTVSPropertyOp27
 70
     1
102
RTVSPropertyOp28
 70
     1
102
RTVSPropertyOp29
 70
     1
102
RTVSPropertyOp30
 70
     1
102
RTVSPropertyOp31
 70
     1
102
RTVSPropertyOp32
 70
     1
  0
XRECORD
  5
470
102
{ACAD_REACTORS
330
46F
102
}
330
46F
100
AcDbXrecord
280
     1
102
RTVSPropertyOp0
 70
     1
102
RTVSPropertyOp1
 70
     1
102
RTVSPropertyOp2
 70
     1
102
RTVSPropertyOp3
 70
     1
102
RTVSPropertyOp4
 70
     1
102
RTVSPropertyOp5
 70
     1
102
RTVSPropertyOp6
 70
     1
102
RTVSPropertyOp7
 70
     1
102
RTVSPropertyOp8
 70
     1
102
RTVSPropertyOp9
 70
     1
102
RTVSPropertyOp10
 70
     1
102
RTVSPropertyOp11
 70
     1
102
RTVSPropertyOp12
 70
     1
102
RTVSPropertyOp13
 70
     1
102
RTVSPropertyOp14
 70
     1
102
RTVSPropertyOp15
 70
     1
102
RTVSPropertyOp16
 70
     1
102
RTVSPropertyOp17
 70
     1
102
RTVSPropertyOp18
 70
     1
102
RTVSPropertyOp19
 70
     1
102
RTVSPropertyOp20
 70
     1
102
RTVSPropertyOp21
 70
     1
102
RTVSPropertyOp22
 70
     1
102
RTVSPropertyOp23
 70
     1
102
RTVSPropertyOp24
 70
     1
102
RTVSPropertyOp25
 70
     1
102
RTVSPropertyOp26
 70
     1
102
RTVSPropertyOp27
 70
     1
102
RTVSPropertyOp28
 70
     1
102
RTVSPropertyOp29
 70
     1
102
RTVSPropertyOp30
 70
     1
102
RTVSPropertyOp31
 70
     1
102
RTVSPropertyOp32
 70
     1
  0
XRECORD
  5
472
102
{ACAD_REACTORS
330
471
102
}
330
471
100
AcDbXrecord
280
     1
102
RTVSPropertyOp0
 70
     1
102
RTVSPropertyOp1
 70
     1
102
RTVSPropertyOp2
 70
     1
102
RTVSPropertyOp3
 70
     1
102
RTVSPropertyOp4
 70
     1
102
RTVSPropertyOp5
 70
     1
102
RTVSPropertyOp6
 70
     1
102
RTVSPropertyOp7
 70
     1
102
RTVSPropertyOp8
 70
     1
102
RTVSPropertyOp9
 70
     1
102
RTVSPropertyOp10
 70
     1
102
RTVSPropertyOp11
 70
     1
102
RTVSPropertyOp12
 70
     1
102
RTVSPropertyOp13
 70
     1
102
RTVSPropertyOp14
 70
     1
102
RTVSPropertyOp15
 70
     1
102
RTVSPropertyOp16
 70
     1
102
RTVSPropertyOp17
 70
     1
102
RTVSPropertyOp18
 70
     1
102
RTVSPropertyOp19
 70
     1
102
RTVSPropertyOp20
 70
     1
102
RTVSPropertyOp21
 70
     1
102
RTVSPropertyOp22
 70
     1
102
RTVSPropertyOp23
 70
     1
102
RTVSPropertyOp24
 70
     1
102
RTVSPropertyOp25
 70
     1
102
RTVSPropertyOp26
 70
     1
102
RTVSPropertyOp27
 70
     1
102
RTVSPropertyOp28
 70
     1
102
RTVSPropertyOp29
 70
     1
102
RTVSPropertyOp30
 70
     1
102
RTVSPropertyOp31
 70
     1
102
RTVSPropertyOp32
 70
     1
  0
XRECORD
  5
488
102
{ACAD_REACTORS
330
487
102
}
330
487
100
AcDbXrecord
280
     1
102
RTVSPropertyOp0
 70
     1
102
RTVSPropertyOp1
 70
     1
102
RTVSPropertyOp2
 70
     1
102
RTVSPropertyOp3
 70
     1
102
RTVSPropertyOp4
 70
     1
102
RTVSPropertyOp5
 70
     1
102
RTVSPropertyOp6
 70
     1
102
RTVSPropertyOp7
 70
     1
102
RTVSPropertyOp8
 70
     1
102
RTVSPropertyOp9
 70
     1
102
RTVSPropertyOp10
 70
     1
102
RTVSPropertyOp11
 70
     1
102
RTVSPropertyOp12
 70
     1
102
RTVSPropertyOp13
 70
     1
102
RTVSPropertyOp14
 70
     1
102
RTVSPropertyOp15
 70
     1
102
RTVSPropertyOp16
 70
     1
102
RTVSPropertyOp17
 70
     1
102
RTVSPropertyOp18
 70
     1
102
RTVSPropertyOp19
 70
     1
102
RTVSPropertyOp20
 70
     1
102
RTVSPropertyOp21
 70
     1
102
RTVSPropertyOp22
 70
     1
102
RTVSPropertyOp23
 70
     1
102
RTVSPropertyOp24
 70
     1
102
RTVSPropertyOp25
 70
     1
102
RTVSPropertyOp26
 70
     1
102
RTVSPropertyOp27
 70
     1
102
RTVSPropertyOp28
 70
     1
102
RTVSPropertyOp29
 70
     1
102
RTVSPropertyOp30
 70
     1
102
RTVSPropertyOp31
 70
     1
102
RTVSPropertyOp32
 70
     1
  0
XRECORD
  5
494
102
{ACAD_REACTORS
330
493
102
}
330
493
100
AcDbXrecord
280
     1
102
RTVSPropertyOp0
 70
     0
102
RTVSPropertyOp1
 70
     0
102
RTVSPropertyOp2
 70
     0
102
RTVSPropertyOp3
 70
     0
102
RTVSPropertyOp4
 70
     0
102
RTVSPropertyOp5
 70
     0
102
RTVSPropertyOp6
 70
     0
102
RTVSPropertyOp7
 70
     0
102
RTVSPropertyOp8
 70
     0
102
RTVSPropertyOp9
 70
     0
102
RTVSPropertyOp10
 70
     0
102
RTVSPropertyOp11
 70
     0
102
RTVSPropertyOp12
 70
     0
102
RTVSPropertyOp13
 70
     0
102
RTVSPropertyOp14
 70
     2
102
RTVSPropertyOp15
 70
     0
102
RTVSPropertyOp16
 70
     0
102
RTVSPropertyOp17
 70
     0
102
RTVSPropertyOp18
 70
     0
102
RTVSPropertyOp19
 70
     0
102
RTVSPropertyOp20
 70
     0
102
RTVSPropertyOp21
 70
     0
102
RTVSPropertyOp22
 70
     0
102
RTVSPropertyOp23
 70
     0
102
RTVSPropertyOp24
 70
     0
102
RTVSPropertyOp25
 70
     0
102
RTVSPropertyOp26
 70
     0
102
RTVSPropertyOp27
 70
     0
102
RTVSPropertyOp28
 70
     0
102
RTVSPropertyOp29
 70
     0
102
RTVSPropertyOp30
 70
     0
102
RTVSPropertyOp31
 70
     0
102
RTVSPropertyOp32
 70
     0
  0
XRECORD
  5
480
102
{ACAD_REACTORS
330
47F
102
}
330
47F
100
AcDbXrecord
280
     1
102
RTVSPropertyOp0
 70
     1
102
RTVSPropertyOp1
 70
     1
102
RTVSPropertyOp2
 70
     1
102
RTVSPropertyOp3
 70
     1
102
RTVSPropertyOp4
 70
     1
102
RTVSPropertyOp5
 70
     1
102
RTVSPropertyOp6
 70
     1
102
RTVSPropertyOp7
 70
     1
102
RTVSPropertyOp8
 70
     1
102
RTVSPropertyOp9
 70
     1
102
RTVSPropertyOp10
 70
     1
102
RTVSPropertyOp11
 70
     1
102
RTVSPropertyOp12
 70
     1
102
RTVSPropertyOp13
 70
     1
102
RTVSPropertyOp14
 70
     1
102
RTVSPropertyOp15
 70
     1
102
RTVSPropertyOp16
 70
     1
102
RTVSPropertyOp17
 70
     1
102
RTVSPropertyOp18
 70
     1
102
RTVSPropertyOp19
 70
     1
102
RTVSPropertyOp20
 70
     1
102
RTVSPropertyOp21
 70
     1
102
RTVSPropertyOp22
 70
     1
102
RTVSPropertyOp23
 70
     1
102
RTVSPropertyOp24
 70
     1
102
RTVSPropertyOp25
 70
     1
102
RTVSPropertyOp26
 70
     1
102
RTVSPropertyOp27
 70
     1
102
RTVSPropertyOp28
 70
     1
102
RTVSPropertyOp29
 70
     1
102
RTVSPropertyOp30
 70
     1
102
RTVSPropertyOp31
 70
     1
102
RTVSPropertyOp32
 70
     1
  0
XRECORD
  5
496
102
{ACAD_REACTORS
330
495
102
}
330
495
100
AcDbXrecord
280
     1
102
RTVSPropertyOp0
 70
     0
102
RTVSPropertyOp1
 70
     0
102
RTVSPropertyOp2
 70
     0
102
RTVSPropertyOp3
 70
     0
102
RTVSPropertyOp4
 70
     0
102
RTVSPropertyOp5
 70
     0
102
RTVSPropertyOp6
 70
     0
102
RTVSPropertyOp7
 70
     0
102
RTVSPropertyOp8
 70
     0
102
RTVSPropertyOp9
 70
     0
102
RTVSPropertyOp10
 70
     0
102
RTVSPropertyOp11
 70
     0
102
RTVSPropertyOp12
 70
     0
102
RTVSPropertyOp13
 70
     0
102
RTVSPropertyOp14
 70
     2
102
RTVSPropertyOp15
 70
     0
102
RTVSPropertyOp16
 70
     0
102
RTVSPropertyOp17
 70
     0
102
RTVSPropertyOp18
 70
     0
102
RTVSPropertyOp19
 70
     0
102
RTVSPropertyOp20
 70
     0
102
RTVSPropertyOp21
 70
     0
102
RTVSPropertyOp22
 70
     0
102
RTVSPropertyOp23
 70
     0
102
RTVSPropertyOp24
 70
     0
102
RTVSPropertyOp25
 70
     0
102
RTVSPropertyOp26
 70
     0
102
RTVSPropertyOp27
 70
     0
102
RTVSPropertyOp28
 70
     0
102
RTVSPropertyOp29
 70
     0
102
RTVSPropertyOp30
 70
     0
102
RTVSPropertyOp31
 70
     0
102
RTVSPropertyOp32
 70
     0
  0
XRECORD
  5
468
102
{ACAD_REACTORS
330
467
102
}
330
467
100
AcDbXrecord
280
     1
102
RTVSPropertyOp0
 70
     1
102
RTVSPropertyOp1
 70
     1
102
RTVSPropertyOp2
 70
     1
102
RTVSPropertyOp3
 70
     1
102
RTVSPropertyOp4
 70
     1
102
RTVSPropertyOp5
 70
     1
102
RTVSPropertyOp6
 70
     1
102
RTVSPropertyOp7
 70
     1
102
RTVSPropertyOp8
 70
     1
102
RTVSPropertyOp9
 70
     1
102
RTVSPropertyOp10
 70
     1
102
RTVSPropertyOp11
 70
     1
102
RTVSPropertyOp12
 70
     1
102
RTVSPropertyOp13
 70
     1
102
RTVSPropertyOp14
 70
     1
102
RTVSPropertyOp15
 70
     1
102
RTVSPropertyOp16
 70
     1
102
RTVSPropertyOp17
 70
     1
102
RTVSPropertyOp18
 70
     1
102
RTVSPropertyOp19
 70
     1
102
RTVSPropertyOp20
 70
     1
102
RTVSPropertyOp21
 70
     1
102
RTVSPropertyOp22
 70
     1
102
RTVSPropertyOp23
 70
     1
102
RTVSPropertyOp24
 70
     1
102
RTVSPropertyOp25
 70
     1
102
RTVSPropertyOp26
 70
     1
102
RTVSPropertyOp27
 70
     1
102
RTVSPropertyOp28
 70
     1
102
RTVSPropertyOp29
 70
     1
102
RTVSPropertyOp30
 70
     1
102
RTVSPropertyOp31
 70
     1
102
RTVSPropertyOp32
 70
     1
  0
XRECORD
  5
492
102
{ACAD_REACTORS
330
491
102
}
330
491
100
AcDbXrecord
280
     1
102
RTVSPropertyOp0
 70
     1
102
RTVSPropertyOp1
 70
     1
102
RTVSPropertyOp2
 70
     1
102
RTVSPropertyOp3
 70
     1
102
RTVSPropertyOp4
 70
     1
102
RTVSPropertyOp5
 70
     1
102
RTVSPropertyOp6
 70
     1
102
RTVSPropertyOp7
 70
     1
102
RTVSPropertyOp8
 70
     1
102
RTVSPropertyOp9
 70
     1
102
RTVSPropertyOp10
 70
     1
102
RTVSPropertyOp11
 70
     1
102
RTVSPropertyOp12
 70
     1
102
RTVSPropertyOp13
 70
     1
102
RTVSPropertyOp14
 70
     1
102
RTVSPropertyOp15
 70
     1
102
RTVSPropertyOp16
 70
     1
102
RTVSPropertyOp17
 70
     1
102
RTVSPropertyOp18
 70
     1
102
RTVSPropertyOp19
 70
     1
102
RTVSPropertyOp20
 70
     1
102
RTVSPropertyOp21
 70
     1
102
RTVSPropertyOp22
 70
     1
102
RTVSPropertyOp23
 70
     1
102
RTVSPropertyOp24
 70
     1
102
RTVSPropertyOp25
 70
     1
102
RTVSPropertyOp26
 70
     1
102
RTVSPropertyOp27
 70
     1
102
RTVSPropertyOp28
 70
     1
102
RTVSPropertyOp29
 70
     1
102
RTVSPropertyOp30
 70
     1
102
RTVSPropertyOp31
 70
     1
102
RTVSPropertyOp32
 70
     1
  0
XRECORD
  5
490
102
{ACAD_REACTORS
330
48F
102
}
330
48F
100
AcDbXrecord
280
     1
102
RTVSPropertyOp0
 70
     1
102
RTVSPropertyOp1
 70
     1
102
RTVSPropertyOp2
 70
     1
102
RTVSPropertyOp3
 70
     1
102
RTVSPropertyOp4
 70
     1
102
RTVSPropertyOp5
 70
     1
102
RTVSPropertyOp6
 70
     1
102
RTVSPropertyOp7
 70
     1
102
RTVSPropertyOp8
 70
     1
102
RTVSPropertyOp9
 70
     1
102
RTVSPropertyOp10
 70
     1
102
RTVSPropertyOp11
 70
     1
102
RTVSPropertyOp12
 70
     1
102
RTVSPropertyOp13
 70
     1
102
RTVSPropertyOp14
 70
     1
102
RTVSPropertyOp15
 70
     1
102
RTVSPropertyOp16
 70
     1
102
RTVSPropertyOp17
 70
     1
102
RTVSPropertyOp18
 70
     1
102
RTVSPropertyOp19
 70
     1
102
RTVSPropertyOp20
 70
     1
102
RTVSPropertyOp21
 70
     1
102
RTVSPropertyOp22
 70
     1
102
RTVSPropertyOp23
 70
     1
102
RTVSPropertyOp24
 70
     1
102
RTVSPropertyOp25
 70
     1
102
RTVSPropertyOp26
 70
     1
102
RTVSPropertyOp27
 70
     1
102
RTVSPropertyOp28
 70
     1
102
RTVSPropertyOp29
 70
     1
102
RTVSPropertyOp30
 70
     1
102
RTVSPropertyOp31
 70
     1
102
RTVSPropertyOp32
 70
     1
  0
XRECORD
  5
48A
102
{ACAD_REACTORS
330
489
102
}
330
489
100
AcDbXrecord
280
     1
102
RTVSPropertyOp0
 70
     1
102
RTVSPropertyOp1
 70
     1
102
RTVSPropertyOp2
 70
     1
102
RTVSPropertyOp3
 70
     1
102
RTVSPropertyOp4
 70
     1
102
RTVSPropertyOp5
 70
     1
102
RTVSPropertyOp6
 70
     1
102
RTVSPropertyOp7
 70
     1
102
RTVSPropertyOp8
 70
     1
102
RTVSPropertyOp9
 70
     1
102
RTVSPropertyOp10
 70
     1
102
RTVSPropertyOp11
 70
     1
102
RTVSPropertyOp12
 70
     1
102
RTVSPropertyOp13
 70
     1
102
RTVSPropertyOp14
 70
     1
102
RTVSPropertyOp15
 70
     1
102
RTVSPropertyOp16
 70
     1
102
RTVSPropertyOp17
 70
     1
102
RTVSPropertyOp18
 70
     1
102
RTVSPropertyOp19
 70
     1
102
RTVSPropertyOp20
 70
     1
102
RTVSPropertyOp21
 70
     1
102
RTVSPropertyOp22
 70
     1
102
RTVSPropertyOp23
 70
     1
102
RTVSPropertyOp24
 70
     1
102
RTVSPropertyOp25
 70
     1
102
RTVSPropertyOp26
 70
     1
102
RTVSPropertyOp27
 70
     1
102
RTVSPropertyOp28
 70
     1
102
RTVSPropertyOp29
 70
     1
102
RTVSPropertyOp30
 70
     1
102
RTVSPropertyOp31
 70
     1
102
RTVSPropertyOp32
 70
     1
  0
XRECORD
  5
48C
102
{ACAD_REACTORS
330
48B
102
}
330
48B
100
AcDbXrecord
280
     1
102
RTVSPropertyOp0
 70
     1
102
RTVSPropertyOp1
 70
     1
102
RTVSPropertyOp2
 70
     1
102
RTVSPropertyOp3
 70
     1
102
RTVSPropertyOp4
 70
     1
102
RTVSPropertyOp5
 70
     1
102
RTVSPropertyOp6
 70
     1
102
RTVSPropertyOp7
 70
     1
102
RTVSPropertyOp8
 70
     1
102
RTVSPropertyOp9
 70
     1
102
RTVSPropertyOp10
 70
     1
102
RTVSPropertyOp11
 70
     1
102
RTVSPropertyOp12
 70
     1
102
RTVSPropertyOp13
 70
     1
102
RTVSPropertyOp14
 70
     1
102
RTVSPropertyOp15
 70
     1
102
RTVSPropertyOp16
 70
     1
102
RTVSPropertyOp17
 70
     1
102
RTVSPropertyOp18
 70
     1
102
RTVSPropertyOp19
 70
     1
102
RTVSPropertyOp20
 70
     1
102
RTVSPropertyOp21
 70
     1
102
RTVSPropertyOp22
 70
     1
102
RTVSPropertyOp23
 70
     1
102
RTVSPropertyOp24
 70
     1
102
RTVSPropertyOp25
 70
     1
102
RTVSPropertyOp26
 70
     1
102
RTVSPropertyOp27
 70
     1
102
RTVSPropertyOp28
 70
     1
102
RTVSPropertyOp29
 70
     1
102
RTVSPropertyOp30
 70
     1
102
RTVSPropertyOp31
 70
     1
102
RTVSPropertyOp32
 70
     1
  0
XRECORD
  5
47E
102
{ACAD_REACTORS
330
47D
102
}
330
47D
100
AcDbXrecord
280
     1
102
RTVSPropertyOp0
 70
     1
102
RTVSPropertyOp1
 70
     1
102
RTVSPropertyOp2
 70
     1
102
RTVSPropertyOp3
 70
     1
102
RTVSPropertyOp4
 70
     1
102
RTVSPropertyOp5
 70
     1
102
RTVSPropertyOp6
 70
     1
102
RTVSPropertyOp7
 70
     1
102
RTVSPropertyOp8
 70
     1
102
RTVSPropertyOp9
 70
     1
102
RTVSPropertyOp10
 70
     1
102
RTVSPropertyOp11
 70
     1
102
RTVSPropertyOp12
 70
     1
102
RTVSPropertyOp13
 70
     1
102
RTVSPropertyOp14
 70
     1
102
RTVSPropertyOp15
 70
     1
102
RTVSPropertyOp16
 70
     1
102
RTVSPropertyOp17
 70
     1
102
RTVSPropertyOp18
 70
     1
102
RTVSPropertyOp19
 70
     1
102
RTVSPropertyOp20
 70
     1
102
RTVSPropertyOp21
 70
     1
102
RTVSPropertyOp22
 70
     1
102
RTVSPropertyOp23
 70
     1
102
RTVSPropertyOp24
 70
     1
102
RTVSPropertyOp25
 70
     1
102
RTVSPropertyOp26
 70
     1
102
RTVSPropertyOp27
 70
     1
102
RTVSPropertyOp28
 70
     1
102
RTVSPropertyOp29
 70
     1
102
RTVSPropertyOp30
 70
     1
102
RTVSPropertyOp31
 70
     1
102
RTVSPropertyOp32
 70
     1
  0
XRECORD
  5
486
102
{ACAD_REACTORS
330
485
102
}
330
485
100
AcDbXrecord
280
     1
102
RTVSPropertyOp0
 70
     1
102
RTVSPropertyOp1
 70
     1
102
RTVSPropertyOp2
 70
     1
102
RTVSPropertyOp3
 70
     1
102
RTVSPropertyOp4
 70
     1
102
RTVSPropertyOp5
 70
     1
102
RTVSPropertyOp6
 70
     1
102
RTVSPropertyOp7
 70
     1
102
RTVSPropertyOp8
 70
     1
102
RTVSPropertyOp9
 70
     1
102
RTVSPropertyOp10
 70
     1
102
RTVSPropertyOp11
 70
     1
102
RTVSPropertyOp12
 70
     1
102
RTVSPropertyOp13
 70
     1
102
RTVSPropertyOp14
 70
     1
102
RTVSPropertyOp15
 70
     1
102
RTVSPropertyOp16
 70
     1
102
RTVSPropertyOp17
 70
     1
102
RTVSPropertyOp18
 70
     1
102
RTVSPropertyOp19
 70
     1
102
RTVSPropertyOp20
 70
     1
102
RTVSPropertyOp21
 70
     1
102
RTVSPropertyOp22
 70
     1
102
RTVSPropertyOp23
 70
     1
102
RTVSPropertyOp24
 70
     1
102
RTVSPropertyOp25
 70
     1
102
RTVSPropertyOp26
 70
     1
102
RTVSPropertyOp27
 70
     1
102
RTVSPropertyOp28
 70
     1
102
RTVSPropertyOp29
 70
     1
102
RTVSPropertyOp30
 70
     1
102
RTVSPropertyOp31
 70
     1
102
RTVSPropertyOp32
 70
     1
  0
XRECORD
  5
48E
102
{ACAD_REACTORS
330
48D
102
}
330
48D
100
AcDbXrecord
280
     1
102
RTVSPropertyOp0
 70
     1
102
RTVSPropertyOp1
 70
     1
102
RTVSPropertyOp2
 70
     1
102
RTVSPropertyOp3
 70
     1
102
RTVSPropertyOp4
 70
     1
102
RTVSPropertyOp5
 70
     1
102
RTVSPropertyOp6
 70
     1
102
RTVSPropertyOp7
 70
     1
102
RTVSPropertyOp8
 70
     1
102
RTVSPropertyOp9
 70
     1
102
RTVSPropertyOp10
 70
     1
102
RTVSPropertyOp11
 70
     1
102
RTVSPropertyOp12
 70
     1
102
RTVSPropertyOp13
 70
     1
102
RTVSPropertyOp14
 70
     1
102
RTVSPropertyOp15
 70
     1
102
RTVSPropertyOp16
 70
     1
102
RTVSPropertyOp17
 70
     1
102
RTVSPropertyOp18
 70
     1
102
RTVSPropertyOp19
 70
     1
102
RTVSPropertyOp20
 70
     1
102
RTVSPropertyOp21
 70
     1
102
RTVSPropertyOp22
 70
     1
102
RTVSPropertyOp23
 70
     1
102
RTVSPropertyOp24
 70
     1
102
RTVSPropertyOp25
 70
     1
102
RTVSPropertyOp26
 70
     1
102
RTVSPropertyOp27
 70
     1
102
RTVSPropertyOp28
 70
     1
102
RTVSPropertyOp29
 70
     1
102
RTVSPropertyOp30
 70
     1
102
RTVSPropertyOp31
 70
     1
102
RTVSPropertyOp32
 70
     1
  0
ENDSEC
  0
EOF
