  0
SECTION
  2
HEADER
  9
$ACADVER
  1
AC1015
  9
$ACADMAINTVER
 70
    13
  9
$DWGCODEPAGE
  3
ANSI_1252
  9
$INSBASE
 10
0.0
 20
0.0
 30
0.0
  9
$EXTMIN
 10
0.1064708094271038
 20
-0.1143646667846376
 30
0.0
  9
$EXTMAX
 10
16.59647080942709
 20
10.32563533321536
 30
0.03
  9
$LIMMIN
 10
0.0
 20
0.0
  9
$LIMMAX
 10
12.0
 20
9.0
  9
$ORTHOMODE
 70
     1
  9
$REGENMODE
 70
     1
  9
$FILLMODE
 70
     1
  9
$QTEXTMODE
 70
     0
  9
$MIRRTEXT
 70
     0
  9
$LTSCALE
 40
1.0
  9
$ATTMODE
 70
     1
  9
$TEXTSIZE
 40
0.125
  9
$TRACEWID
 40
0.05
  9
$TEXTSTYLE
  7
ROMANS
  9
$CLAYER
  8
OPTION-NOZ-ROTARY
  9
$CELTYPE
  6
ByLayer
  9
$CECOLOR
 62
   256
  9
$CELTSCALE
 40
1.0
  9
$DISPSILH
 70
     0
  9
$DIMSCALE
 40
1.0
  9
$DIMASZ
 40
0.18
  9
$DIMEXO
 40
0.0625
  9
$DIMDLI
 40
0.38
  9
$DIMRND
 40
0.0
  9
$DIMDLE
 40
0.0
  9
$DIMEXE
 40
0.18
  9
$DIMTP
 40
0.0
  9
$DIMTM
 40
0.0
  9
$DIMTXT
 40
0.18
  9
$DIMCEN
 40
0.09
  9
$DIMTSZ
 40
0.0
  9
$DIMTOL
 70
     0
  9
$DIMLIM
 70
     0
  9
$DIMTIH
 70
     1
  9
$DIMTOH
 70
     1
  9
$DIMSE1
 70
     0
  9
$DIMSE2
 70
     0
  9
$DIMTAD
 70
     0
  9
$DIMZIN
 70
     0
  9
$DIMBLK
  1

  9
$DIMASO
 70
     1
  9
$DIMSHO
 70
     1
  9
$DIMPOST
  1

  9
$DIMAPOST
  1

  9
$DIMALT
 70
     0
  9
$DIMALTD
 70
     2
  9
$DIMALTF
 40
25.4
  9
$DIMLFAC
 40
1.0
  9
$DIMTOFL
 70
     0
  9
$DIMTVP
 40
0.0
  9
$DIMTIX
 70
     0
  9
$DIMSOXD
 70
     0
  9
$DIMSAH
 70
     0
  9
$DIMBLK1
  1

  9
$DIMBLK2
  1

  9
$DIMSTYLE
  2
Standard
  9
$DIMCLRD
 70
     0
  9
$DIMCLRE
 70
     0
  9
$DIMCLRT
 70
     0
  9
$DIMTFAC
 40
1.0
  9
$DIMGAP
 40
0.09
  9
$DIMJUST
 70
     0
  9
$DIMSD1
 70
     0
  9
$DIMSD2
 70
     0
  9
$DIMTOLJ
 70
     1
  9
$DIMTZIN
 70
     0
  9
$DIMALTZ
 70
     0
  9
$DIMALTTZ
 70
     0
  9
$DIMUPT
 70
     0
  9
$DIMDEC
 70
     4
  9
$DIMTDEC
 70
     4
  9
$DIMALTU
 70
     2
  9
$DIMALTTD
 70
     2
  9
$DIMTXSTY
  7
STANDARD
  9
$DIMAUNIT
 70
     0
  9
$DIMADEC
 70
     0
  9
$DIMALTRND
 40
0.0
  9
$DIMAZIN
 70
     0
  9
$DIMDSEP
 70
    46
  9
$DIMATFIT
 70
     3
  9
$DIMFRAC
 70
     0
  9
$DIMLDRBLK
  1

  9
$DIMLUNIT
 70
     2
  9
$DIMLWD
 70
    -2
  9
$DIMLWE
 70
    -2
  9
$DIMTMOVE
 70
     2
  9
$LUNITS
 70
     2
  9
$LUPREC
 70
     4
  9
$SKETCHINC
 40
0.1
  9
$FILLETRAD
 40
0.0
  9
$AUNITS
 70
     0
  9
$AUPREC
 70
     0
  9
$MENU
  1
ACAD
  9
$ELEVATION
 40
0.0
  9
$PELEVATION
 40
0.0
  9
$THICKNESS
 40
0.0
  9
$LIMCHECK
 70
     0
  9
$CHAMFERA
 40
0.0
  9
$CHAMFERB
 40
0.0
  9
$CHAMFERC
 40
0.0
  9
$CHAMFERD
 40
0.0
  9
$SKPOLY
 70
     0
  9
$TDCREATE
 40
2449623.426764236
  9
$TDUCREATE
 40
2449623.676764236
  9
$TDUPDATE
 40
2453109.614609791
  9
$TDUUPDATE
 40
2453109.864609792
  9
$TDINDWG
 40
0.4490867940
  9
$TDUSRTIMER
 40
0.4490867940
  9
$USRTIMER
 70
     1
  9
$ANGBASE
 50
0.0
  9
$ANGDIR
 70
     0
  9
$PDMODE
 70
     0
  9
$PDSIZE
 40
0.0
  9
$PLINEWID
 40
0.0
  9
$SPLFRAME
 70
     0
  9
$SPLINETYPE
 70
     6
  9
$SPLINESEGS
 70
     8
  9
$HANDSEED
  5
9AF
  9
$SURFTAB1
 70
     6
  9
$SURFTAB2
 70
     6
  9
$SURFTYPE
 70
     6
  9
$SURFU
 70
     6
  9
$SURFV
 70
     6
  9
$UCSBASE
  2

  9
$UCSNAME
  2

  9
$UCSORG
 10
0.0
 20
0.0
 30
0.0
  9
$UCSXDIR
 10
1.0
 20
0.0
 30
0.0
  9
$UCSYDIR
 10
0.0
 20
1.0
 30
0.0
  9
$UCSORTHOREF
  2

  9
$UCSORTHOVIEW
 70
     0
  9
$UCSORGTOP
 10
0.0
 20
0.0
 30
0.0
  9
$UCSORGBOTTOM
 10
0.0
 20
0.0
 30
0.0
  9
$UCSORGLEFT
 10
0.0
 20
0.0
 30
0.0
  9
$UCSORGRIGHT
 10
0.0
 20
0.0
 30
0.0
  9
$UCSORGFRONT
 10
0.0
 20
0.0
 30
0.0
  9
$UCSORGBACK
 10
0.0
 20
0.0
 30
0.0
  9
$PUCSBASE
  2

  9
$PUCSNAME
  2

  9
$PUCSORG
 10
0.0
 20
0.0
 30
0.0
  9
$PUCSXDIR
 10
1.0
 20
0.0
 30
0.0
  9
$PUCSYDIR
 10
0.0
 20
1.0
 30
0.0
  9
$PUCSORTHOREF
  2

  9
$PUCSORTHOVIEW
 70
     0
  9
$PUCSORGTOP
 10
0.0
 20
0.0
 30
0.0
  9
$PUCSORGBOTTOM
 10
0.0
 20
0.0
 30
0.0
  9
$PUCSORGLEFT
 10
0.0
 20
0.0
 30
0.0
  9
$PUCSORGRIGHT
 10
0.0
 20
0.0
 30
0.0
  9
$PUCSORGFRONT
 10
0.0
 20
0.0
 30
0.0
  9
$PUCSORGBACK
 10
0.0
 20
0.0
 30
0.0
  9
$USERI1
 70
     0
  9
$USERI2
 70
     0
  9
$USERI3
 70
     0
  9
$USERI4
 70
     0
  9
$USERI5
 70
     0
  9
$USERR1
 40
0.0
  9
$USERR2
 40
0.0
  9
$USERR3
 40
0.0
  9
$USERR4
 40
0.0
  9
$USERR5
 40
0.0
  9
$WORLDVIEW
 70
     1
  9
$SHADEDGE
 70
     3
  9
$SHADEDIF
 70
    70
  9
$TILEMODE
 70
     1
  9
$MAXACTVP
 70
    16
  9
$PINSBASE
 10
0.0
 20
0.0
 30
0.0
  9
$PLIMCHECK
 70
     0
  9
$PEXTMIN
 10
1.000000000000000E+20
 20
1.000000000000000E+20
 30
1.000000000000000E+20
  9
$PEXTMAX
 10
-1.000000000000000E+20
 20
-1.000000000000000E+20
 30
-1.000000000000000E+20
  9
$PLIMMIN
 10
0.0
 20
0.0
  9
$PLIMMAX
 10
12.0
 20
9.0
  9
$UNITMODE
 70
     0
  9
$VISRETAIN
 70
     0
  9
$PLINEGEN
 70
     1
  9
$PSLTSCALE
 70
     1
  9
$TREEDEPTH
 70
  3020
  9
$CMLSTYLE
  2
Standard
  9
$CMLJUST
 70
     0
  9
$CMLSCALE
 40
1.0
  9
$PROXYGRAPHICS
 70
     1
  9
$MEASUREMENT
 70
     0
  9
$CELWEIGHT
370
    -1
  9
$ENDCAPS
280
     0
  9
$JOINSTYLE
280
     0
  9
$LWDISPLAY
290
     0
  9
$INSUNITS
 70
     0
  9
$HYPERLINKBASE
  1

  9
$STYLESHEET
  1
8500Color.ctb
  9
$XEDIT
290
     1
  9
$CEPSNTYPE
380
     0
  9
$PSTYLEMODE
290
     1
  9
$FINGERPRINTGUID
  2
{FC71E344-C23D-4BC5-84A3-344016255673}
  9
$VERSIONGUID
  2
{6EC53117-4199-40EC-9204-1D333BFA22F2}
  9
$EXTNAMES
290
     1
  9
$PSVPSCALE
 40
0.0
  9
$OLESTARTUP
290
     1
  0
ENDSEC
  0
SECTION
  2
CLASSES
  0
CLASS
  1
ACDBDICTIONARYWDFLT
  2
AcDbDictionaryWithDefault
  3
AutoCAD 2000
 90
        0
280
     0
281
     0
  0
CLASS
  1
ACDBPLACEHOLDER
  2
AcDbPlaceHolder
  3
AutoCAD 2000
 90
        0
280
     0
281
     0
  0
CLASS
  1
LAYOUT
  2
AcDbLayout
  3
AutoCAD 2000
 90
        0
280
     0
281
     0
  0
CLASS
  1
DICTIONARYVAR
  2
AcDbDictionaryVar
  3
AutoCAD 2000
 90
        0
280
     0
281
     0
  0
ENDSEC
  0
SECTION
  2
TABLES
  0
TABLE
  2
VPORT
  5
8
330
0
100
AcDbSymbolTable
 70
     2
  0
VPORT
  5
9AE
330
8
100
AcDbSymbolTableRecord
100
AcDbViewportTableRecord
  2
*Active
 70
     0
 10
0.0
 20
0.0
 11
1.0
 21
1.0
 12
8.351292906244363
 22
5.105635406142373
 13
0.0
 23
0.0
 14
0.14
 24
0.14
 15
0.0
 25
0.0
 16
0.0
 26
0.0
 36
1.0
 17
0.0
 27
0.0
 37
0.0
 40
11.00714894379751
 41
1.505548705302096
 42
50.0
 43
0.0
 44
0.0
 50
0.0
 51
0.0
 71
     0
 72
  5000
 73
     1
 74
     1
 75
     0
 76
     0
 77
     0
 78
     0
281
     0
 65
     1
110
0.0
120
0.0
130
0.0
111
1.0
121
0.0
131
0.0
112
0.0
122
1.0
132
0.0
 79
     0
146
0.0
  0
ENDTAB
  0
TABLE
  2
LTYPE
  5
5
330
0
100
AcDbSymbolTable
 70
     1
  0
LTYPE
  5
13
330
5
100
AcDbSymbolTableRecord
100
AcDbLinetypeTableRecord
  2
ByBlock
 70
     0
  3

 72
    65
 73
     0
 40
0.0
  0
LTYPE
  5
14
330
5
100
AcDbSymbolTableRecord
100
AcDbLinetypeTableRecord
  2
ByLayer
 70
     0
  3

 72
    65
 73
     0
 40
0.0
  0
LTYPE
  5
15
330
5
100
AcDbSymbolTableRecord
100
AcDbLinetypeTableRecord
  2
CONTINUOUS
 70
     0
  3
Solid line
 72
    65
 73
     0
 40
0.0
  0
ENDTAB
  0
TABLE
  2
LAYER
  5
2
102
{ACAD_XDICTIONARY
360
283
102
}
330
0
100
AcDbSymbolTable
 70
    16
  0
LAYER
  5
10
330
2
100
AcDbSymbolTableRecord
100
AcDbLayerTableRecord
  2
0
 70
     0
 62
     7
  6
CONTINUOUS
370
    -3
390
F
  0
LAYER
  5
27
330
2
100
AcDbSymbolTableRecord
100
AcDbLayerTableRecord
  2
TEXT_BUBBLES
 70
     0
 62
     6
  6
CONTINUOUS
370
    -3
390
F
  0
LAYER
  5
28
330
2
100
AcDbSymbolTableRecord
100
AcDbLayerTableRecord
  2
IMAGE
 70
     0
 62
     7
  6
CONTINUOUS
370
    -3
390
F
  0
LAYER
  5
2B
330
2
100
AcDbSymbolTableRecord
100
AcDbLayerTableRecord
  2
TEXT_LEADERS
 70
     0
 62
    -5
  6
CONTINUOUS
370
    -3
390
F
  0
LAYER
  5
2D
330
2
100
AcDbSymbolTableRecord
100
AcDbLayerTableRecord
  2
OPTION-PRS
 70
     0
 62
    -1
  6
CONTINUOUS
370
    -3
390
F
  0
LAYER
  5
2F
330
2
100
AcDbSymbolTableRecord
100
AcDbLayerTableRecord
  2
OPTION-NOZ-VAN
 70
     0
 62
    -1
  6
CONTINUOUS
370
    -3
390
F
  0
LAYER
  5
31
330
2
100
AcDbSymbolTableRecord
100
AcDbLayerTableRecord
  2
OPTION-NOZ-U-SERIES
 70
     0
 62
    -1
  6
CONTINUOUS
370
    -3
390
F
  0
LAYER
  5
32
330
2
100
AcDbSymbolTableRecord
100
AcDbLayerTableRecord
  2
OPTION-NOZ-PLASTIC
 70
     0
 62
    -1
  6
CONTINUOUS
370
    -3
390
F
  0
LAYER
  5
33
330
2
100
AcDbSymbolTableRecord
100
AcDbLayerTableRecord
  2
OPTION-VPC
 70
     0
 62
    -1
  6
CONTINUOUS
370
    -3
390
F
  0
LAYER
  5
34
330
2
100
AcDbSymbolTableRecord
100
AcDbLayerTableRecord
  2
INSTRUCT-OPTION
 70
     0
 62
     7
  6
CONTINUOUS
370
    -3
390
F
  0
LAYER
  5
35
330
2
100
AcDbSymbolTableRecord
100
AcDbLayerTableRecord
  2
INSTRUCT-CALLOUT
 70
     0
 62
     4
  6
CONTINUOUS
370
    -3
390
F
  0
LAYER
  5
25F
330
2
100
AcDbSymbolTableRecord
100
AcDbLayerTableRecord
  2
TITLE
 70
     0
 62
     4
  6
CONTINUOUS
370
    -3
390
F
  0
LAYER
  5
360
330
2
100
AcDbSymbolTableRecord
100
AcDbLayerTableRecord
  2
OPTION-NP
 70
     0
 62
    -1
  6
CONTINUOUS
370
    -3
390
F
  0
LAYER
  5
368
330
2
100
AcDbSymbolTableRecord
100
AcDbLayerTableRecord
  2
OPTION-PRS-VPC
 70
     0
 62
     1
  6
CONTINUOUS
370
    -3
390
F
  0
LAYER
  5
36B
330
2
100
AcDbSymbolTableRecord
100
AcDbLayerTableRecord
  2
OPTION-PRS-NP
 70
     0
 62
    -1
  6
CONTINUOUS
370
    -3
390
F
  0
LAYER
  5
9A4
330
2
100
AcDbSymbolTableRecord
100
AcDbLayerTableRecord
  2
OPTION-NOZ-ROTARY
 70
     0
 62
     1
  6
CONTINUOUS
370
    -3
390
F
  0
ENDTAB
  0
TABLE
  2
STYLE
  5
3
330
0
100
AcDbSymbolTable
 70
     5
  0
STYLE
  5
11
330
3
100
AcDbSymbolTableRecord
100
AcDbTextStyleTableRecord
  2
STANDARD
 70
     0
 40
0.0
 41
1.0
 50
0.0
 71
     0
 42
0.2
  3
txt
  4

  0
STYLE
  5
24
330
3
100
AcDbSymbolTableRecord
100
AcDbTextStyleTableRecord
  2
ROMANS
 70
     0
 40
0.0
 41
1.0
 50
0.0
 71
     0
 42
0.125
  3
ROMANS.SHX
  4

  0
STYLE
  5
260
330
3
100
AcDbSymbolTableRecord
100
AcDbTextStyleTableRecord
  2
L100
 70
     0
 40
0.1
 41
1.0
 50
0.0
 71
     0
 42
0.1
  3
romans.shx
  4

  0
STYLE
  5
261
330
3
100
AcDbSymbolTableRecord
100
AcDbTextStyleTableRecord
  2
L200
 70
     0
 40
0.2
 41
1.0
 50
0.0
 71
     0
 42
0.081
  3
ARIAL.TTF
  4

1001
ACAD
1000
Arial
1071
       34
  0
STYLE
  5
262
330
3
100
AcDbSymbolTableRecord
100
AcDbTextStyleTableRecord
  2
L80
 70
     0
 40
0.08
 41
1.0
 50
0.0
 71
     0
 42
0.08
  3
ROMANS
  4

  0
ENDTAB
  0
TABLE
  2
VIEW
  5
6
330
0
100
AcDbSymbolTable
 70
     0
  0
ENDTAB
  0
TABLE
  2
UCS
  5
7
330
0
100
AcDbSymbolTable
 70
     0
  0
ENDTAB
  0
TABLE
  2
APPID
  5
9
330
0
100
AcDbSymbolTable
 70
     3
  0
APPID
  5
12
330
9
100
AcDbSymbolTableRecord
100
AcDbRegAppTableRecord
  2
ACAD
 70
     0
  0
APPID
  5
263
330
9
100
AcDbSymbolTableRecord
100
AcDbRegAppTableRecord
  2
RAK
 70
     0
  0
APPID
  5
264
330
9
100
AcDbSymbolTableRecord
100
AcDbRegAppTableRecord
  2
DCO15
 70
     0
  0
ENDTAB
  0
TABLE
  2
DIMSTYLE
  5
A
330
0
100
AcDbSymbolTable
 70
     1
100
AcDbDimStyleTable
 71
     0
  0
DIMSTYLE
105
211
330
A
100
AcDbSymbolTableRecord
100
AcDbDimStyleTableRecord
  2
Standard
 70
     0
340
11
  0
ENDTAB
  0
TABLE
  2
BLOCK_RECORD
  5
1
330
0
100
AcDbSymbolTable
 70
     1
  0
BLOCK_RECORD
  5
1E
330
1
100
AcDbSymbolTableRecord
100
AcDbBlockTableRecord
  2
*Model_Space
340
21
  0
BLOCK_RECORD
  5
1A
330
1
100
AcDbSymbolTableRecord
100
AcDbBlockTableRecord
  2
*Paper_Space
340
1D
  0
BLOCK_RECORD
  5
265
330
1
100
AcDbSymbolTableRecord
100
AcDbBlockTableRecord
  2
titleblock
340
0
102
{BLKREFS
331
274
102
}
  0
ENDTAB
  0
ENDSEC
  0
SECTION
  2
BLOCKS
  0
BLOCK
  5
39
330
1E
100
AcDbEntity
  8
0
100
AcDbBlockBegin
  2
*Model_Space
 70
     0
 10
0.0
 20
0.0
 30
0.0
  3
*Model_Space
  1

  0
ENDBLK
  5
3A
330
1E
100
AcDbEntity
  8
0
100
AcDbBlockEnd
  0
BLOCK
  5
37
330
1A
100
AcDbEntity
 67
     1
  8
0
100
AcDbBlockBegin
  2
*Paper_Space
 70
     0
 10
0.0
 20
0.0
 30
0.0
  3
*Paper_Space
  1

  0
ENDBLK
  5
38
330
1A
100
AcDbEntity
 67
     1
  8
0
100
AcDbBlockEnd
  0
BLOCK
  5
271
330
265
100
AcDbEntity
  8
0
100
AcDbBlockBegin
  2
titleblock
 70
     2
 10
0.0
 20
0.0
 30
0.0
  3
titleblock
  1

  0
LWPOLYLINE
  5
266
330
265
100
AcDbEntity
  8
IMAGE
100
AcDbPolyline
 90
        4
 70
     1
 43
0.0
 10
0.0
 20
0.0
 10
16.48999999999999
 20
0.0000000000000001
 10
16.48999999999999
 20
10.44
 10
0.0
 20
10.44
  0
ATTDEF
  5
267
330
265
100
AcDbEntity
  8
TITLE
100
AcDbText
 10
0.5055556038023421
 20
0.7842270964783673
 30
0.0
 40
0.2
  1
D
  7
L200
 72
     4
 11
0.6064423705144839
 21
0.8842270964783672
 31
0.0
100
AcDbAttributeDefinition
  3
#
  2
D
 70
     0
  0
ATTDEF
  5
268
330
265
100
AcDbEntity
  8
TITLE
100
AcDbText
 10
1.231442370514484
 20
1.34371230274675
 30
0.0
 40
0.2
  1

  7
L200
100
AcDbAttributeDefinition
  3
DETAIL TITLE TOP LINE
  2
TITLE1
 70
     0
  0
ATTDEF
  5
269
330
265
100
AcDbEntity
  8
TITLE
100
AcDbText
 10
1.231442370514484
 20
0.9842270964783674
 30
0.0
 40
0.2
  1
TITLE
  7
L200
100
AcDbAttributeDefinition
  3
DETAIL TITLE TOP 2ND LINE
  2
TITLE2
 70
     0
  0
ATTDEF
  5
26A
330
265
100
AcDbEntity
  8
TITLE
100
AcDbText
 10
2.713645751168312
 20
0.5927927664583189
 30
0.0
 40
0.2
  1
TITLE2
  7
L200
100
AcDbAttributeDefinition
  3
DETAIL TITLE BOTTOM 1
  2
TITLE3
 70
     0
  0
ATTDEF
  5
26B
330
265
100
AcDbEntity
  8
TITLE
100
AcDbText
 10
2.713645751168312
 20
0.2692560808167741
 30
0.0
 40
0.2
  1

  7
L200
100
AcDbAttributeDefinition
  3
DETAIL TITLE BOTTOM 2
  2
TITLE4
 70
     0
  0
ATTDEF
  5
26C
330
265
100
AcDbEntity
  8
TITLE
 62
     7
100
AcDbText
 10
8.177214829966379
 20
0.9696027915446398
 30
0.0
 40
0.08
  1
-
  7
L80
 72
     2
 11
8.261024353775903
 21
0.9696027915446398
 31
0.0
100
AcDbAttributeDefinition
  3
REVISION DATE
  2
REVISED
 70
     0
  0
ATTDEF
  5
26D
330
265
100
AcDbEntity
  8
TITLE
 62
     7
100
AcDbText
 10
0.2639423705144838
 20
0.0847116480207214
 30
0.0
 40
0.08
  1
-
  7
L80
100
AcDbAttributeDefinition
  3
DWG-NAME
  2
DWG-NAME
 70
     0
  0
LWPOLYLINE
  5
26E
330
265
100
AcDbEntity
  8
TITLE
 62
     3
100
AcDbPolyline
 90
        2
 70
     1
 43
0.03
 10
0.6064423705144839
 20
0.5417270964783675
 42
0.9999999999999998
 10
0.6064423705144839
 20
1.226727096478367
 42
0.9999999999999998
  0
ATTDEF
  5
26F
330
265
100
AcDbEntity
  8
TITLE
 62
     7
100
AcDbText
 10
1.231442370514484
 20
0.7005637793954894
 30
0.0
 40
0.1
  1
N.T.S.
  7
L100
100
AcDbAttributeDefinition
  3
SCALE
  2
SCALE
 70
     0
  0
LWPOLYLINE
  5
270
330
265
100
AcDbEntity
  8
TITLE
 62
     3
100
AcDbPolyline
 90
        2
 70
     0
 43
0.04
 39
0.03
 10
0.9489423705144833
 20
0.8842270964783672
 10
8.261024353775903
 20
0.8842270964783672
  0
ENDBLK
  5
272
330
265
100
AcDbEntity
  8
0
100
AcDbBlockEnd
  0
ENDSEC
  0
SECTION
  2
ENTITIES
  0
CIRCLE
  5
10A
330
1E
100
AcDbEntity
  8
TEXT_BUBBLES
100
AcDbCircle
 10
4.418220173282479
 20
7.390354215826485
 30
0.0
 40
0.15625
  0
TEXT
  5
10B
330
1E
100
AcDbEntity
  8
TEXT_BUBBLES
100
AcDbText
 10
4.367624935187241
 20
7.327854215826485
 30
0.0
 40
0.125
  1
1
  7
ROMANS
 72
     4
 11
4.418220173282479
 21
7.390354215826485
 31
0.0
100
AcDbText
  0
CIRCLE
  5
10C
330
1E
100
AcDbEntity
  8
TEXT_BUBBLES
100
AcDbCircle
 10
4.418220173282479
 20
7.031760376453204
 30
0.0
 40
0.15625
  0
TEXT
  5
10D
330
1E
100
AcDbEntity
  8
TEXT_BUBBLES
100
AcDbText
 10
4.35869636375867
 20
6.969260376453204
 30
0.0
 40
0.125
  1
2
  7
ROMANS
 72
     4
 11
4.418220173282479
 21
7.031760376453204
 31
0.0
100
AcDbText
  0
CIRCLE
  5
10E
330
1E
100
AcDbEntity
  8
TEXT_BUBBLES
100
AcDbCircle
 10
4.42683571506445
 20
6.459066566402976
 30
0.0
 40
0.15625
  0
TEXT
  5
10F
330
1E
100
AcDbEntity
  8
TEXT_BUBBLES
100
AcDbText
 10
4.367311905540641
 20
6.396566566402976
 30
0.0
 40
0.125
  1
3
  7
ROMANS
 72
     4
 11
4.42683571506445
 21
6.459066566402976
 31
0.0
100
AcDbText
  0
CIRCLE
  5
110
330
1E
100
AcDbEntity
  8
TEXT_BUBBLES
100
AcDbCircle
 10
4.418220173282479
 20
6.037641232946214
 30
0.0
 40
0.15625
  0
TEXT
  5
111
330
1E
100
AcDbEntity
  8
TEXT_BUBBLES
100
AcDbText
 10
4.355720173282479
 20
5.975141232946214
 30
0.0
 40
0.125
  1
4
  7
ROMANS
 72
     4
 11
4.418220173282479
 21
6.037641232946214
 31
0.0
100
AcDbText
  0
CIRCLE
  5
112
330
1E
100
AcDbEntity
  8
TEXT_BUBBLES
100
AcDbCircle
 10
4.418220173282479
 20
5.687386084816484
 30
0.0
 40
0.15625
  0
TEXT
  5
113
330
1E
100
AcDbEntity
  8
TEXT_BUBBLES
100
AcDbText
 10
4.35869636375867
 20
5.624886084816484
 30
0.0
 40
0.125
  1
5
  7
ROMANS
 72
     4
 11
4.418220173282479
 21
5.687386084816484
 31
0.0
100
AcDbText
  0
CIRCLE
  5
114
330
1E
100
AcDbEntity
  8
TEXT_BUBBLES
100
AcDbCircle
 10
4.418220173282479
 20
5.329368732858773
 30
0.0
 40
0.15625
  0
TEXT
  5
115
330
1E
100
AcDbEntity
  8
TEXT_BUBBLES
100
AcDbText
 10
4.355720173282479
 20
5.266868732858773
 30
0.0
 40
0.125
  1
6
  7
ROMANS
 72
     4
 11
4.418220173282479
 21
5.329368732858773
 31
0.0
100
AcDbText
  0
CIRCLE
  5
11B
330
1E
100
AcDbEntity
  8
TEXT_BUBBLES
100
AcDbCircle
 10
4.307362758373941
 20
3.068409332439868
 30
0.0
 40
0.15625
  0
TEXT
  5
11C
330
1E
100
AcDbEntity
  8
TEXT_BUBBLES
100
AcDbText
 10
4.247838948850132
 20
3.005909332439868
 30
0.0
 40
0.125
  1
3
  7
ROMANS
 72
     4
 11
4.307362758373941
 21
3.068409332439868
 31
0.0
100
AcDbText
  0
CIRCLE
  5
11D
330
1E
100
AcDbEntity
  8
TEXT_BUBBLES
100
AcDbCircle
 10
5.384658307744987
 20
3.068822630450783
 30
0.0
 40
0.15625
  0
TEXT
  5
11E
330
1E
100
AcDbEntity
  8
TEXT_BUBBLES
100
AcDbText
 10
5.325134498221178
 20
3.006322630450783
 30
0.0
 40
0.125
  1
7
  7
ROMANS
 72
     4
 11
5.384658307744987
 21
3.068822630450783
 31
0.0
100
AcDbText
  0
CIRCLE
  5
11F
330
1E
100
AcDbEntity
  8
TEXT_BUBBLES
100
AcDbCircle
 10
3.548663347300722
 20
3.068682873570252
 30
0.0
 40
0.15625
  0
TEXT
  5
120
330
1E
100
AcDbEntity
  8
TEXT_BUBBLES
100
AcDbText
 10
3.489139537776913
 20
3.006182873570252
 30
0.0
 40
0.125
  1
5
  7
ROMANS
 72
     4
 11
3.548663347300722
 21
3.068682873570252
 31
0.0
100
AcDbText
  0
TEXT
  5
129
330
1E
100
AcDbEntity
  8
TEXT_BUBBLES
100
AcDbText
 10
0.6563833327298039
 20
4.815778660848586
 30
0.0
 40
0.125
  1
2
  7
ROMANS
 72
     4
 11
0.7159071422536134
 21
4.878278660848586
 31
0.0
100
AcDbText
  0
CIRCLE
  5
12A
330
1E
100
AcDbEntity
  8
TEXT_BUBBLES
100
AcDbCircle
 10
0.7159071422536134
 20
4.878278660848586
 30
0.0
 40
0.15625
  0
TEXT
  5
12D
330
1E
100
AcDbEntity
  8
TEXT_BUBBLES
100
AcDbText
 10
4.971573245040626
 20
3.006193402020928
 30
0.0
 40
0.125
  1
5
  7
ROMANS
 72
     4
 11
5.031097054564435
 21
3.068693402020928
 31
0.0
100
AcDbText
  0
CIRCLE
  5
12E
330
1E
100
AcDbEntity
  8
TEXT_BUBBLES
100
AcDbCircle
 10
5.031097054564435
 20
3.068693402020928
 30
0.0
 40
0.15625
  0
CIRCLE
  5
12F
330
1E
100
AcDbEntity
  8
TEXT_BUBBLES
100
AcDbCircle
 10
0.7159071422536134
 20
5.344062810817391
 30
0.0
 40
0.15625
  0
TEXT
  5
130
330
1E
100
AcDbEntity
  8
TEXT_BUBBLES
100
AcDbText
 10
0.6653119041583753
 20
5.281562810817391
 30
0.0
 40
0.125
  1
1
  7
ROMANS
 72
     4
 11
0.7159071422536134
 21
5.344062810817391
 31
0.0
100
AcDbText
  0
TEXT
  5
133
330
1E
100
AcDbEntity
  8
TEXT_LEADERS
100
AcDbText
 10
4.760000000000001
 20
7.475993233972932
 30
0.0
 40
0.125
  1
FINISH GRADE/TOP OF MULCH
  7
ROMANS
100
AcDbText
  0
TEXT
  5
134
330
1E
100
AcDbEntity
  8
TEXT_LEADERS
100
AcDbText
 10
4.760000000000001
 20
6.808080003849141
 30
0.0
 40
0.125
  1
  RAIN BIRD 1812-SI
  7
ROMANS
100
AcDbText
  0
TEXT
  5
135
330
1E
100
AcDbEntity
  8
TEXT_LEADERS
100
AcDbText
 10
4.760000000000001
 20
6.993285192790974
 30
0.0
 40
0.125
  1
POP-UP SPRAY SPRINKLER:
  7
ROMANS
100
AcDbText
  0
CIRCLE
  5
17C
330
1E
100
AcDbEntity
  8
TEXT_BUBBLES
100
AcDbCircle
 10
4.654909976174527
 20
3.068693402020928
 30
0.0
 40
0.15625
  0
TEXT
  5
17D
330
1E
100
AcDbEntity
  8
TEXT_BUBBLES
100
AcDbText
 10
4.592409976174527
 20
3.006193402020928
 30
0.0
 40
0.125
  1
6
  7
ROMANS
 72
     4
 11
4.654909976174527
 21
3.068693402020928
 31
0.0
100
AcDbText
  0
TEXT
  5
188
330
1E
100
AcDbEntity
  8
TEXT_LEADERS
100
AcDbText
 10
4.760000000000001
 20
3.261781994173664
 30
0.0
 40
0.125
  1
PVC SCH 40 TEE OR ELL
  7
ROMANS
100
AcDbText
  0
TEXT
  5
189
330
1E
100
AcDbEntity
  8
TEXT_LEADERS
100
AcDbText
 10
4.760000000000001
 20
2.964132771897652
 30
0.0
 40
0.125
  1
PVC LATERAL PIPE
  7
ROMANS
100
AcDbText
  0
TEXT
  5
18C
330
1E
100
AcDbEntity
  8
TEXT_LEADERS
100
AcDbText
 10
4.760000000000001
 20
4.698344035480792
 30
0.0
 40
0.125
  1
PVC SCH 40 STREET ELL
  7
ROMANS
100
AcDbText
  0
TEXT
  5
18E
330
1E
100
AcDbEntity
  8
TEXT_LEADERS
100
AcDbText
 10
4.760000000000001
 20
4.989389089998068
 30
0.0
 40
0.125
  1
  (LENGTH AS REQUIRED)
  7
ROMANS
100
AcDbText
  0
TEXT
  5
18F
330
1E
100
AcDbEntity
  8
TEXT_LEADERS
100
AcDbText
 10
4.760000000000001
 20
5.183893087005634
 30
0.0
 40
0.125
  1
PVC SCH 80 NIPPLE
  7
ROMANS
100
AcDbText
  0
TEXT
  5
193
330
1E
100
AcDbEntity
  8
TEXT_LEADERS
100
AcDbText
 10
4.760000000000001
 20
6.02200484283726
 30
0.0
 40
0.125
  1
  (LENGTH AS REQUIRED)
  7
ROMANS
100
AcDbText
  0
TEXT
  5
198
330
1E
100
AcDbEntity
  8
TEXT_LEADERS
100
AcDbText
 10
4.760000000000001
 20
6.201960830649214
 30
0.0
 40
0.125
  1
PVC SCH 80 NIPPLE
  7
ROMANS
100
AcDbText
  0
TEXT
  5
199
330
1E
100
AcDbEntity
  8
TEXT_LEADERS
100
AcDbText
 10
4.760000000000001
 20
5.812361018476661
 30
0.0
 40
0.125
  1
PVC SCH 40 ELL
  7
ROMANS
100
AcDbText
  0
TEXT
  5
19A
330
1E
100
AcDbEntity
  8
TEXT_LEADERS
100
AcDbText
 10
4.760000000000001
 20
5.611939800388245
 30
0.0
 40
0.125
  1
PVC SCH 40 STREET ELL
  7
ROMANS
100
AcDbText
  0
TEXT
  5
1A0
330
1E
100
AcDbEntity
  8
TEXT_BUBBLES
100
AcDbText
 10
4.760000000000001
 20
4.908308525263455
 30
0.0
 40
0.125
  1
PVC LATERAL PIPE
  7
ROMANS
100
AcDbText
  0
TEXT
  5
1A1
330
1E
100
AcDbEntity
  8
TEXT_BUBBLES
100
AcDbText
 10
4.760000000000001
 20
5.622994638349743
 30
0.0
 40
0.125
  1
PVC SCH 40 STREET ELL
  7
ROMANS
100
AcDbText
  0
TEXT
  5
1A2
330
1E
100
AcDbEntity
  8
TEXT_BUBBLES
100
AcDbText
 10
4.760000000000001
 20
5.971744026596113
 30
0.0
 40
0.125
  1
PVC SCH 40 ELL
  7
ROMANS
100
AcDbText
  0
TEXT
  5
1A3
330
1E
100
AcDbEntity
  8
TEXT_BUBBLES
100
AcDbText
 10
4.760000000000001
 20
6.200459389845928
 30
0.0
 40
0.125
  1
  (LENGTH AS REQUIRED)
  7
ROMANS
100
AcDbText
  0
TEXT
  5
1A4
330
1E
100
AcDbEntity
  8
TEXT_BUBBLES
100
AcDbText
 10
4.760000000000001
 20
6.391744026596112
 30
0.0
 40
0.125
  1
PVC SCH 80 NIPPLE
  7
ROMANS
100
AcDbText
  0
TEXT
  5
1A5
330
1E
100
AcDbEntity
  8
TEXT_BUBBLES
100
AcDbText
 10
4.760000000000001
 20
7.317680772372121
 30
0.0
 40
0.125
  1
FINISH GRADE/TOP OF MULCH
  7
ROMANS
100
AcDbText
  0
TEXT
  5
1A6
330
1E
100
AcDbEntity
  8
TEXT_BUBBLES
100
AcDbText
 10
4.760000000000001
 20
5.257057913509825
 30
0.0
 40
0.125
  1
PVC SCH 40 TEE OR ELL
  7
ROMANS
100
AcDbText
  0
TEXT
  5
1A7
330
1E
100
AcDbEntity
  8
TEXT_BUBBLES
100
AcDbText
 10
4.760000000000001
 20
6.800329644745053
 30
0.0
 40
0.125
  1
  RAIN BIRD 1812-SI
  7
ROMANS
100
AcDbText
  0
TEXT
  5
1A8
330
1E
100
AcDbEntity
  8
TEXT_BUBBLES
100
AcDbText
 10
4.760000000000001
 20
6.951744026596113
 30
0.0
 40
0.125
  1
POP-UP SPRAY SPRINKLER:
  7
ROMANS
100
AcDbText
  0
TEXT
  5
1A9
330
1E
100
AcDbEntity
  8
TEXT_BUBBLES
100
AcDbText
 10
4.35869636375867
 20
4.917889430058146
 30
0.0
 40
0.125
  1
7
  7
ROMANS
 72
     4
 11
4.418220173282479
 21
4.980389430058146
 31
0.0
100
AcDbText
  0
CIRCLE
  5
1AA
330
1E
100
AcDbEntity
  8
TEXT_BUBBLES
100
AcDbCircle
 10
4.418220173282479
 20
4.980389430058146
 30
0.0
 40
0.15625
  0
TEXT
  5
1B3
330
1E
100
AcDbEntity
  8
OPTION-NOZ-VAN
100
AcDbText
 10
4.760000000000001
 20
6.636230316201615
 30
0.0
 40
0.125
  1
  WITH VAN NOZZLE
  7
ROMANS
100
AcDbText
  0
TEXT
  5
1B4
330
1E
100
AcDbEntity
  8
OPTION-NOZ-U-SERIES
100
AcDbText
 10
4.760000000000001
 20
6.636230316201615
 30
0.0
 40
0.125
  1
  WITH U-SERIES NOZZLE
  7
ROMANS
100
AcDbText
  0
TEXT
  5
1B5
330
1E
100
AcDbEntity
  8
OPTION-PRS
100
AcDbText
 10
6.907840953326486
 20
6.807522641794884
 30
0.0
 40
0.125
  1
-PRS
  7
ROMANS
100
AcDbText
  0
TEXT
  5
1B7
330
1E
100
AcDbEntity
  8
OPTION-NP
100
AcDbText
 10
6.971147668376477
 20
6.790724731893574
 30
0.0
 40
0.125
  1
WITH 1800 NP
  7
ROMANS
100
AcDbText
  0
LWPOLYLINE
  5
1D4
330
1E
100
AcDbEntity
  8
INSTRUCT-CALLOUT
100
AcDbPolyline
 90
        4
 70
     1
 43
0.0
 10
11.84072718331551
 20
10.00891746304441
 10
11.84072718331551
 20
8.577431441702172
 10
16.27242397469758
 20
8.577431441702172
 10
16.27242397469758
 20
10.00891746304441
  0
TEXT
  5
1DA
330
1E
100
AcDbEntity
  8
INSTRUCT-CALLOUT
100
AcDbText
 10
12.17131960325753
 20
10.06603295376161
 30
0.0
 40
0.10000000149
  1
CHOOSING EQUIPMENT CALLOUT METHOD
  7
ROMANS
100
AcDbText
  0
TEXT
  5
1DB
330
1E
100
AcDbEntity
  8
INSTRUCT-CALLOUT
100
AcDbText
 10
11.93856983421081
 20
9.691921890286732
 30
0.0
 40
0.10000000149
  1
CHOOSE EITHER LEADERS OR BUBBLE CALLOUTS
  7
ROMANS
100
AcDbText
  0
TEXT
  5
1DC
330
1E
100
AcDbEntity
  8
INSTRUCT-CALLOUT
100
AcDbText
 10
11.93856983421081
 20
9.530021846799732
 30
0.0
 40
0.10000000149
  1
BY TURNING ON THE APPROPRIATE LAYER:
  7
ROMANS
100
AcDbText
  0
TEXT
  5
1DD
330
1E
100
AcDbEntity
  8
INSTRUCT-CALLOUT
100
AcDbText
 10
12.37491356647363
 20
9.193004552324556
 30
0.0
 40
0.10000000149
  1
TEXT_LEADERS         TEXT_BUBBLES
  7
ROMANS
100
AcDbText
  0
LINE
  5
1DE
330
1E
100
AcDbEntity
  8
INSTRUCT-CALLOUT
100
AcDbLine
 10
12.68203821843043
 20
8.940533298622941
 30
0.0
 11
12.81830676428905
 21
8.940533298622939
 31
0.0
  0
LINE
  5
1DF
330
1E
100
AcDbEntity
  8
INSTRUCT-CALLOUT
100
AcDbLine
 10
12.3942678039521
 20
8.820781596816658
 30
0.0
 11
12.68203821843043
 21
8.940533298622941
 31
0.0
  0
SOLID
  5
1E0
330
1E
100
AcDbEntity
  8
INSTRUCT-CALLOUT
100
AcDbTrace
 10
12.47965380149243
 20
8.823819922678547
 30
0.0
 11
12.4566019166007
 21
8.879214963999393
 31
0.0
 12
12.30194273508402
 22
8.78236178866377
 32
0.0
 13
12.30194273508402
 23
8.78236178866377
 33
0.0
  0
TEXT
  5
1E1
330
1E
100
AcDbEntity
  8
INSTRUCT-CALLOUT
100
AcDbText
 10
12.84428150130618
 20
8.875782689229041
 30
0.0
 40
0.10000000149
  1
ITEM 1
  7
ROMANS
100
AcDbText
  0
SOLID
  5
1E2
330
1E
100
AcDbEntity
  8
INSTRUCT-CALLOUT
100
AcDbTrace
 10
14.62212312954185
 20
8.837245957229946
 30
0.0
 11
14.63792542319619
 21
8.779364289015717
 31
0.0
 12
14.45637927172633
 22
8.760898242159814
 32
0.0
 13
14.45637927172633
 23
8.760898242159814
 33
0.0
  0
LINE
  5
1E3
330
1E
100
AcDbEntity
  8
INSTRUCT-CALLOUT
100
AcDbLine
 10
14.55284871875005
 20
8.787235398250381
 30
0.0
 11
14.8087301356749
 21
8.857093669714998
 31
0.0
  0
TEXT
  5
1E4
330
1E
100
AcDbEntity
  8
INSTRUCT-CALLOUT
100
AcDbText
 10
14.88884075397835
 20
8.840015114828203
 30
0.0
 40
0.1
  1
1
  7
ROMANS
 72
     4
 11
14.92931694445454
 21
8.890015114828203
 31
0.0
100
AcDbText
  0
CIRCLE
  5
1E5
330
1E
100
AcDbEntity
  8
INSTRUCT-CALLOUT
100
AcDbCircle
 10
14.92931694445454
 20
8.890015114828203
 30
0.0
 40
0.125
  0
TEXT
  5
1E6
330
1E
100
AcDbEntity
  8
INSTRUCT-CALLOUT
100
AcDbText
 10
11.8797545305326
 20
8.22620338496676
 30
0.0
 40
0.10000000149
  1
LAYER "INSTRUCT-CALLOUT".
  7
ROMANS
100
AcDbText
  0
TEXT
  5
1E7
330
1E
100
AcDbEntity
  8
INSTRUCT-CALLOUT
100
AcDbText
 10
11.8797545305326
 20
8.38810342845476
 30
0.0
 40
0.10000000149
  1
TO TURN OFF THIS INSTRUCTION BOX, TURN OFF
  7
ROMANS
100
AcDbText
  0
LEADER
  5
23F
330
1E
100
AcDbEntity
  8
TEXT_LEADERS
100
AcDbLeader
  3
Standard
 76
     3
 10
4.474018981541735
 20
3.75358823433444
 30
0.0
 10
4.547671385504213
 20
3.310737045302793
 30
0.0
 10
4.734025262982872
 20
3.310737045302793
 30
0.0
211
-1.0
221
0.0
231
0.0
210
0.0
220
0.0
230
-1.0
  0
LEADER
  5
241
330
1E
100
AcDbEntity
  8
TEXT_LEADERS
100
AcDbLeader
  3
Standard
 76
     3
 10
3.73361143529647
 20
3.78091193893075
 30
0.0
 10
4.547671385504212
 20
3.016668442865828
 30
0.0
 10
4.734025262982871
 20
3.016668442865829
 30
0.0
211
-1.0
221
0.0
231
0.0
210
0.0
220
0.0
230
-1.0
  0
LEADER
  5
242
330
1E
100
AcDbEntity
  8
TEXT_LEADERS
100
AcDbLeader
  3
Standard
 76
     3
 10
4.546326699625014
 20
4.111312269853801
 30
0.0
 10
4.553141627621172
 20
4.745264992826257
 30
0.0
 10
4.734025262982871
 20
4.745264992826257
 30
0.0
  0
LEADER
  5
243
330
1E
100
AcDbEntity
  8
TEXT_LEADERS
100
AcDbLeader
  3
Standard
 76
     3
 10
3.505707469174744
 20
4.523441767280123
 30
0.0
 10
4.553141627621172
 20
5.246731338170839
 30
0.0
 10
4.734025262982871
 20
5.246731338170837
 30
0.0
  0
LEADER
  5
244
330
1E
100
AcDbEntity
  8
TEXT_LEADERS
100
AcDbLeader
  3
Standard
 76
     3
 10
2.57785689389679
 20
4.741874110245655
 30
0.0
 10
4.553141627621174
 20
6.271877314866168
 30
0.0
 10
4.734025262982871
 20
6.271877314866168
 30
0.0
  0
LEADER
  5
245
330
1E
100
AcDbEntity
  8
TEXT_LEADERS
100
AcDbLeader
  3
Standard
 76
     3
 10
3.136644906003819
 20
4.687089566938462
 30
0.0
 10
4.553141627621174
 20
5.675984455753914
 30
0.0
 10
4.734025262982871
 20
5.675984455753914
 30
0.0
  0
LEADER
  5
248
330
1E
100
AcDbEntity
  8
TEXT_LEADERS
100
AcDbLeader
  3
Standard
 76
     3
 10
2.851284916156356
 20
4.760482772980639
 30
0.0
 10
4.553141627621174
 20
5.880510859911586
 30
0.0
 10
4.734025262982871
 20
5.880510859911584
 30
0.0
  0
LEADER
  5
24E
330
1E
100
AcDbEntity
  8
TEXT_LEADERS
100
AcDbLeader
  3
Standard
 76
     3
 10
2.322946843570484
 20
5.03107958627089
 30
0.0
 10
4.547671385504211
 20
7.06684043957772
 30
0.0
 10
4.734025262982871
 20
7.06684043957772
 30
0.0
  0
LEADER
  5
24F
330
1E
100
AcDbEntity
  8
TEXT_LEADERS
100
AcDbLeader
  3
Standard
 76
     3
 10
2.540423729801946
 20
5.874858882983188
 30
0.0
 10
4.547671385504212
 20
7.540743843366833
 30
0.0
 10
4.734025262982871
 20
7.540743843366831
 30
0.0
  0
LEADER
  5
256
330
1E
100
AcDbEntity
  8
TEXT_BUBBLES
100
AcDbLeader
  3
Standard
 76
     2
 10
4.483314905977614
 20
3.755706774540516
 30
0.0
 10
4.617046655040905
 20
3.220286381451812
 30
0.0
  0
LEADER
  5
257
330
1E
100
AcDbEntity
  8
TEXT_BUBBLES
100
AcDbLeader
  3
Standard
 76
     2
 10
1.167632068974923
 20
5.879796182786483
 30
0.0
 10
0.8721571422536133
 20
5.344062810817391
 30
0.0
  0
LEADER
  5
258
330
1E
100
AcDbEntity
  8
TEXT_BUBBLES
100
AcDbLeader
  3
Standard
 76
     2
 10
4.704179086457722
 20
3.812907982087654
 30
0.0
 10
4.993233733430813
 20
3.220286381451812
 30
0.0
  0
LEADER
  5
259
330
1E
100
AcDbEntity
  8
TEXT_BUBBLES
100
AcDbLeader
  3
Standard
 76
     2
 10
3.122893516378486
 20
4.444627001929838
 30
0.0
 10
3.51101141608872
 20
3.220328495254515
 30
0.0
  0
LEADER
  5
25A
330
1E
100
AcDbEntity
  8
TEXT_BUBBLES
100
AcDbLeader
  3
Standard
 76
     2
 10
5.204540847936281
 20
3.779305749036575
 30
0.0
 10
5.344296013277512
 20
3.219769467732393
 30
0.0
  0
LEADER
  5
25B
330
1E
100
AcDbEntity
  8
TEXT_BUBBLES
100
AcDbLeader
  3
Standard
 76
     2
 10
4.04801766801051
 20
4.080051972769681
 30
0.0
 10
4.275724424702433
 20
3.221422659776052
 30
0.0
  0
LEADER
  5
25D
330
1E
100
AcDbEntity
  8
TEXT_BUBBLES
100
AcDbLeader
  3
Standard
 76
     2
 10
1.910969058511549
 20
4.502293051555213
 30
0.0
 10
0.8721571422536133
 20
4.878278660848586
 30
0.0
  0
INSERT
  5
274
330
1E
100
AcDbEntity
  8
TITLE
100
AcDbBlockReference
 66
     1
  2
titleblock
 10
0.1064708094271038
 20
-0.1143646667846376
 30
0.0
  0
ATTRIB
  5
275
330
274
100
AcDbEntity
  8
TITLE
100
AcDbText
 10
0.6120264132294459
 20
0.6698624296937297
 30
0.0
 40
0.2
  1
D
  7
L200
 72
     4
 11
0.7129131799415878
 21
0.7698624296937297
 31
0.0
100
AcDbAttribute
  2
D
 70
     0
  0
ATTRIB
  5
276
330
274
100
AcDbEntity
  8
TITLE
100
AcDbText
 10
1.337913179941587
 20
1.229347635962112
 30
0.0
 40
0.2
  1

  7
L200
100
AcDbAttribute
  2
TITLE1
 70
     0
  0
ATTRIB
  5
277
330
274
100
AcDbEntity
  8
TITLE
100
AcDbText
 10
1.337913179941587
 20
0.8698624296937298
 30
0.0
 40
0.2
  1
POP-UP SPRAY SPRINKLER
  7
L200
100
AcDbAttribute
  2
TITLE2
 70
     0
  0
ATTRIB
  5
278
330
274
100
AcDbEntity
  8
TITLE
100
AcDbText
 10
2.820116560595416
 20
0.4784280996736813
 30
0.0
 40
0.2
  1
1812-SI WITH SWING JOINT
  7
L200
100
AcDbAttribute
  2
TITLE3
 70
     0
  0
ATTRIB
  5
279
330
274
100
AcDbEntity
  8
TITLE
100
AcDbText
 10
2.820116560595416
 20
0.1548914140321366
 30
0.0
 40
0.2
  1

  7
L200
100
AcDbAttribute
  2
TITLE4
 70
     0
  0
ATTRIB
  5
27A
330
274
100
AcDbEntity
  8
TITLE
 62
     7
100
AcDbText
 10
7.796066591774437
 20
0.8552381247600022
 30
0.0
 40
0.08
  1
4-13-04
  7
L80
 72
     2
 11
8.367495163203008
 21
0.8552381247600022
 31
0.0
100
AcDbAttribute
  2
REVISED
 70
     0
  0
ATTRIB
  5
27B
330
274
100
AcDbEntity
  8
TITLE
 62
     7
100
AcDbText
 10
0.3704131799415877
 20
-0.0296530187639163
 30
0.0
 40
0.08
  1
S-1812-SI-SJ.DWG
  7
L80
100
AcDbAttribute
  2
DWG-NAME
 70
     0
  0
ATTRIB
  5
27C
330
274
100
AcDbEntity
  8
TITLE
 62
     7
100
AcDbText
 10
1.337913179941587
 20
0.5861991126108518
 30
0.0
 40
0.1
  1
N.T.S.
  7
L100
100
AcDbAttribute
  2
SCALE
 70
     0
  0
SEQEND
  5
27D
330
274
100
AcDbEntity
  8
IMAGE
  0
TEXT
  5
27F
330
1E
100
AcDbEntity
  8
OPTION-NOZ-PLASTIC
100
AcDbText
 10
4.760000000000001
 20
6.636230316201615
 30
0.0
 40
0.125
  1
  WITH PLASTIC MPR NOZZLE
  7
ROMANS
100
AcDbText
  0
TEXT
  5
325
330
1E
100
AcDbEntity
  8
INSTRUCT-OPTION
100
AcDbText
 10
12.0761731603131
 20
4.907647271164225
 30
0.0
 40
0.1
  1
%%uNON-POTABLE CAP%%u
  7
ROMANS
100
AcDbText
  0
TEXT
  5
326
330
1E
100
AcDbEntity
  8
INSTRUCT-OPTION
100
AcDbText
 10
12.0761731603131
 20
4.702568690455019
 30
0.0
 40
0.1
  1
  OPTION-PRS-NP
  7
ROMANS
100
AcDbText
  0
TEXT
  5
327
330
1E
100
AcDbEntity
  8
INSTRUCT-OPTION
100
AcDbText
 10
12.0761731603131
 20
5.067871185007053
 30
0.0
 40
0.1
  1
PRS SERIES WITH
  7
ROMANS
100
AcDbText
  0
TEXT
  5
328
330
1E
100
AcDbEntity
  8
INSTRUCT-OPTION
100
AcDbText
 10
14.20846785822187
 20
5.362985121047954
 30
0.0
 40
0.1
  1
  OPTION-PRS-VPC
  7
ROMANS
100
AcDbText
  0
TEXT
  5
329
330
1E
100
AcDbEntity
  8
INSTRUCT-OPTION
100
AcDbText
 10
14.20846785822187
 20
5.567060077301753
 30
0.0
 40
0.1
  1
%%uVANDAL-PROOF CAP%%u
  7
ROMANS
100
AcDbText
  0
TEXT
  5
32A
330
1E
100
AcDbEntity
  8
INSTRUCT-OPTION
100
AcDbText
 10
14.20846785822187
 20
5.730239864938352
 30
0.0
 40
0.1
  1
PRS SERIES WITH
  7
ROMANS
100
AcDbText
  0
TEXT
  5
331
330
1E
100
AcDbEntity
  8
INSTRUCT-OPTION
100
AcDbText
 10
12.07072474121744
 20
5.36675279651005
 30
0.0
 40
0.1
  1
  OPTION-NP
  7
ROMANS
100
AcDbText
  0
TEXT
  5
332
330
1E
100
AcDbEntity
  8
INSTRUCT-OPTION
100
AcDbText
 10
12.07072474121744
 20
5.571831377219256
 30
0.0
 40
0.1
  1
%%uNON-POTABLE CAP%%u
  7
ROMANS
100
AcDbText
  0
TEXT
  5
335
330
1E
100
AcDbEntity
  8
INSTRUCT-OPTION
100
AcDbText
 10
12.05874795037583
 20
6.006184561749276
 30
0.0
 40
0.1
  1
  OPTION-VPC
  7
ROMANS
100
AcDbText
  0
TEXT
  5
336
330
1E
100
AcDbEntity
  8
INSTRUCT-OPTION
100
AcDbText
 10
12.05874795037583
 20
6.210259518003074
 30
0.0
 40
0.1
  1
%%uVANDAL-PROOF CAP%%u
  7
ROMANS
100
AcDbText
  0
TEXT
  5
337
330
1E
100
AcDbEntity
  8
INSTRUCT-OPTION
100
AcDbText
 10
14.20846785822187
 20
5.999681170517595
 30
0.0
 40
0.1
  1
  OPTION-PRS
  7
ROMANS
100
AcDbText
  0
TEXT
  5
338
330
1E
100
AcDbEntity
  8
INSTRUCT-OPTION
100
AcDbText
 10
14.20846785822187
 20
6.204759751226799
 30
0.0
 40
0.1
  1
%%uPRS SERIES%%u
  7
ROMANS
100
AcDbText
  0
TEXT
  5
33B
330
1E
100
AcDbEntity
  8
INSTRUCT-OPTION
100
AcDbText
 10
12.03529642611554
 20
6.419800947681016
 30
0.0
 40
0.1
  1
BY TURNING ON THE APPROPRIATE LAYER:
  7
ROMANS
100
AcDbText
  0
TEXT
  5
33C
330
1E
100
AcDbEntity
  8
INSTRUCT-OPTION
100
AcDbText
 10
12.03529642611554
 20
6.559800947681017
 30
0.0
 40
0.1
  1
CHOOSE ONE OF THE FOLLOWING OPTIONS
  7
ROMANS
100
AcDbText
  0
TEXT
  5
33D
330
1E
100
AcDbEntity
  8
INSTRUCT-OPTION
100
AcDbText
 10
12.03529642611554
 20
7.489569674223361
 30
0.0
 40
0.1
  1
BY TURNING ON THE APPROPRIATE LAYER:
  7
ROMANS
100
AcDbText
  0
TEXT
  5
33E
330
1E
100
AcDbEntity
  8
INSTRUCT-OPTION
100
AcDbText
 10
12.05874795037583
 20
7.137674265325006
 30
0.0
 40
0.1
  1
  OPTION-NOZ-PLASTIC
  7
ROMANS
100
AcDbText
  0
TEXT
  5
33F
330
1E
100
AcDbEntity
  8
INSTRUCT-OPTION
100
AcDbText
 10
12.17937148995138
 20
7.829318534195838
 30
0.0
 40
0.1
  1
CHOOSING NOZZLES AND OPTIONAL FEATURES
  7
ROMANS
100
AcDbText
  0
TEXT
  5
340
330
1E
100
AcDbEntity
  8
INSTRUCT-OPTION
100
AcDbText
 10
12.01791246413647
 20
4.296784725803757
 30
0.0
 40
0.1
  1
TO TURN OFF THIS INSTRUCTION BOX, TURN OFF
  7
ROMANS
100
AcDbText
  0
TEXT
  5
341
330
1E
100
AcDbEntity
  8
INSTRUCT-OPTION
100
AcDbText
 10
12.01791246413647
 20
4.126864154376555
 30
0.0
 40
0.1
  1
LAYER "INSTRUCT-OPTION".
  7
ROMANS
100
AcDbText
  0
TEXT
  5
342
330
1E
100
AcDbEntity
  8
INSTRUCT-OPTION
100
AcDbText
 10
14.22206868272057
 20
7.135312562671608
 30
0.0
 40
0.1
  1
  OPTION-NOZ-U-SERIES
  7
ROMANS
100
AcDbText
  0
TEXT
  5
343
330
1E
100
AcDbEntity
  8
INSTRUCT-OPTION
100
AcDbText
 10
12.05874795037583
 20
6.758976339271194
 30
0.0
 40
0.1
  1
  OPTION-NOZ-VAN
  7
ROMANS
100
AcDbText
  0
TEXT
  5
346
330
1E
100
AcDbEntity
  8
INSTRUCT-OPTION
100
AcDbText
 10
12.03529642611554
 20
7.629569674223359
 30
0.0
 40
0.1
  1
CHOOSE A DIFFERENT SPRINKLER NOZZLE 
  7
ROMANS
100
AcDbText
  0
TEXT
  5
348
330
1E
100
AcDbEntity
  8
INSTRUCT-OPTION
100
AcDbText
 10
12.05874795037583
 20
7.318363203029715
 30
0.0
 40
0.1
  1
%%uPLASTIC MPR NOZZLE%%u
  7
ROMANS
100
AcDbText
  0
TEXT
  5
350
330
1E
100
AcDbEntity
  8
INSTRUCT-OPTION
100
AcDbText
 10
14.20846785822187
 20
7.310514317755647
 30
0.0
 40
0.1
  1
%%uU-SERIES NOZZLE%%u
  7
ROMANS
100
AcDbText
  0
TEXT
  5
351
330
1E
100
AcDbEntity
  8
INSTRUCT-OPTION
100
AcDbText
 10
12.05874795037583
 20
6.925102260931662
 30
0.0
 40
0.1
  1
%%uVAN NOZZLE%%u
  7
ROMANS
100
AcDbText
  0
LINE
  5
352
330
1E
100
AcDbEntity
  8
INSTRUCT-OPTION
100
AcDbLine
 10
16.37349811392792
 20
4.461714493038288
 30
0.0
 11
16.37349811392792
 21
7.794199907622217
 31
0.0
  0
LINE
  5
353
330
1E
100
AcDbEntity
  8
INSTRUCT-OPTION
100
AcDbLine
 10
16.37349811392793
 20
7.794199907622218
 30
0.0
 11
11.96921235548396
 21
7.794199907622219
 31
0.0
  0
LINE
  5
354
330
1E
100
AcDbEntity
  8
INSTRUCT-OPTION
100
AcDbLine
 10
11.96921235548396
 20
4.461714493038288
 30
0.0
 11
16.37349811392792
 21
4.461714493038288
 31
0.0
  0
LINE
  5
355
330
1E
100
AcDbEntity
  8
INSTRUCT-OPTION
100
AcDbLine
 10
11.96921235548396
 20
7.794199907622219
 30
0.0
 11
11.96921235548396
 21
4.461714493038288
 31
0.0
  0
CIRCLE
  5
35E
330
1E
100
AcDbEntity
  8
OPTION-PRS-VPC
100
AcDbCircle
 10
2.115883913130373
 20
5.758578789772615
 30
0.0
 40
0.0139560404963533
  0
TEXT
  5
361
330
1E
100
AcDbEntity
  8
OPTION-VPC
100
AcDbText
 10
6.940709443719597
 20
6.790724731893574
 30
0.0
 40
0.125
  1
WITH 1800 VPC
  7
ROMANS
100
AcDbText
  0
TEXT
  5
367
330
1E
100
AcDbEntity
  8
OPTION-PRS-NP
100
AcDbText
 10
6.916884775274318
 20
6.800940392364688
 30
0.0
 40
0.125
  1
-PRS WITH 1800 NP
  7
ROMANS
100
AcDbText
  0
TEXT
  5
36C
330
1E
100
AcDbEntity
  8
OPTION-PRS-VPC
100
AcDbText
 10
6.898797131378653
 20
6.800940392364688
 30
0.0
 40
0.125
  1
-PRS WITH 1800 VPC
  7
ROMANS
100
AcDbText
  0
CIRCLE
  5
374
330
1E
100
AcDbEntity
  8
OPTION-VPC
100
AcDbCircle
 10
2.115883913130373
 20
5.758578789772615
 30
0.0
 40
0.0139560404963533
  0
LWPOLYLINE
  5
80A
330
1E
100
AcDbEntity
  8
IMAGE
100
AcDbPolyline
 90
        4
 70
     0
 43
0.0
 10
1.450212462897751
 20
4.026168562945791
 42
0.6332430429610296
 10
1.450212462897751
 20
3.90354025093827
 42
-0.6332430429610812
 10
1.450212462897751
 20
3.780911938930751
 42
-0.6134111328532366
 10
1.450212462897751
 20
3.90354025093827
 42
-0.6134111328532366
  0
LINE
  5
80B
330
1E
100
AcDbEntity
  8
IMAGE
100
AcDbLine
 10
1.910969058511546
 20
3.78091193893075
 30
0.0
 11
1.450212462897751
 21
3.780911938930751
 31
0.0
  0
LINE
  5
80C
330
1E
100
AcDbEntity
  8
IMAGE
100
AcDbLine
 10
1.910969058511546
 20
4.026168562945791
 30
0.0
 11
1.450212462897751
 21
4.026168562945791
 31
0.0
  0
ARC
  5
80D
330
1E
100
AcDbEntity
  8
IMAGE
100
AcDbCircle
 10
2.500854036949987
 20
4.748335862097915
 30
0.0
 40
0.0280554720307238
100
AcDbArc
 50
0.0
 51
90.0
  0
ARC
  5
80E
330
1E
100
AcDbEntity
  8
IMAGE
100
AcDbCircle
 10
2.500854036949987
 20
4.529829918945729
 30
0.0
 40
0.0280554720307238
100
AcDbArc
 50
270.0000000000004
 51
0.0
  0
LWPOLYLINE
  5
80F
330
1E
100
AcDbEntity
  8
IMAGE
100
AcDbPolyline
 90
        2
 70
     0
 43
0.0
 10
2.554031891133866
 20
4.551045181965371
 10
2.554036409008378
 20
4.726694665609468
  0
LINE
  5
810
330
1E
100
AcDbEntity
  8
IMAGE
100
AcDbLine
 10
2.577851604126851
 20
4.536214268201204
 30
0.0
 11
2.57785689389679
 21
4.741874110245655
 31
0.0
  0
LINE
  5
811
330
1E
100
AcDbEntity
  8
IMAGE
100
AcDbLine
 10
2.528909508980709
 20
4.741875369219712
 30
0.0
 11
2.76863304110521
 21
4.741803359342974
 31
0.0
  0
LINE
  5
812
330
1E
100
AcDbEntity
  8
IMAGE
100
AcDbLine
 10
2.52890421921077
 20
4.53621552717526
 30
0.0
 11
2.768627751335267
 21
4.536143517298519
 31
0.0
  0
LWPOLYLINE
  5
813
330
1E
100
AcDbEntity
  8
IMAGE
100
AcDbPolyline
 90
        2
 70
     0
 43
0.0
 10
2.744914611536112
 20
4.55097442832152
 10
2.744919129410626
 20
4.726623911965621
  0
LINE
  5
814
330
1E
100
AcDbEntity
  8
IMAGE
100
AcDbLine
 10
2.719580355594055
 20
4.536144778844951
 30
0.0
 11
2.719585645363994
 21
4.741804620889404
 31
0.0
  0
LINE
  5
815
330
1E
100
AcDbEntity
  8
IMAGE
100
AcDbLine
 10
2.768627315262054
 20
4.519189519465644
 30
0.0
 11
2.768633517371285
 21
4.760320006937011
 31
0.0
  0
LWPOLYLINE
  5
816
330
1E
100
AcDbEntity
  8
IMAGE
100
AcDbPolyline
 90
        2
 70
     0
 43
0.0
 10
3.301523655312387
 20
4.591767056378389
 10
3.235166989310342
 20
4.429133929365649
  0
LINE
  5
817
330
1E
100
AcDbEntity
  8
IMAGE
100
AcDbLine
 10
3.329099436202002
 20
4.596396545507582
 30
0.0
 11
3.251405490478663
 21
4.405976952356903
 31
0.0
  0
ARC
  5
818
330
1E
100
AcDbEntity
  8
IMAGE
100
AcDbCircle
 10
2.961557634036744
 20
4.639438370316964
 30
0.0
 40
0.121261569768526
100
AcDbArc
 50
269.3776421701227
 51
90.23566434024017
  0
LINE
  5
819
330
1E
100
AcDbEntity
  8
IMAGE
100
AcDbLine
 10
2.768627315262054
 20
4.519189519465644
 30
0.0
 11
2.961554515071955
 21
4.518176800588552
 31
0.0
  0
LINE
  5
81A
330
1E
100
AcDbEntity
  8
IMAGE
100
AcDbLine
 10
2.768633517371285
 20
4.760320006937011
 30
0.0
 11
2.961560753001537
 21
4.76069994004538
 31
0.0
  0
LINE
  5
81B
330
1E
100
AcDbEntity
  8
IMAGE
100
AcDbLine
 10
3.201272700456626
 20
4.412808557729286
 30
0.0
 11
2.941456545942318
 21
4.518282299412714
 31
0.0
  0
LINE
  5
81C
330
1E
100
AcDbEntity
  8
IMAGE
100
AcDbLine
 10
3.287708484542304
 20
4.625412839846722
 30
0.0
 11
3.049897739358198
 21
4.722506981082538
 31
0.0
  0
LINE
  5
81D
330
1E
100
AcDbEntity
  8
IMAGE
100
AcDbLine
 10
3.287708484542304
 20
4.625412839846722
 30
0.0
 11
3.201272700456626
 21
4.412808557729288
 31
0.0
  0
LINE
  5
81E
330
1E
100
AcDbEntity
  8
IMAGE
100
AcDbLine
 10
4.422184035044545
 20
3.927386688011729
 30
0.0
 11
3.205710970521763
 21
4.423725277361361
 31
0.0
  0
LINE
  5
81F
330
1E
100
AcDbEntity
  8
IMAGE
100
AcDbLine
 10
4.39227746494823
 20
3.78091193893075
 30
0.0
 11
2.322946843570483
 21
3.78091193893075
 31
0.0
  0
LINE
  5
820
330
1E
100
AcDbEntity
  8
IMAGE
100
AcDbLine
 10
4.180080171474716
 20
4.026168562945791
 30
0.0
 11
2.322946843570483
 21
4.026168562945791
 31
0.0
  0
LINE
  5
821
330
1E
100
AcDbEntity
  8
IMAGE
100
AcDbLine
 10
4.392277464948224
 20
3.939589000785267
 30
0.0
 11
4.39227746494823
 21
3.753588234334443
 31
0.0
  0
LINE
  5
822
330
1E
100
AcDbEntity
  8
IMAGE
100
AcDbLine
 10
4.455322889533124
 20
4.136214360279508
 30
0.0
 11
4.377628943809781
 21
3.945794767128829
 31
0.0
  0
LWPOLYLINE
  5
823
330
1E
100
AcDbEntity
  8
IMAGE
100
AcDbPolyline
 90
        2
 70
     0
 43
0.0
 10
4.472209185899511
 20
4.1132612831999
 10
4.405852519897464
 20
3.950628156187157
  0
LINE
  5
824
330
1E
100
AcDbEntity
  8
IMAGE
100
AcDbLine
 10
4.500260776150001
 20
4.117649645930713
 30
0.0
 11
3.283787711627222
 21
4.613988235280352
 31
0.0
  0
LINE
  5
825
330
1E
100
AcDbEntity
  8
IMAGE
100
AcDbLine
 10
4.504387900520447
 20
4.128449874215238
 30
0.0
 11
4.417259256975717
 21
3.916128596385549
 31
0.0
  0
LINE
  5
826
330
1E
100
AcDbEntity
  8
IMAGE
100
AcDbLine
 10
4.504387900520447
 20
4.128449874215238
 30
0.0
 11
4.785018672219073
 21
4.01377469896702
 31
0.0
  0
LINE
  5
827
330
1E
100
AcDbEntity
  8
IMAGE
100
AcDbLine
 10
4.417259256975717
 20
3.916128596385549
 30
0.0
 11
4.697719649982121
 21
3.801038230217586
 31
0.0
  0
LINE
  5
828
330
1E
100
AcDbEntity
  8
IMAGE
100
AcDbLine
 10
4.785018672219073
 20
4.01377469896702
 30
0.0
 11
4.794203298731747
 21
3.984946857321066
 31
0.0
  0
LINE
  5
829
330
1E
100
AcDbEntity
  8
IMAGE
100
AcDbLine
 10
4.697719649982121
 20
3.801038230217586
 30
0.0
 11
4.725435549147502
 21
3.811820763995104
 31
0.0
  0
LINE
  5
82A
330
1E
100
AcDbEntity
  8
IMAGE
100
AcDbLine
 10
4.725435549147502
 20
3.811820763995104
 30
0.0
 11
4.794203298731747
 21
3.984946857321066
 31
0.0
  0
ARC
  5
82B
330
1E
100
AcDbEntity
  8
IMAGE
100
AcDbCircle
 10
4.738541638343165
 20
3.906835600931259
 30
0.0
 40
0.0959144869767252
100
AcDbArc
 50
262.1463349284187
 51
54.52653245848632
  0
LINE
  5
82C
330
1E
100
AcDbEntity
  8
IMAGE
100
AcDbLine
 10
5.083301514163259
 20
3.75358823433444
 30
0.0
 11
4.39227746494823
 21
3.75358823433444
 31
0.0
  0
LINE
  5
82D
330
1E
100
AcDbEntity
  8
IMAGE
100
AcDbLine
 10
4.785018672219076
 20
4.013774698967022
 30
0.0
 11
4.697719649982121
 21
3.801038230217586
 31
0.0
  0
LINE
  5
82E
330
1E
100
AcDbEntity
  8
IMAGE
100
AcDbLine
 10
5.328204635668329
 20
4.027935967410618
 30
0.0
 11
5.083301514163259
 21
4.027935967410618
 31
0.0
  0
LINE
  5
82F
330
1E
100
AcDbEntity
  8
IMAGE
100
AcDbLine
 10
4.676405080700196
 20
4.058157866808434
 30
0.0
 11
5.083301514163259
 21
4.058157866808437
 31
0.0
  0
LWPOLYLINE
  5
830
330
1E
100
AcDbEntity
  8
IMAGE
100
AcDbPolyline
 90
        4
 70
     0
 43
0.0
 10
5.328204635668329
 20
4.027935967410618
 42
-0.6332430429610296
 10
5.328204635668329
 20
3.905307655403101
 42
0.6332430429610812
 10
5.328204635668329
 20
3.78267934339558
 42
0.6134111328532366
 10
5.328204635668327
 20
3.905307655403098
 42
0.6134111328532366
  0
LINE
  5
831
330
1E
100
AcDbEntity
  8
IMAGE
100
AcDbLine
 10
5.083301514163259
 20
4.058157866808434
 30
0.0
 11
5.083301514163257
 21
3.75358823433444
 31
0.0
  0
LINE
  5
832
330
1E
100
AcDbEntity
  8
IMAGE
100
AcDbLine
 10
5.328204635668329
 20
3.78267934339558
 30
0.0
 11
5.083301514163257
 21
3.78267934339558
 31
0.0
  0
ARC
  5
833
330
1E
100
AcDbEntity
  8
IMAGE
100
AcDbCircle
 10
3.478617695385396
 20
6.714351888101774
 30
0.0
 40
0.1566980695398199
100
AcDbArc
 50
98.53076560994793
 51
187.7294390983635
  0
ARC
  5
834
330
1E
100
AcDbEntity
  8
IMAGE
100
AcDbCircle
 10
3.300098686549567
 20
6.848241144728646
 30
0.0
 40
0.1566980695398199
100
AcDbArc
 50
278.5307656099478
 51
7.729439098363577
  0
ARC
  5
835
330
1E
100
AcDbEntity
  8
IMAGE
100
AcDbCircle
 10
3.056122707807267
 20
6.608728141207242
 30
0.0
 40
0.1566980695398199
100
AcDbArc
 50
98.53076560994793
 51
187.7294390983635
  0
ARC
  5
836
330
1E
100
AcDbEntity
  8
IMAGE
100
AcDbCircle
 10
2.877603698971439
 20
6.742617397834115
 30
0.0
 40
0.1566980695398199
100
AcDbArc
 50
278.5307656099478
 51
7.729439098363577
  0
ARC
  5
837
330
1E
100
AcDbEntity
  8
IMAGE
100
AcDbCircle
 10
3.168728363558543
 20
6.378729940001592
 30
0.0
 40
0.1566980695398199
100
AcDbArc
 50
159.7199718669747
 51
248.9186453553905
  0
ARC
  5
838
330
1E
100
AcDbEntity
  8
IMAGE
100
AcDbCircle
 10
2.965380809352462
 20
6.286832487619998
 30
0.0
 40
0.1566980695398199
100
AcDbArc
 50
339.7199718669747
 51
68.91864535539045
  0
ARC
  5
839
330
1E
100
AcDbEntity
  8
IMAGE
100
AcDbCircle
 10
3.487419674293273
 20
6.476698457589078
 30
0.0
 40
0.1566980695398199
100
AcDbArc
 50
98.53076560994793
 51
187.7294390983635
  0
ARC
  5
83A
330
1E
100
AcDbEntity
  8
IMAGE
100
AcDbCircle
 10
3.308900665457444
 20
6.610587714215949
 30
0.0
 40
0.1566980695398199
100
AcDbArc
 50
278.5307656099478
 51
7.729439098363577
  0
ARC
  5
83B
330
1E
100
AcDbEntity
  8
IMAGE
100
AcDbCircle
 10
2.673714195097809
 20
6.732349694788069
 30
0.0
 40
0.1566980695398199
100
AcDbArc
 50
143.5307656099477
 51
232.7294390983634
  0
ARC
  5
83C
330
1E
100
AcDbEntity
  8
IMAGE
100
AcDbCircle
 10
2.452808192090407
 20
6.700791694358441
 30
0.0
 40
0.1566980695398199
100
AcDbArc
 50
323.5307656099477
 51
52.72943909836341
  0
ARC
  5
83D
330
1E
100
AcDbEntity
  8
IMAGE
100
AcDbCircle
 10
2.81846927729457
 20
6.05420347001095
 30
0.0
 40
0.1566980695398199
100
AcDbArc
 50
98.53076560994793
 51
187.7294390983635
  0
ARC
  5
83E
330
1E
100
AcDbEntity
  8
IMAGE
100
AcDbCircle
 10
2.639950268458741
 20
6.188092726637821
 30
0.0
 40
0.1566980695398199
100
AcDbArc
 50
278.5307656099478
 51
7.729439098363577
  0
ARC
  5
83F
330
1E
100
AcDbEntity
  8
IMAGE
100
AcDbCircle
 10
3.1617464547018
 20
5.930975765300662
 30
0.0
 40
0.1566980695398199
100
AcDbArc
 50
98.53076560994793
 51
187.7294390983635
  0
ARC
  5
840
330
1E
100
AcDbEntity
  8
IMAGE
100
AcDbCircle
 10
2.983227445865971
 20
6.064865021927534
 30
0.0
 40
0.1566980695398199
100
AcDbArc
 50
278.5307656099478
 51
7.729439098363577
  0
ARC
  5
841
330
1E
100
AcDbEntity
  8
IMAGE
100
AcDbCircle
 10
2.718925399931888
 20
6.498079981409063
 30
0.0
 40
0.1566980695398199
100
AcDbArc
 50
339.7199718669747
 51
68.91864535539045
  0
ARC
  5
842
330
1E
100
AcDbEntity
  8
IMAGE
100
AcDbCircle
 10
2.922272954137969
 20
6.589977433790657
 30
0.0
 40
0.1566980695398199
100
AcDbArc
 50
159.7199718669747
 51
248.9186453553905
  0
ARC
  5
843
330
1E
100
AcDbEntity
  8
IMAGE
100
AcDbCircle
 10
2.736529357747643
 20
6.779743306461147
 30
0.0
 40
0.1566980695398199
100
AcDbArc
 50
339.7199718669747
 51
68.91864535539045
  0
ARC
  5
844
330
1E
100
AcDbEntity
  8
IMAGE
100
AcDbCircle
 10
2.939876911953725
 20
6.871640758842742
 30
0.0
 40
0.1566980695398199
100
AcDbArc
 50
159.7199718669747
 51
248.9186453553905
  0
ARC
  5
845
330
1E
100
AcDbEntity
  8
IMAGE
100
AcDbCircle
 10
3.176628303141526
 20
6.154802804001834
 30
0.0
 40
0.1566980695398199
100
AcDbArc
 50
339.7199718669747
 51
68.91864535539045
  0
ARC
  5
846
330
1E
100
AcDbEntity
  8
IMAGE
100
AcDbCircle
 10
3.379975857347608
 20
6.246700256383427
 30
0.0
 40
0.1566980695398199
100
AcDbArc
 50
159.7199718669747
 51
248.9186453553905
  0
ARC
  5
847
330
1E
100
AcDbEntity
  8
IMAGE
100
AcDbCircle
 10
3.123816429694259
 20
6.084386972738812
 30
0.0
 40
0.1566980695398199
100
AcDbArc
 50
339.7199718669747
 51
68.91864535539045
  0
ARC
  5
848
330
1E
100
AcDbEntity
  8
IMAGE
100
AcDbCircle
 10
3.327163983900343
 20
6.176284425120407
 30
0.0
 40
0.1566980695398199
100
AcDbArc
 50
159.7199718669747
 51
248.9186453553905
  0
ARC
  5
849
330
1E
100
AcDbEntity
  8
IMAGE
100
AcDbCircle
 10
3.291054028943936
 20
6.54208987594845
 30
0.0
 40
0.1566980695398199
100
AcDbArc
 50
339.7199718669747
 51
68.91864535539045
  0
ARC
  5
84A
330
1E
100
AcDbEntity
  8
IMAGE
100
AcDbCircle
 10
3.494401583150017
 20
6.633987328330045
 30
0.0
 40
0.1566980695398199
100
AcDbArc
 50
159.7199718669747
 51
248.9186453553905
  0
ARC
  5
84B
330
1E
100
AcDbEntity
  8
IMAGE
100
AcDbCircle
 10
2.991786746076095
 20
6.50688196031694
 30
0.0
 40
0.1566980695398199
100
AcDbArc
 50
339.7199718669747
 51
68.91864535539045
  0
ARC
  5
84C
330
1E
100
AcDbEntity
  8
IMAGE
100
AcDbCircle
 10
3.195134300282177
 20
6.598779412698535
 30
0.0
 40
0.1566980695398199
100
AcDbArc
 50
159.7199718669747
 51
248.9186453553905
  0
ARC
  5
84D
330
1E
100
AcDbEntity
  8
IMAGE
100
AcDbCircle
 10
3.123816429694259
 20
6.762139348645392
 30
0.0
 40
0.1566980695398199
100
AcDbArc
 50
339.7199718669747
 51
68.91864535539045
  0
ARC
  5
84E
330
1E
100
AcDbEntity
  8
IMAGE
100
AcDbCircle
 10
3.327163983900343
 20
6.854036801026985
 30
0.0
 40
0.1566980695398199
100
AcDbArc
 50
159.7199718669747
 51
248.9186453553905
  0
ARC
  5
84F
330
1E
100
AcDbEntity
  8
IMAGE
100
AcDbCircle
 10
2.833351125734297
 20
6.559693833764207
 30
0.0
 40
0.1566980695398199
100
AcDbArc
 50
339.7199718669747
 51
68.91864535539045
  0
ARC
  5
850
330
1E
100
AcDbEntity
  8
IMAGE
100
AcDbCircle
 10
3.036698679940379
 20
6.6515912861458
 30
0.0
 40
0.1566980695398199
100
AcDbArc
 50
159.7199718669747
 51
248.9186453553905
  0
ARC
  5
851
330
1E
100
AcDbEntity
  8
IMAGE
100
AcDbCircle
 10
2.593106376932768
 20
6.267152743187944
 30
0.0
 40
0.1566980695398199
100
AcDbArc
 50
339.7199718669747
 51
68.91864535539045
  0
ARC
  5
852
330
1E
100
AcDbEntity
  8
IMAGE
100
AcDbCircle
 10
2.79645393113885
 20
6.359050195569537
 30
0.0
 40
0.1566980695398199
100
AcDbArc
 50
159.7199718669747
 51
248.9186453553905
  0
ARC
  5
853
330
1E
100
AcDbEntity
  8
IMAGE
100
AcDbCircle
 10
2.771737273379153
 20
6.146000825093956
 30
0.0
 40
0.1566980695398199
100
AcDbArc
 50
339.7199718669747
 51
68.91864535539045
  0
ARC
  5
854
330
1E
100
AcDbEntity
  8
IMAGE
100
AcDbCircle
 10
2.975084827585235
 20
6.237898277475549
 30
0.0
 40
0.1566980695398199
100
AcDbArc
 50
159.7199718669747
 51
248.9186453553905
  0
ARC
  5
855
330
1E
100
AcDbEntity
  8
IMAGE
100
AcDbCircle
 10
2.833351125734297
 20
6.295634466527875
 30
0.0
 40
0.1566980695398199
100
AcDbArc
 50
339.7199718669747
 51
68.91864535539045
  0
ARC
  5
856
330
1E
100
AcDbEntity
  8
IMAGE
100
AcDbCircle
 10
3.036698679940379
 20
6.38753191890947
 30
0.0
 40
0.1566980695398199
100
AcDbArc
 50
159.7199718669747
 51
248.9186453553905
  0
ARC
  5
857
330
1E
100
AcDbEntity
  8
IMAGE
100
AcDbCircle
 10
3.194232260957281
 20
6.348446339975142
 30
0.0
 40
0.1566980695398199
100
AcDbArc
 50
339.7199718669747
 51
68.91864535539045
  0
ARC
  5
858
330
1E
100
AcDbEntity
  8
IMAGE
100
AcDbCircle
 10
3.397579815163363
 20
6.440343792356737
 30
0.0
 40
0.1566980695398199
100
AcDbArc
 50
159.7199718669747
 51
248.9186453553905
  0
ARC
  5
859
330
1E
100
AcDbEntity
  8
IMAGE
100
AcDbCircle
 10
3.3438659023912
 20
6.119594888370322
 30
0.0
 40
0.1566980695398199
100
AcDbArc
 50
339.7199718669747
 51
68.91864535539045
  0
ARC
  5
85A
330
1E
100
AcDbEntity
  8
IMAGE
100
AcDbCircle
 10
3.547213456597284
 20
6.211492340751917
 30
0.0
 40
0.1566980695398199
100
AcDbArc
 50
159.7199718669747
 51
248.9186453553905
  0
ARC
  5
85B
330
1E
100
AcDbEntity
  8
IMAGE
100
AcDbCircle
 10
2.611243812432205
 20
6.709593673266319
 30
0.0
 40
0.1566980695398199
100
AcDbArc
 50
323.5307656099477
 51
52.72943909836341
  0
ARC
  5
85C
330
1E
100
AcDbEntity
  8
IMAGE
100
AcDbCircle
 10
2.832149815439608
 20
6.741151673695947
 30
0.0
 40
0.1566980695398199
100
AcDbArc
 50
143.5307656099477
 51
232.7294390983634
  0
ARC
  5
85D
330
1E
100
AcDbEntity
  8
IMAGE
100
AcDbCircle
 10
3.068946715641844
 20
6.621573884187544
 30
0.0
 40
0.1566980695398199
100
AcDbArc
 50
323.5307656099477
 51
52.72943909836341
  0
ARC
  5
85E
330
1E
100
AcDbEntity
  8
IMAGE
100
AcDbCircle
 10
3.289852718649248
 20
6.65313188461717
 30
0.0
 40
0.1566980695398199
100
AcDbArc
 50
143.5307656099477
 51
232.7294390983634
  0
ARC
  5
85F
330
1E
100
AcDbEntity
  8
IMAGE
100
AcDbCircle
 10
2.945719010931557
 20
6.824019399068729
 30
0.0
 40
0.1566980695398199
100
AcDbArc
 50
323.5307656099477
 51
52.72943909836341
  0
ARC
  5
860
330
1E
100
AcDbEntity
  8
IMAGE
100
AcDbCircle
 10
3.16662501393896
 20
6.855577399498358
 30
0.0
 40
0.1566980695398199
100
AcDbArc
 50
143.5307656099477
 51
232.7294390983634
  0
ARC
  5
861
330
1E
100
AcDbEntity
  8
IMAGE
100
AcDbCircle
 10
3.192174420352132
 20
6.903237209239629
 30
0.0
 40
0.1566980695398199
100
AcDbArc
 50
323.5307656099477
 51
52.72943909836341
  0
ARC
  5
862
330
1E
100
AcDbEntity
  8
IMAGE
100
AcDbCircle
 10
3.413080423359533
 20
6.934795209669255
 30
0.0
 40
0.1566980695398199
100
AcDbArc
 50
143.5307656099477
 51
232.7294390983634
  0
ARC
  5
863
330
1E
100
AcDbEntity
  8
IMAGE
100
AcDbCircle
 10
3.333006082878175
 20
6.339910559135457
 30
0.0
 40
0.1566980695398199
100
AcDbArc
 50
323.5307656099477
 51
52.72943909836341
  0
ARC
  5
864
330
1E
100
AcDbEntity
  8
IMAGE
100
AcDbCircle
 10
3.553912085885576
 20
6.371468559565085
 30
0.0
 40
0.1566980695398199
100
AcDbArc
 50
143.5307656099477
 51
232.7294390983634
  0
ARC
  5
865
330
1E
100
AcDbEntity
  8
IMAGE
100
AcDbCircle
 10
3.192174420352132
 20
6.023039318451861
 30
0.0
 40
0.1566980695398199
100
AcDbArc
 50
323.5307656099477
 51
52.72943909836341
  0
ARC
  5
866
330
1E
100
AcDbEntity
  8
IMAGE
100
AcDbCircle
 10
3.413080423359533
 20
6.054597318881489
 30
0.0
 40
0.1566980695398199
100
AcDbArc
 50
143.5307656099477
 51
232.7294390983634
  0
ARC
  5
867
330
1E
100
AcDbEntity
  8
IMAGE
100
AcDbCircle
 10
3.033738800010334
 20
5.970227445004596
 30
0.0
 40
0.1566980695398199
100
AcDbArc
 50
323.5307656099477
 51
52.72943909836341
  0
ARC
  5
868
330
1E
100
AcDbEntity
  8
IMAGE
100
AcDbCircle
 10
3.254644803017735
 20
6.001785445434224
 30
0.0
 40
0.1566980695398199
100
AcDbArc
 50
143.5307656099477
 51
232.7294390983634
  0
ARC
  5
869
330
1E
100
AcDbEntity
  8
IMAGE
100
AcDbCircle
 10
2.74327349605037
 20
5.987831402820351
 30
0.0
 40
0.1566980695398199
100
AcDbArc
 50
323.5307656099477
 51
52.72943909836341
  0
ARC
  5
86A
330
1E
100
AcDbEntity
  8
IMAGE
100
AcDbCircle
 10
2.964179499057774
 20
6.019389403249979
 30
0.0
 40
0.1566980695398199
100
AcDbArc
 50
143.5307656099477
 51
232.7294390983634
  0
ARC
  5
86B
330
1E
100
AcDbEntity
  8
IMAGE
100
AcDbCircle
 10
2.928115053115802
 20
6.128663065346394
 30
0.0
 40
0.1566980695398199
100
AcDbArc
 50
323.5307656099477
 51
52.72943909836341
  0
ARC
  5
86C
330
1E
100
AcDbEntity
  8
IMAGE
100
AcDbCircle
 10
3.149021056123204
 20
6.160221065776021
 30
0.0
 40
0.1566980695398199
100
AcDbArc
 50
143.5307656099477
 51
232.7294390983634
  0
ARC
  5
86D
330
1E
100
AcDbEntity
  8
IMAGE
100
AcDbCircle
 10
3.051342757826089
 20
6.348712538043335
 30
0.0
 40
0.1566980695398199
100
AcDbArc
 50
323.5307656099477
 51
52.72943909836341
  0
ARC
  5
86E
330
1E
100
AcDbEntity
  8
IMAGE
100
AcDbCircle
 10
3.27224876083349
 20
6.380270538472963
 30
0.0
 40
0.1566980695398199
100
AcDbArc
 50
143.5307656099477
 51
232.7294390983634
  0
ARC
  5
86F
330
1E
100
AcDbEntity
  8
IMAGE
100
AcDbCircle
 10
3.121758589089109
 20
6.507148158385133
 30
0.0
 40
0.1566980695398199
100
AcDbArc
 50
323.5307656099477
 51
52.72943909836341
  0
ARC
  5
870
330
1E
100
AcDbEntity
  8
IMAGE
100
AcDbCircle
 10
3.342664592096513
 20
6.538706158814761
 30
0.0
 40
0.1566980695398199
100
AcDbArc
 50
143.5307656099477
 51
232.7294390983634
  0
ARC
  5
871
330
1E
100
AcDbEntity
  8
IMAGE
100
AcDbCircle
 10
3.165768483628498
 20
6.595167947463909
 30
0.0
 40
0.1566980695398199
100
AcDbArc
 50
323.5307656099477
 51
52.72943909836341
  0
ARC
  5
872
330
1E
100
AcDbEntity
  8
IMAGE
100
AcDbCircle
 10
3.386674486635902
 20
6.626725947893538
 30
0.0
 40
0.1566980695398199
100
AcDbArc
 50
143.5307656099477
 51
232.7294390983634
  0
ARC
  5
873
330
1E
100
AcDbEntity
  8
IMAGE
100
AcDbCircle
 10
2.848897242944903
 20
6.463138263845744
 30
0.0
 40
0.1566980695398199
100
AcDbArc
 50
323.5307656099477
 51
52.72943909836341
  0
ARC
  5
874
330
1E
100
AcDbEntity
  8
IMAGE
100
AcDbCircle
 10
3.069803245952305
 20
6.494696264275372
 30
0.0
 40
0.1566980695398199
100
AcDbArc
 50
143.5307656099477
 51
232.7294390983634
  0
ARC
  5
875
330
1E
100
AcDbEntity
  8
IMAGE
100
AcDbCircle
 10
2.70806558041886
 20
6.339910559135457
 30
0.0
 40
0.1566980695398199
100
AcDbArc
 50
323.5307656099477
 51
52.72943909836341
  0
ARC
  5
876
330
1E
100
AcDbEntity
  8
IMAGE
100
AcDbCircle
 10
2.928971583426262
 20
6.371468559565085
 30
0.0
 40
0.1566980695398199
100
AcDbArc
 50
143.5307656099477
 51
232.7294390983634
  0
ARC
  5
877
330
1E
100
AcDbEntity
  8
IMAGE
100
AcDbCircle
 10
2.628847770247961
 20
5.987831402820351
 30
0.0
 40
0.1566980695398199
100
AcDbArc
 50
323.5307656099477
 51
52.72943909836341
  0
ARC
  5
878
330
1E
100
AcDbEntity
  8
IMAGE
100
AcDbCircle
 10
2.849753773255364
 20
6.019389403249979
 30
0.0
 40
0.1566980695398199
100
AcDbArc
 50
143.5307656099477
 51
232.7294390983634
  0
ARC
  5
879
330
1E
100
AcDbEntity
  8
IMAGE
100
AcDbCircle
 10
2.47921412881404
 20
6.005435360636106
 30
0.0
 40
0.1566980695398199
100
AcDbArc
 50
323.5307656099477
 51
52.72943909836341
  0
ARC
  5
87A
330
1E
100
AcDbEntity
  8
IMAGE
100
AcDbCircle
 10
2.700120131821443
 20
6.036993361065734
 30
0.0
 40
0.1566980695398199
100
AcDbArc
 50
143.5307656099477
 51
232.7294390983634
  0
ARC
  5
87B
330
1E
100
AcDbEntity
  8
IMAGE
100
AcDbCircle
 10
2.523224023353428
 20
6.128663065346394
 30
0.0
 40
0.1566980695398199
100
AcDbArc
 50
323.5307656099477
 51
52.72943909836341
  0
ARC
  5
87C
330
1E
100
AcDbEntity
  8
IMAGE
100
AcDbCircle
 10
2.744130026360832
 20
6.160221065776021
 30
0.0
 40
0.1566980695398199
100
AcDbArc
 50
143.5307656099477
 51
232.7294390983634
  0
ARC
  5
87D
330
1E
100
AcDbEntity
  8
IMAGE
100
AcDbCircle
 10
2.611243812432205
 20
6.524752116200888
 30
0.0
 40
0.1566980695398199
100
AcDbArc
 50
323.5307656099477
 51
52.72943909836341
  0
ARC
  5
87E
330
1E
100
AcDbEntity
  8
IMAGE
100
AcDbCircle
 10
2.832149815439608
 20
6.556310116630516
 30
0.0
 40
0.1566980695398199
100
AcDbArc
 50
143.5307656099477
 51
232.7294390983634
  0
ARC
  5
87F
330
1E
100
AcDbEntity
  8
IMAGE
100
AcDbCircle
 10
3.333006082878175
 20
6.683187736542686
 30
0.0
 40
0.1566980695398199
100
AcDbArc
 50
323.5307656099477
 51
52.72943909836341
  0
ARC
  5
880
330
1E
100
AcDbEntity
  8
IMAGE
100
AcDbCircle
 10
3.553912085885576
 20
6.714745736972314
 30
0.0
 40
0.1566980695398199
100
AcDbArc
 50
143.5307656099477
 51
232.7294390983634
  0
ARC
  5
881
330
1E
100
AcDbEntity
  8
IMAGE
100
AcDbCircle
 10
2.804887348405515
 20
6.841623356884484
 30
0.0
 40
0.1566980695398199
100
AcDbArc
 50
323.5307656099477
 51
52.72943909836341
  0
ARC
  5
882
330
1E
100
AcDbEntity
  8
IMAGE
100
AcDbCircle
 10
3.025793351412917
 20
6.873181357314113
 30
0.0
 40
0.1566980695398199
100
AcDbArc
 50
143.5307656099477
 51
232.7294390983634
  0
ARC
  5
883
330
1E
100
AcDbEntity
  8
IMAGE
100
AcDbCircle
 10
3.288996188338786
 20
5.996633381728228
 30
0.0
 40
0.1566980695398199
100
AcDbArc
 50
323.5307656099477
 51
52.72943909836341
  0
ARC
  5
884
330
1E
100
AcDbEntity
  8
IMAGE
100
AcDbCircle
 10
3.509902191346189
 20
6.028191382157856
 30
0.0
 40
0.1566980695398199
100
AcDbArc
 50
143.5307656099477
 51
232.7294390983634
  0
ARC
  5
885
330
1E
100
AcDbEntity
  8
IMAGE
100
AcDbCircle
 10
3.034559156876076
 20
6.237835874165826
 30
0.0
 40
0.1566980695398199
100
AcDbArc
 50
296.0563205359582
 51
25.25499402437389
  0
ARC
  5
886
330
1E
100
AcDbEntity
  8
IMAGE
100
AcDbCircle
 10
3.245110026750197
 20
6.163919023914516
 30
0.0
 40
0.1566980695398199
100
AcDbArc
 50
116.0563205359582
 51
205.2549940243739
  0
ARC
  5
887
330
1E
100
AcDbEntity
  8
IMAGE
100
AcDbCircle
 10
2.866314246688714
 20
6.076906091610643
 30
0.0
 40
0.1566980695398199
100
AcDbArc
 50
296.0563205359582
 51
25.25499402437389
  0
ARC
  5
888
330
1E
100
AcDbEntity
  8
IMAGE
100
AcDbCircle
 10
3.076865116562834
 20
6.002989241359333
 30
0.0
 40
0.1566980695398199
100
AcDbArc
 50
116.0563205359582
 51
205.2549940243739
  0
ARC
  5
889
330
1E
100
AcDbEntity
  8
IMAGE
100
AcDbCircle
 10
2.844369258403406
 20
6.230520884049681
 30
0.0
 40
0.1566980695398199
100
AcDbArc
 50
296.0563205359582
 51
25.25499402437389
  0
ARC
  5
88A
330
1E
100
AcDbEntity
  8
IMAGE
100
AcDbCircle
 10
3.054920128277525
 20
6.156604033798371
 30
0.0
 40
0.1566980695398199
100
AcDbArc
 50
116.0563205359582
 51
205.2549940243739
  0
ARC
  5
88B
330
1E
100
AcDbEntity
  8
IMAGE
100
AcDbCircle
 10
2.511536936076233
 20
6.556037944218116
 30
0.0
 40
0.1566980695398199
100
AcDbArc
 50
296.0563205359582
 51
25.25499402437389
  0
ARC
  5
88C
330
1E
100
AcDbEntity
  8
IMAGE
100
AcDbCircle
 10
2.722087805950354
 20
6.482121093966807
 30
0.0
 40
0.1566980695398199
100
AcDbArc
 50
116.0563205359582
 51
205.2549940243739
  0
ARC
  5
88D
330
1E
100
AcDbEntity
  8
IMAGE
100
AcDbCircle
 10
3.261324035824261
 20
6.325615755559562
 30
0.0
 40
0.1566980695398199
100
AcDbArc
 50
296.0563205359582
 51
25.25499402437389
  0
ARC
  5
88E
330
1E
100
AcDbEntity
  8
IMAGE
100
AcDbCircle
 10
3.471874905698379
 20
6.251698905308252
 30
0.0
 40
0.1566980695398199
100
AcDbArc
 50
116.0563205359582
 51
205.2549940243739
  0
ARC
  5
88F
330
1E
100
AcDbEntity
  8
IMAGE
100
AcDbCircle
 10
2.939464207639741
 20
6.537750468927756
 30
0.0
 40
0.1566980695398199
100
AcDbArc
 50
296.0563205359582
 51
25.25499402437389
  0
ARC
  5
890
330
1E
100
AcDbEntity
  8
IMAGE
100
AcDbCircle
 10
3.150015077513862
 20
6.463833618676446
 30
0.0
 40
0.1566980695398199
100
AcDbArc
 50
116.0563205359582
 51
205.2549940243739
  0
ARC
  5
891
330
1E
100
AcDbEntity
  8
IMAGE
100
AcDbCircle
 10
2.997984176400563
 20
6.731597707005589
 30
0.0
 40
0.1566980695398199
100
AcDbArc
 50
296.0563205359582
 51
25.25499402437389
  0
ARC
  5
892
330
1E
100
AcDbEntity
  8
IMAGE
100
AcDbCircle
 10
3.208535046274683
 20
6.657680856754279
 30
0.0
 40
0.1566980695398199
100
AcDbArc
 50
116.0563205359582
 51
205.2549940243739
  0
ARC
  5
893
330
1E
100
AcDbEntity
  8
IMAGE
100
AcDbCircle
 10
2.730986818929314
 20
6.746227687237878
 30
0.0
 40
0.1566980695398199
100
AcDbArc
 50
296.0563205359582
 51
25.25499402437389
  0
ARC
  5
894
330
1E
100
AcDbEntity
  8
IMAGE
100
AcDbCircle
 10
2.941537688803435
 20
6.672310836986568
 30
0.0
 40
0.1566980695398199
100
AcDbArc
 50
116.0563205359582
 51
205.2549940243739
  0
ARC
  5
895
330
1E
100
AcDbEntity
  8
IMAGE
100
AcDbCircle
 10
2.566399406789503
 20
6.932759935199566
 30
0.0
 40
0.1566980695398199
100
AcDbArc
 50
296.0563205359582
 51
25.25499402437389
  0
ARC
  5
896
330
1E
100
AcDbEntity
  8
IMAGE
100
AcDbCircle
 10
2.776950276663624
 20
6.858843084948256
 30
0.0
 40
0.1566980695398199
100
AcDbArc
 50
116.0563205359582
 51
205.2549940243739
  0
ARC
  5
897
330
1E
100
AcDbEntity
  8
IMAGE
100
AcDbCircle
 10
2.551769414599299
 20
6.775487647702457
 30
0.0
 40
0.1566980695398199
100
AcDbArc
 50
296.0563205359582
 51
25.25499402437389
  0
ARC
  5
898
330
1E
100
AcDbEntity
  8
IMAGE
100
AcDbCircle
 10
2.762320284473418
 20
6.701570797451145
 30
0.0
 40
0.1566980695398199
100
AcDbArc
 50
116.0563205359582
 51
205.2549940243739
  0
ARC
  5
899
330
1E
100
AcDbEntity
  8
IMAGE
100
AcDbCircle
 10
2.460331963410514
 20
6.336588240733778
 30
0.0
 40
0.1566980695398199
100
AcDbArc
 50
296.0563205359582
 51
25.25499402437389
  0
ARC
  5
89A
330
1E
100
AcDbEntity
  8
IMAGE
100
AcDbCircle
 10
2.670882833284634
 20
6.262671390482468
 30
0.0
 40
0.1566980695398199
100
AcDbArc
 50
116.0563205359582
 51
205.2549940243739
  0
ARC
  5
89B
330
1E
100
AcDbEntity
  8
IMAGE
100
AcDbCircle
 10
3.136969102207513
 20
6.395108161662935
 30
0.0
 40
0.1566980695398199
100
AcDbArc
 50
296.0563205359582
 51
25.25499402437389
  0
ARC
  5
89C
330
1E
100
AcDbEntity
  8
IMAGE
100
AcDbCircle
 10
3.347519972081633
 20
6.321191311411626
 30
0.0
 40
0.1566980695398199
100
AcDbArc
 50
116.0563205359582
 51
205.2549940243739
  0
ARC
  5
89D
330
1E
100
AcDbEntity
  8
IMAGE
100
AcDbCircle
 10
1.730656139790264
 20
6.714351888101774
 30
0.0
 40
0.1566980695398199
100
AcDbArc
 50
98.53076560994793
 51
187.7294390983635
  0
ARC
  5
89E
330
1E
100
AcDbEntity
  8
IMAGE
100
AcDbCircle
 10
1.552137130954436
 20
6.848241144728646
 30
0.0
 40
0.1566980695398199
100
AcDbArc
 50
278.5307656099478
 51
7.729439098363577
  0
ARC
  5
89F
330
1E
100
AcDbEntity
  8
IMAGE
100
AcDbCircle
 10
1.308161152212136
 20
6.608728141207242
 30
0.0
 40
0.1566980695398199
100
AcDbArc
 50
98.53076560994793
 51
187.7294390983635
  0
ARC
  5
8A0
330
1E
100
AcDbEntity
  8
IMAGE
100
AcDbCircle
 10
1.129642143376308
 20
6.742617397834115
 30
0.0
 40
0.1566980695398199
100
AcDbArc
 50
278.5307656099478
 51
7.729439098363577
  0
ARC
  5
8A1
330
1E
100
AcDbEntity
  8
IMAGE
100
AcDbCircle
 10
1.420766807963412
 20
6.378729940001592
 30
0.0
 40
0.1566980695398199
100
AcDbArc
 50
159.7199718669747
 51
248.9186453553905
  0
ARC
  5
8A2
330
1E
100
AcDbEntity
  8
IMAGE
100
AcDbCircle
 10
1.21741925375733
 20
6.286832487619998
 30
0.0
 40
0.1566980695398199
100
AcDbArc
 50
339.7199718669747
 51
68.91864535539045
  0
ARC
  5
8A3
330
1E
100
AcDbEntity
  8
IMAGE
100
AcDbCircle
 10
1.739458118698142
 20
6.476698457589078
 30
0.0
 40
0.1566980695398199
100
AcDbArc
 50
98.53076560994793
 51
187.7294390983635
  0
ARC
  5
8A4
330
1E
100
AcDbEntity
  8
IMAGE
100
AcDbCircle
 10
1.560939109862312
 20
6.610587714215949
 30
0.0
 40
0.1566980695398199
100
AcDbArc
 50
278.5307656099478
 51
7.729439098363577
  0
ARC
  5
8A5
330
1E
100
AcDbEntity
  8
IMAGE
100
AcDbCircle
 10
0.925752639502679
 20
6.732349694788069
 30
0.0
 40
0.1566980695398199
100
AcDbArc
 50
143.5307656099477
 51
232.7294390983634
  0
ARC
  5
8A6
330
1E
100
AcDbEntity
  8
IMAGE
100
AcDbCircle
 10
0.7048466364952768
 20
6.700791694358441
 30
0.0
 40
0.1566980695398199
100
AcDbArc
 50
323.5307656099477
 51
52.72943909836341
  0
ARC
  5
8A7
330
1E
100
AcDbEntity
  8
IMAGE
100
AcDbCircle
 10
1.070507721699439
 20
6.05420347001095
 30
0.0
 40
0.1566980695398199
100
AcDbArc
 50
98.53076560994793
 51
187.7294390983635
  0
ARC
  5
8A8
330
1E
100
AcDbEntity
  8
IMAGE
100
AcDbCircle
 10
0.8919887128636108
 20
6.188092726637821
 30
0.0
 40
0.1566980695398199
100
AcDbArc
 50
278.5307656099478
 51
7.729439098363577
  0
ARC
  5
8A9
330
1E
100
AcDbEntity
  8
IMAGE
100
AcDbCircle
 10
1.413784899106669
 20
5.930975765300662
 30
0.0
 40
0.1566980695398199
100
AcDbArc
 50
98.53076560994793
 51
187.7294390983635
  0
ARC
  5
8AA
330
1E
100
AcDbEntity
  8
IMAGE
100
AcDbCircle
 10
1.235265890270839
 20
6.064865021927534
 30
0.0
 40
0.1566980695398199
100
AcDbArc
 50
278.5307656099478
 51
7.729439098363577
  0
ARC
  5
8AB
330
1E
100
AcDbEntity
  8
IMAGE
100
AcDbCircle
 10
0.9709638443367564
 20
6.498079981409063
 30
0.0
 40
0.1566980695398199
100
AcDbArc
 50
339.7199718669747
 51
68.91864535539045
  0
ARC
  5
8AC
330
1E
100
AcDbEntity
  8
IMAGE
100
AcDbCircle
 10
1.174311398542838
 20
6.589977433790657
 30
0.0
 40
0.1566980695398199
100
AcDbArc
 50
159.7199718669747
 51
248.9186453553905
  0
ARC
  5
8AD
330
1E
100
AcDbEntity
  8
IMAGE
100
AcDbCircle
 10
0.9885678021525116
 20
6.779743306461147
 30
0.0
 40
0.1566980695398199
100
AcDbArc
 50
339.7199718669747
 51
68.91864535539045
  0
ARC
  5
8AE
330
1E
100
AcDbEntity
  8
IMAGE
100
AcDbCircle
 10
1.191915356358594
 20
6.871640758842742
 30
0.0
 40
0.1566980695398199
100
AcDbArc
 50
159.7199718669747
 51
248.9186453553905
  0
ARC
  5
8AF
330
1E
100
AcDbEntity
  8
IMAGE
100
AcDbCircle
 10
1.428666747546394
 20
6.154802804001834
 30
0.0
 40
0.1566980695398199
100
AcDbArc
 50
339.7199718669747
 51
68.91864535539045
  0
ARC
  5
8B0
330
1E
100
AcDbEntity
  8
IMAGE
100
AcDbCircle
 10
1.632014301752477
 20
6.246700256383427
 30
0.0
 40
0.1566980695398199
100
AcDbArc
 50
159.7199718669747
 51
248.9186453553905
  0
ARC
  5
8B1
330
1E
100
AcDbEntity
  8
IMAGE
100
AcDbCircle
 10
1.375854874099128
 20
6.084386972738812
 30
0.0
 40
0.1566980695398199
100
AcDbArc
 50
339.7199718669747
 51
68.91864535539045
  0
ARC
  5
8B2
330
1E
100
AcDbEntity
  8
IMAGE
100
AcDbCircle
 10
1.579202428305211
 20
6.176284425120407
 30
0.0
 40
0.1566980695398199
100
AcDbArc
 50
159.7199718669747
 51
248.9186453553905
  0
ARC
  5
8B3
330
1E
100
AcDbEntity
  8
IMAGE
100
AcDbCircle
 10
1.543092473348804
 20
6.54208987594845
 30
0.0
 40
0.1566980695398199
100
AcDbArc
 50
339.7199718669747
 51
68.91864535539045
  0
ARC
  5
8B4
330
1E
100
AcDbEntity
  8
IMAGE
100
AcDbCircle
 10
1.746440027554886
 20
6.633987328330045
 30
0.0
 40
0.1566980695398199
100
AcDbArc
 50
159.7199718669747
 51
248.9186453553905
  0
ARC
  5
8B5
330
1E
100
AcDbEntity
  8
IMAGE
100
AcDbCircle
 10
1.243825190480964
 20
6.50688196031694
 30
0.0
 40
0.1566980695398199
100
AcDbArc
 50
339.7199718669747
 51
68.91864535539045
  0
ARC
  5
8B6
330
1E
100
AcDbEntity
  8
IMAGE
100
AcDbCircle
 10
1.447172744687046
 20
6.598779412698535
 30
0.0
 40
0.1566980695398199
100
AcDbArc
 50
159.7199718669747
 51
248.9186453553905
  0
ARC
  5
8B7
330
1E
100
AcDbEntity
  8
IMAGE
100
AcDbCircle
 10
1.375854874099128
 20
6.762139348645392
 30
0.0
 40
0.1566980695398199
100
AcDbArc
 50
339.7199718669747
 51
68.91864535539045
  0
ARC
  5
8B8
330
1E
100
AcDbEntity
  8
IMAGE
100
AcDbCircle
 10
1.579202428305211
 20
6.854036801026985
 30
0.0
 40
0.1566980695398199
100
AcDbArc
 50
159.7199718669747
 51
248.9186453553905
  0
ARC
  5
8B9
330
1E
100
AcDbEntity
  8
IMAGE
100
AcDbCircle
 10
1.085389570139165
 20
6.559693833764207
 30
0.0
 40
0.1566980695398199
100
AcDbArc
 50
339.7199718669747
 51
68.91864535539045
  0
ARC
  5
8BA
330
1E
100
AcDbEntity
  8
IMAGE
100
AcDbCircle
 10
1.288737124345248
 20
6.6515912861458
 30
0.0
 40
0.1566980695398199
100
AcDbArc
 50
159.7199718669747
 51
248.9186453553905
  0
ARC
  5
8BB
330
1E
100
AcDbEntity
  8
IMAGE
100
AcDbCircle
 10
0.8451448213376373
 20
6.267152743187944
 30
0.0
 40
0.1566980695398199
100
AcDbArc
 50
339.7199718669747
 51
68.91864535539045
  0
ARC
  5
8BC
330
1E
100
AcDbEntity
  8
IMAGE
100
AcDbCircle
 10
1.048492375543719
 20
6.359050195569537
 30
0.0
 40
0.1566980695398199
100
AcDbArc
 50
159.7199718669747
 51
248.9186453553905
  0
ARC
  5
8BD
330
1E
100
AcDbEntity
  8
IMAGE
100
AcDbCircle
 10
1.023775717784022
 20
6.146000825093956
 30
0.0
 40
0.1566980695398199
100
AcDbArc
 50
339.7199718669747
 51
68.91864535539045
  0
ARC
  5
8BE
330
1E
100
AcDbEntity
  8
IMAGE
100
AcDbCircle
 10
1.227123271990104
 20
6.237898277475549
 30
0.0
 40
0.1566980695398199
100
AcDbArc
 50
159.7199718669747
 51
248.9186453553905
  0
ARC
  5
8BF
330
1E
100
AcDbEntity
  8
IMAGE
100
AcDbCircle
 10
1.085389570139165
 20
6.295634466527875
 30
0.0
 40
0.1566980695398199
100
AcDbArc
 50
339.7199718669747
 51
68.91864535539045
  0
ARC
  5
8C0
330
1E
100
AcDbEntity
  8
IMAGE
100
AcDbCircle
 10
1.288737124345248
 20
6.38753191890947
 30
0.0
 40
0.1566980695398199
100
AcDbArc
 50
159.7199718669747
 51
248.9186453553905
  0
ARC
  5
8C1
330
1E
100
AcDbEntity
  8
IMAGE
100
AcDbCircle
 10
1.446270705362149
 20
6.348446339975142
 30
0.0
 40
0.1566980695398199
100
AcDbArc
 50
339.7199718669747
 51
68.91864535539045
  0
ARC
  5
8C2
330
1E
100
AcDbEntity
  8
IMAGE
100
AcDbCircle
 10
1.649618259568232
 20
6.440343792356737
 30
0.0
 40
0.1566980695398199
100
AcDbArc
 50
159.7199718669747
 51
248.9186453553905
  0
ARC
  5
8C3
330
1E
100
AcDbEntity
  8
IMAGE
100
AcDbCircle
 10
1.59590434679607
 20
6.119594888370322
 30
0.0
 40
0.1566980695398199
100
AcDbArc
 50
339.7199718669747
 51
68.91864535539045
  0
ARC
  5
8C4
330
1E
100
AcDbEntity
  8
IMAGE
100
AcDbCircle
 10
1.799251901002153
 20
6.211492340751917
 30
0.0
 40
0.1566980695398199
100
AcDbArc
 50
159.7199718669747
 51
248.9186453553905
  0
ARC
  5
8C5
330
1E
100
AcDbEntity
  8
IMAGE
100
AcDbCircle
 10
0.8632822568370741
 20
6.709593673266319
 30
0.0
 40
0.1566980695398199
100
AcDbArc
 50
323.5307656099477
 51
52.72943909836341
  0
ARC
  5
8C6
330
1E
100
AcDbEntity
  8
IMAGE
100
AcDbCircle
 10
1.084188259844477
 20
6.741151673695947
 30
0.0
 40
0.1566980695398199
100
AcDbArc
 50
143.5307656099477
 51
232.7294390983634
  0
ARC
  5
8C7
330
1E
100
AcDbEntity
  8
IMAGE
100
AcDbCircle
 10
1.320985160046713
 20
6.621573884187544
 30
0.0
 40
0.1566980695398199
100
AcDbArc
 50
323.5307656099477
 51
52.72943909836341
  0
ARC
  5
8C8
330
1E
100
AcDbEntity
  8
IMAGE
100
AcDbCircle
 10
1.541891163054116
 20
6.65313188461717
 30
0.0
 40
0.1566980695398199
100
AcDbArc
 50
143.5307656099477
 51
232.7294390983634
  0
ARC
  5
8C9
330
1E
100
AcDbEntity
  8
IMAGE
100
AcDbCircle
 10
1.197757455336426
 20
6.824019399068729
 30
0.0
 40
0.1566980695398199
100
AcDbArc
 50
323.5307656099477
 51
52.72943909836341
  0
ARC
  5
8CA
330
1E
100
AcDbEntity
  8
IMAGE
100
AcDbCircle
 10
1.418663458343829
 20
6.855577399498358
 30
0.0
 40
0.1566980695398199
100
AcDbArc
 50
143.5307656099477
 51
232.7294390983634
  0
ARC
  5
8CB
330
1E
100
AcDbEntity
  8
IMAGE
100
AcDbCircle
 10
1.444212864757001
 20
6.903237209239629
 30
0.0
 40
0.1566980695398199
100
AcDbArc
 50
323.5307656099477
 51
52.72943909836341
  0
ARC
  5
8CC
330
1E
100
AcDbEntity
  8
IMAGE
100
AcDbCircle
 10
1.665118867764402
 20
6.934795209669255
 30
0.0
 40
0.1566980695398199
100
AcDbArc
 50
143.5307656099477
 51
232.7294390983634
  0
ARC
  5
8CD
330
1E
100
AcDbEntity
  8
IMAGE
100
AcDbCircle
 10
1.585044527283044
 20
6.339910559135457
 30
0.0
 40
0.1566980695398199
100
AcDbArc
 50
323.5307656099477
 51
52.72943909836341
  0
ARC
  5
8CE
330
1E
100
AcDbEntity
  8
IMAGE
100
AcDbCircle
 10
1.805950530290445
 20
6.371468559565085
 30
0.0
 40
0.1566980695398199
100
AcDbArc
 50
143.5307656099477
 51
232.7294390983634
  0
ARC
  5
8CF
330
1E
100
AcDbEntity
  8
IMAGE
100
AcDbCircle
 10
1.444212864757001
 20
6.023039318451861
 30
0.0
 40
0.1566980695398199
100
AcDbArc
 50
323.5307656099477
 51
52.72943909836341
  0
ARC
  5
8D0
330
1E
100
AcDbEntity
  8
IMAGE
100
AcDbCircle
 10
1.665118867764402
 20
6.054597318881489
 30
0.0
 40
0.1566980695398199
100
AcDbArc
 50
143.5307656099477
 51
232.7294390983634
  0
ARC
  5
8D1
330
1E
100
AcDbEntity
  8
IMAGE
100
AcDbCircle
 10
1.285777244415202
 20
5.970227445004596
 30
0.0
 40
0.1566980695398199
100
AcDbArc
 50
323.5307656099477
 51
52.72943909836341
  0
ARC
  5
8D2
330
1E
100
AcDbEntity
  8
IMAGE
100
AcDbCircle
 10
1.506683247422604
 20
6.001785445434224
 30
0.0
 40
0.1566980695398199
100
AcDbArc
 50
143.5307656099477
 51
232.7294390983634
  0
ARC
  5
8D3
330
1E
100
AcDbEntity
  8
IMAGE
100
AcDbCircle
 10
0.9953119404552396
 20
5.987831402820351
 30
0.0
 40
0.1566980695398199
100
AcDbArc
 50
323.5307656099477
 51
52.72943909836341
  0
ARC
  5
8D4
330
1E
100
AcDbEntity
  8
IMAGE
100
AcDbCircle
 10
1.216217943462643
 20
6.019389403249979
 30
0.0
 40
0.1566980695398199
100
AcDbArc
 50
143.5307656099477
 51
232.7294390983634
  0
ARC
  5
8D5
330
1E
100
AcDbEntity
  8
IMAGE
100
AcDbCircle
 10
1.180153497520671
 20
6.128663065346394
 30
0.0
 40
0.1566980695398199
100
AcDbArc
 50
323.5307656099477
 51
52.72943909836341
  0
ARC
  5
8D6
330
1E
100
AcDbEntity
  8
IMAGE
100
AcDbCircle
 10
1.401059500528073
 20
6.160221065776021
 30
0.0
 40
0.1566980695398199
100
AcDbArc
 50
143.5307656099477
 51
232.7294390983634
  0
ARC
  5
8D7
330
1E
100
AcDbEntity
  8
IMAGE
100
AcDbCircle
 10
1.303381202230958
 20
6.348712538043335
 30
0.0
 40
0.1566980695398199
100
AcDbArc
 50
323.5307656099477
 51
52.72943909836341
  0
ARC
  5
8D8
330
1E
100
AcDbEntity
  8
IMAGE
100
AcDbCircle
 10
1.524287205238359
 20
6.380270538472963
 30
0.0
 40
0.1566980695398199
100
AcDbArc
 50
143.5307656099477
 51
232.7294390983634
  0
ARC
  5
8D9
330
1E
100
AcDbEntity
  8
IMAGE
100
AcDbCircle
 10
1.373797033493978
 20
6.507148158385133
 30
0.0
 40
0.1566980695398199
100
AcDbArc
 50
323.5307656099477
 51
52.72943909836341
  0
ARC
  5
8DA
330
1E
100
AcDbEntity
  8
IMAGE
100
AcDbCircle
 10
1.594703036501382
 20
6.538706158814761
 30
0.0
 40
0.1566980695398199
100
AcDbArc
 50
143.5307656099477
 51
232.7294390983634
  0
ARC
  5
8DB
330
1E
100
AcDbEntity
  8
IMAGE
100
AcDbCircle
 10
1.417806928033367
 20
6.595167947463909
 30
0.0
 40
0.1566980695398199
100
AcDbArc
 50
323.5307656099477
 51
52.72943909836341
  0
ARC
  5
8DC
330
1E
100
AcDbEntity
  8
IMAGE
100
AcDbCircle
 10
1.638712931040771
 20
6.626725947893538
 30
0.0
 40
0.1566980695398199
100
AcDbArc
 50
143.5307656099477
 51
232.7294390983634
  0
ARC
  5
8DD
330
1E
100
AcDbEntity
  8
IMAGE
100
AcDbCircle
 10
1.100935687349772
 20
6.463138263845744
 30
0.0
 40
0.1566980695398199
100
AcDbArc
 50
323.5307656099477
 51
52.72943909836341
  0
ARC
  5
8DE
330
1E
100
AcDbEntity
  8
IMAGE
100
AcDbCircle
 10
1.321841690357174
 20
6.494696264275372
 30
0.0
 40
0.1566980695398199
100
AcDbArc
 50
143.5307656099477
 51
232.7294390983634
  0
ARC
  5
8DF
330
1E
100
AcDbEntity
  8
IMAGE
100
AcDbCircle
 10
0.9601040248237296
 20
6.339910559135457
 30
0.0
 40
0.1566980695398199
100
AcDbArc
 50
323.5307656099477
 51
52.72943909836341
  0
ARC
  5
8E0
330
1E
100
AcDbEntity
  8
IMAGE
100
AcDbCircle
 10
1.181010027831131
 20
6.371468559565085
 30
0.0
 40
0.1566980695398199
100
AcDbArc
 50
143.5307656099477
 51
232.7294390983634
  0
ARC
  5
8E1
330
1E
100
AcDbEntity
  8
IMAGE
100
AcDbCircle
 10
0.8808862146528309
 20
5.987831402820351
 30
0.0
 40
0.1566980695398199
100
AcDbArc
 50
323.5307656099477
 51
52.72943909836341
  0
ARC
  5
8E2
330
1E
100
AcDbEntity
  8
IMAGE
100
AcDbCircle
 10
1.101792217660232
 20
6.019389403249979
 30
0.0
 40
0.1566980695398199
100
AcDbArc
 50
143.5307656099477
 51
232.7294390983634
  0
ARC
  5
8E3
330
1E
100
AcDbEntity
  8
IMAGE
100
AcDbCircle
 10
0.7312525732189102
 20
6.005435360636106
 30
0.0
 40
0.1566980695398199
100
AcDbArc
 50
323.5307656099477
 51
52.72943909836341
  0
ARC
  5
8E4
330
1E
100
AcDbEntity
  8
IMAGE
100
AcDbCircle
 10
0.9521585762263127
 20
6.036993361065734
 30
0.0
 40
0.1566980695398199
100
AcDbArc
 50
143.5307656099477
 51
232.7294390983634
  0
ARC
  5
8E5
330
1E
100
AcDbEntity
  8
IMAGE
100
AcDbCircle
 10
0.775262467758298
 20
6.128663065346394
 30
0.0
 40
0.1566980695398199
100
AcDbArc
 50
323.5307656099477
 51
52.72943909836341
  0
ARC
  5
8E6
330
1E
100
AcDbEntity
  8
IMAGE
100
AcDbCircle
 10
0.9961684707657013
 20
6.160221065776021
 30
0.0
 40
0.1566980695398199
100
AcDbArc
 50
143.5307656099477
 51
232.7294390983634
  0
ARC
  5
8E7
330
1E
100
AcDbEntity
  8
IMAGE
100
AcDbCircle
 10
0.8632822568370741
 20
6.524752116200888
 30
0.0
 40
0.1566980695398199
100
AcDbArc
 50
323.5307656099477
 51
52.72943909836341
  0
ARC
  5
8E8
330
1E
100
AcDbEntity
  8
IMAGE
100
AcDbCircle
 10
1.084188259844477
 20
6.556310116630516
 30
0.0
 40
0.1566980695398199
100
AcDbArc
 50
143.5307656099477
 51
232.7294390983634
  0
ARC
  5
8E9
330
1E
100
AcDbEntity
  8
IMAGE
100
AcDbCircle
 10
1.585044527283044
 20
6.683187736542686
 30
0.0
 40
0.1566980695398199
100
AcDbArc
 50
323.5307656099477
 51
52.72943909836341
  0
ARC
  5
8EA
330
1E
100
AcDbEntity
  8
IMAGE
100
AcDbCircle
 10
1.805950530290445
 20
6.714745736972314
 30
0.0
 40
0.1566980695398199
100
AcDbArc
 50
143.5307656099477
 51
232.7294390983634
  0
ARC
  5
8EB
330
1E
100
AcDbEntity
  8
IMAGE
100
AcDbCircle
 10
1.056925792810383
 20
6.841623356884484
 30
0.0
 40
0.1566980695398199
100
AcDbArc
 50
323.5307656099477
 51
52.72943909836341
  0
ARC
  5
8EC
330
1E
100
AcDbEntity
  8
IMAGE
100
AcDbCircle
 10
1.277831795817786
 20
6.873181357314113
 30
0.0
 40
0.1566980695398199
100
AcDbArc
 50
143.5307656099477
 51
232.7294390983634
  0
ARC
  5
8ED
330
1E
100
AcDbEntity
  8
IMAGE
100
AcDbCircle
 10
1.541034632743655
 20
5.996633381728228
 30
0.0
 40
0.1566980695398199
100
AcDbArc
 50
323.5307656099477
 51
52.72943909836341
  0
ARC
  5
8EE
330
1E
100
AcDbEntity
  8
IMAGE
100
AcDbCircle
 10
1.761940635751058
 20
6.028191382157856
 30
0.0
 40
0.1566980695398199
100
AcDbArc
 50
143.5307656099477
 51
232.7294390983634
  0
ARC
  5
8EF
330
1E
100
AcDbEntity
  8
IMAGE
100
AcDbCircle
 10
1.286597601280945
 20
6.237835874165826
 30
0.0
 40
0.1566980695398199
100
AcDbArc
 50
296.0563205359582
 51
25.25499402437389
  0
ARC
  5
8F0
330
1E
100
AcDbEntity
  8
IMAGE
100
AcDbCircle
 10
1.497148471155065
 20
6.163919023914516
 30
0.0
 40
0.1566980695398199
100
AcDbArc
 50
116.0563205359582
 51
205.2549940243739
  0
ARC
  5
8F1
330
1E
100
AcDbEntity
  8
IMAGE
100
AcDbCircle
 10
1.118352691093583
 20
6.076906091610643
 30
0.0
 40
0.1566980695398199
100
AcDbArc
 50
296.0563205359582
 51
25.25499402437389
  0
ARC
  5
8F2
330
1E
100
AcDbEntity
  8
IMAGE
100
AcDbCircle
 10
1.328903560967703
 20
6.002989241359333
 30
0.0
 40
0.1566980695398199
100
AcDbArc
 50
116.0563205359582
 51
205.2549940243739
  0
ARC
  5
8F3
330
1E
100
AcDbEntity
  8
IMAGE
100
AcDbCircle
 10
1.096407702808275
 20
6.230520884049681
 30
0.0
 40
0.1566980695398199
100
AcDbArc
 50
296.0563205359582
 51
25.25499402437389
  0
ARC
  5
8F4
330
1E
100
AcDbEntity
  8
IMAGE
100
AcDbCircle
 10
1.306958572682394
 20
6.156604033798371
 30
0.0
 40
0.1566980695398199
100
AcDbArc
 50
116.0563205359582
 51
205.2549940243739
  0
ARC
  5
8F5
330
1E
100
AcDbEntity
  8
IMAGE
100
AcDbCircle
 10
0.763575380481103
 20
6.556037944218116
 30
0.0
 40
0.1566980695398199
100
AcDbArc
 50
296.0563205359582
 51
25.25499402437389
  0
ARC
  5
8F6
330
1E
100
AcDbEntity
  8
IMAGE
100
AcDbCircle
 10
0.974126250355223
 20
6.482121093966807
 30
0.0
 40
0.1566980695398199
100
AcDbArc
 50
116.0563205359582
 51
205.2549940243739
  0
ARC
  5
8F7
330
1E
100
AcDbEntity
  8
IMAGE
100
AcDbCircle
 10
1.513362480229129
 20
6.325615755559562
 30
0.0
 40
0.1566980695398199
100
AcDbArc
 50
296.0563205359582
 51
25.25499402437389
  0
ARC
  5
8F8
330
1E
100
AcDbEntity
  8
IMAGE
100
AcDbCircle
 10
1.723913350103248
 20
6.251698905308252
 30
0.0
 40
0.1566980695398199
100
AcDbArc
 50
116.0563205359582
 51
205.2549940243739
  0
ARC
  5
8F9
330
1E
100
AcDbEntity
  8
IMAGE
100
AcDbCircle
 10
1.19150265204461
 20
6.537750468927756
 30
0.0
 40
0.1566980695398199
100
AcDbArc
 50
296.0563205359582
 51
25.25499402437389
  0
ARC
  5
8FA
330
1E
100
AcDbEntity
  8
IMAGE
100
AcDbCircle
 10
1.402053521918731
 20
6.463833618676446
 30
0.0
 40
0.1566980695398199
100
AcDbArc
 50
116.0563205359582
 51
205.2549940243739
  0
ARC
  5
8FB
330
1E
100
AcDbEntity
  8
IMAGE
100
AcDbCircle
 10
1.250022620805431
 20
6.731597707005589
 30
0.0
 40
0.1566980695398199
100
AcDbArc
 50
296.0563205359582
 51
25.25499402437389
  0
ARC
  5
8FC
330
1E
100
AcDbEntity
  8
IMAGE
100
AcDbCircle
 10
1.460573490679552
 20
6.657680856754279
 30
0.0
 40
0.1566980695398199
100
AcDbArc
 50
116.0563205359582
 51
205.2549940243739
  0
ARC
  5
8FD
330
1E
100
AcDbEntity
  8
IMAGE
100
AcDbCircle
 10
0.9830252633341835
 20
6.746227687237878
 30
0.0
 40
0.1566980695398199
100
AcDbArc
 50
296.0563205359582
 51
25.25499402437389
  0
ARC
  5
8FE
330
1E
100
AcDbEntity
  8
IMAGE
100
AcDbCircle
 10
1.193576133208303
 20
6.672310836986568
 30
0.0
 40
0.1566980695398199
100
AcDbArc
 50
116.0563205359582
 51
205.2549940243739
  0
ARC
  5
8FF
330
1E
100
AcDbEntity
  8
IMAGE
100
AcDbCircle
 10
0.818437851194373
 20
6.932759935199566
 30
0.0
 40
0.1566980695398199
100
AcDbArc
 50
296.0563205359582
 51
25.25499402437389
  0
ARC
  5
900
330
1E
100
AcDbEntity
  8
IMAGE
100
AcDbCircle
 10
1.028988721068493
 20
6.858843084948256
 30
0.0
 40
0.1566980695398199
100
AcDbArc
 50
116.0563205359582
 51
205.2549940243739
  0
ARC
  5
901
330
1E
100
AcDbEntity
  8
IMAGE
100
AcDbCircle
 10
0.8038078590041681
 20
6.775487647702457
 30
0.0
 40
0.1566980695398199
100
AcDbArc
 50
296.0563205359582
 51
25.25499402437389
  0
ARC
  5
902
330
1E
100
AcDbEntity
  8
IMAGE
100
AcDbCircle
 10
1.014358728878287
 20
6.701570797451145
 30
0.0
 40
0.1566980695398199
100
AcDbArc
 50
116.0563205359582
 51
205.2549940243739
  0
ARC
  5
903
330
1E
100
AcDbEntity
  8
IMAGE
100
AcDbCircle
 10
0.7123704078153841
 20
6.336588240733778
 30
0.0
 40
0.1566980695398199
100
AcDbArc
 50
296.0563205359582
 51
25.25499402437389
  0
ARC
  5
904
330
1E
100
AcDbEntity
  8
IMAGE
100
AcDbCircle
 10
0.9229212776895039
 20
6.262671390482468
 30
0.0
 40
0.1566980695398199
100
AcDbArc
 50
116.0563205359582
 51
205.2549940243739
  0
ARC
  5
905
330
1E
100
AcDbEntity
  8
IMAGE
100
AcDbCircle
 10
1.389007546612381
 20
6.395108161662935
 30
0.0
 40
0.1566980695398199
100
AcDbArc
 50
296.0563205359582
 51
25.25499402437389
  0
ARC
  5
906
330
1E
100
AcDbEntity
  8
IMAGE
100
AcDbCircle
 10
1.599558416486502
 20
6.321191311411626
 30
0.0
 40
0.1566980695398199
100
AcDbArc
 50
116.0563205359582
 51
205.2549940243739
  0
ARC
  5
907
330
1E
100
AcDbEntity
  8
IMAGE
100
AcDbCircle
 10
2.471276674677854
 20
4.639082890521825
 30
0.0
 40
0.2021270577682911
100
AcDbArc
 50
137.2096684487524
 51
222.7903315512475
  0
ARC
  5
908
330
1E
100
AcDbEntity
  8
IMAGE
100
AcDbCircle
 10
2.500854036949988
 20
4.529829918945731
 30
0.0
 40
0.0280554720307238
100
AcDbArc
 50
270.0000000000004
 51
0.0
  0
ARC
  5
909
330
1E
100
AcDbEntity
  8
IMAGE
100
AcDbCircle
 10
2.500854036949988
 20
4.748335862097917
 30
0.0
 40
0.0280554720307238
100
AcDbArc
 50
0.0
 51
90.0
  0
LINE
  5
90A
330
1E
100
AcDbEntity
  8
IMAGE
100
AcDbLine
 10
2.528909508980718
 20
4.748335862097917
 30
0.0
 11
2.528909508980718
 21
4.529829918945731
 31
0.0
  0
LINE
  5
90B
330
1E
100
AcDbEntity
  8
IMAGE
100
AcDbLine
 10
2.322946843570484
 20
4.501774446915005
 30
0.0
 11
2.500854036949986
 21
4.501774446915007
 31
0.0
  0
LINE
  5
90C
330
1E
100
AcDbEntity
  8
IMAGE
100
AcDbLine
 10
2.322946843570484
 20
4.776391334128641
 30
0.0
 11
2.500854036949986
 21
4.776391334128641
 31
0.0
  0
LINE
  5
90D
330
1E
100
AcDbEntity
  8
IMAGE
100
AcDbLine
 10
2.322946843570484
 20
5.649103629523574
 30
0.0
 11
1.910969058511549
 21
5.649103629523574
 31
0.0
  0
LINE
  5
90E
330
1E
100
AcDbEntity
  8
IMAGE
100
AcDbLine
 10
1.910969058511549
 20
5.667460163779198
 30
0.0
 11
2.322946843570484
 21
5.667460163779198
 31
0.0
  0
LINE
  5
90F
330
1E
100
AcDbEntity
  8
IMAGE
100
AcDbLine
 10
1.910969058511549
 20
5.692409612319076
 30
0.0
 11
1.910969058511549
 21
5.261880734672583
 31
0.0
  0
LINE
  5
910
330
1E
100
AcDbEntity
  8
IMAGE
100
AcDbLine
 10
2.322946843570484
 20
5.261880734672583
 30
0.0
 11
2.322946843570484
 21
4.776391334128625
 31
0.0
  0
LINE
  5
911
330
1E
100
AcDbEntity
  8
IMAGE
100
AcDbLine
 10
2.322946843570484
 20
5.692409612319076
 30
0.0
 11
2.322946843570484
 21
5.261880734672583
 31
0.0
  0
LINE
  5
912
330
1E
100
AcDbEntity
  8
IMAGE
100
AcDbLine
 10
1.910969058511549
 20
5.692409612319076
 30
0.0
 11
1.837893070625409
 21
5.692409612319076
 31
0.0
  0
LINE
  5
913
330
1E
100
AcDbEntity
  8
IMAGE
100
AcDbLine
 10
1.837893070625409
 20
5.692409612319076
 30
0.0
 11
1.837893070625409
 21
5.82835520856576
 31
0.0
  0
LINE
  5
914
330
1E
100
AcDbEntity
  8
IMAGE
100
AcDbLine
 10
1.837893070625409
 20
5.82835520856576
 30
0.0
 11
1.763531049206364
 21
5.82835520856576
 31
0.0
  0
LINE
  5
915
330
1E
100
AcDbEntity
  8
IMAGE
100
AcDbLine
 10
1.763531049206364
 20
5.82835520856576
 30
0.0
 11
1.763531049206364
 21
5.874858882983188
 31
0.0
  0
LINE
  5
916
330
1E
100
AcDbEntity
  8
IMAGE
100
AcDbLine
 10
1.76353104920636
 20
5.828355208565758
 30
0.0
 11
1.837893070625409
 21
5.692409612319076
 31
0.0
  0
LINE
  5
917
330
1E
100
AcDbEntity
  8
IMAGE
100
AcDbLine
 10
2.470384852875675
 20
5.828355208565758
 30
0.0
 11
2.39602283145663
 21
5.692409612319076
 31
0.0
  0
LINE
  5
918
330
1E
100
AcDbEntity
  8
IMAGE
100
AcDbLine
 10
2.470384852875675
 20
5.82835520856576
 30
0.0
 11
2.470384852875675
 21
5.874858882983188
 31
0.0
  0
LINE
  5
919
330
1E
100
AcDbEntity
  8
IMAGE
100
AcDbLine
 10
2.39602283145663
 20
5.82835520856576
 30
0.0
 11
2.470384852875675
 21
5.82835520856576
 31
0.0
  0
LINE
  5
91A
330
1E
100
AcDbEntity
  8
IMAGE
100
AcDbLine
 10
2.39602283145663
 20
5.692409612319076
 30
0.0
 11
2.39602283145663
 21
5.82835520856576
 31
0.0
  0
LINE
  5
91B
330
1E
100
AcDbEntity
  8
IMAGE
100
AcDbLine
 10
2.322946843570484
 20
5.692409612319076
 30
0.0
 11
2.39602283145663
 21
5.692409612319076
 31
0.0
  0
LINE
  5
91C
330
1E
100
AcDbEntity
  8
IMAGE
100
AcDbLine
 10
1.763531049206364
 20
5.874858882983188
 30
0.0
 11
2.470384852875675
 21
5.874858882983188
 31
0.0
  0
LINE
  5
91D
330
1E
100
AcDbEntity
  8
IMAGE
100
AcDbLine
 10
1.837893070625409
 20
5.82835520856576
 30
0.0
 11
2.39602283145663
 21
5.82835520856576
 31
0.0
  0
LINE
  5
91E
330
1E
100
AcDbEntity
  8
IMAGE
100
AcDbLine
 10
1.910969058511549
 20
5.692409612319076
 30
0.0
 11
2.322946843570484
 21
5.692409612319076
 31
0.0
  0
LINE
  5
91F
330
1E
100
AcDbEntity
  8
IMAGE
100
AcDbLine
 10
1.995912366140882
 20
5.82835520856576
 30
0.0
 11
1.995912366140882
 21
5.692409612319076
 31
0.0
  0
LINE
  5
920
330
1E
100
AcDbEntity
  8
IMAGE
100
AcDbLine
 10
2.033093376850408
 20
5.82835520856576
 30
0.0
 11
2.033093376850408
 21
5.692409612319076
 31
0.0
  0
LINE
  5
921
330
1E
100
AcDbEntity
  8
IMAGE
100
AcDbLine
 10
2.205220594020821
 20
5.82835520856576
 30
0.0
 11
2.205220594020821
 21
5.692409612319076
 31
0.0
  0
LINE
  5
922
330
1E
100
AcDbEntity
  8
IMAGE
100
AcDbLine
 10
2.243693517060254
 20
5.82835520856576
 30
0.0
 11
2.243693517060254
 21
5.692409612319076
 31
0.0
  0
LINE
  5
923
330
1E
100
AcDbEntity
  8
IMAGE
100
AcDbLine
 10
2.470384852875675
 20
5.874858882983188
 30
0.0
 11
3.561295546458862
 21
5.874858882983186
 31
0.0
  0
LINE
  5
924
330
1E
100
AcDbEntity
  8
IMAGE
100
AcDbLine
 10
1.763531049206367
 20
5.874858882983188
 30
0.0
 11
0.7095539965550306
 21
5.874858882983188
 31
0.0
  0
LEADER
  5
930
330
1E
100
AcDbEntity
  8
TEXT_BUBBLES
100
AcDbLeader
  3
Standard
 76
     2
 10
2.847203543265095
 20
4.518777054922191
 30
0.0
 10
3.175711142458826
 20
3.220328495254515
 30
0.0
  0
TEXT
  5
931
330
1E
100
AcDbEntity
  8
TEXT_BUBBLES
100
AcDbText
 10
3.150863073670829
 20
3.006182873570252
 30
0.0
 40
0.125
  1
4
  7
ROMANS
 72
     4
 11
3.213363073670829
 21
3.068682873570252
 31
0.0
100
AcDbText
  0
CIRCLE
  5
932
330
1E
100
AcDbEntity
  8
TEXT_BUBBLES
100
AcDbCircle
 10
3.213363073670829
 20
3.068682873570252
 30
0.0
 40
0.15625
  0
CIRCLE
  5
933
330
1E
100
AcDbEntity
  8
TEXT_BUBBLES
100
AcDbCircle
 10
2.869239143152895
 20
3.068682873570252
 30
0.0
 40
0.15625
  0
TEXT
  5
934
330
1E
100
AcDbEntity
  8
TEXT_BUBBLES
100
AcDbText
 10
2.809715333629085
 20
3.006182873570252
 30
0.0
 40
0.125
  1
3
  7
ROMANS
 72
     4
 11
2.869239143152895
 21
3.068682873570252
 31
0.0
100
AcDbText
  0
LEADER
  5
935
330
1E
100
AcDbEntity
  8
TEXT_BUBBLES
100
AcDbLeader
  3
Standard
 76
     2
 10
2.65300335957314
 20
4.536178249383956
 30
0.0
 10
2.831587211940892
 20
3.220328495254515
 30
0.0
  0
TEXT
  5
93D
330
1E
100
AcDbEntity
  8
IMAGE
100
AcDbText
 10
1.306296512787973
 20
1.886030906957799
 30
0.0
 40
0.125
  1
NOTE:
  7
ROMANS
100
AcDbText
  0
TEXT
  5
93E
330
1E
100
AcDbEntity
  8
IMAGE
100
AcDbText
 10
1.306296512787973
 20
1.683649954576846
 30
0.0
 40
0.125
  1
SIDE INLET CONNECTION SHOULD NOT BE USED IN FREEZING CLIMATES.
  7
ROMANS
100
AcDbText
  0
LINE
  5
95C
330
1E
100
AcDbEntity
  8
IMAGE
100
AcDbLine
 10
2.322946843570484
 20
4.501774446915005
 30
0.0
 11
2.322946843570484
 21
2.265997024341298
 31
0.0
  0
LINE
  5
95D
330
1E
100
AcDbEntity
  8
IMAGE
100
AcDbLine
 10
1.910969058511549
 20
5.261880734672569
 30
0.0
 11
1.910969058511549
 21
2.389556593794226
 31
0.0
  0
LINE
  5
95E
330
1E
100
AcDbEntity
  8
IMAGE
100
AcDbLine
 10
2.207575680588218
 20
2.265997024341298
 30
0.0
 11
2.207575680588218
 21
2.211514332055253
 31
0.0
  0
LINE
  5
95F
330
1E
100
AcDbEntity
  8
IMAGE
100
AcDbLine
 10
2.207575680588218
 20
2.211514332055253
 30
0.0
 11
2.153087134051481
 21
2.211514332055253
 31
0.0
  0
LINE
  5
960
330
1E
100
AcDbEntity
  8
IMAGE
100
AcDbLine
 10
2.04774261074712
 20
2.211514332055253
 30
0.0
 11
2.04774261074712
 21
2.265997024341298
 31
0.0
  0
LINE
  5
961
330
1E
100
AcDbEntity
  8
IMAGE
100
AcDbLine
 10
2.153087134051481
 20
2.225507714431393
 30
0.0
 11
2.108285440232383
 21
2.225507714431393
 31
0.0
  0
LINE
  5
962
330
1E
100
AcDbEntity
  8
IMAGE
100
AcDbLine
 10
2.108285440232383
 20
2.211514332055253
 30
0.0
 11
2.04774261074712
 21
2.211514332055253
 31
0.0
  0
LINE
  5
963
330
1E
100
AcDbEntity
  8
IMAGE
100
AcDbLine
 10
2.108285440232383
 20
2.225507714431393
 30
0.0
 11
2.108285440232383
 21
2.211514332055253
 31
0.0
  0
LINE
  5
964
330
1E
100
AcDbEntity
  8
IMAGE
100
AcDbLine
 10
2.153087134051481
 20
2.225507714431393
 30
0.0
 11
2.153087134051481
 21
2.211514332055253
 31
0.0
  0
LINE
  5
965
330
1E
100
AcDbEntity
  8
IMAGE
100
AcDbLine
 10
1.910969058511549
 20
2.389556593794226
 30
0.0
 11
2.002708746861966
 21
2.265997024341298
 31
0.0
  0
LINE
  5
966
330
1E
100
AcDbEntity
  8
IMAGE
100
AcDbLine
 10
2.006567125663533
 20
2.265997024341298
 30
0.0
 11
2.006567125663533
 21
2.389556593794226
 31
0.0
  0
LINE
  5
967
330
1E
100
AcDbEntity
  8
IMAGE
100
AcDbLine
 10
1.910969058511549
 20
2.389556593794226
 30
0.0
 11
2.322946843570484
 21
2.389556593794226
 31
0.0
  0
LINE
  5
968
330
1E
100
AcDbEntity
  8
IMAGE
100
AcDbLine
 10
2.225944530059978
 20
2.265997024341298
 30
0.0
 11
2.225944530059978
 21
2.389556593794226
 31
0.0
  0
LINE
  5
969
330
1E
100
AcDbEntity
  8
IMAGE
100
AcDbLine
 10
2.125855317270329
 20
2.389556593794226
 30
0.0
 11
2.125855317270329
 21
2.265997024341298
 31
0.0
  0
LINE
  5
96A
330
1E
100
AcDbEntity
  8
IMAGE
100
AcDbLine
 10
2.105758438325873
 20
2.389556593794226
 30
0.0
 11
2.105758438325873
 21
2.265997024341298
 31
0.0
  0
LINE
  5
96B
330
1E
100
AcDbEntity
  8
IMAGE
100
AcDbLine
 10
2.002708746861966
 20
2.265997024341298
 30
0.0
 11
2.322946843570484
 21
2.265997024341298
 31
0.0
  0
HATCH
  5
994
330
1E
100
AcDbEntity
  8
IMAGE
100
AcDbHatch
 10
0.0
 20
0.0
 30
0.0
210
0.0
220
0.0
230
1.0
  2
EARTH
 70
     0
 71
     0
 91
        2
 92
        7
 72
     0
 73
     1
 93
       12
 10
1.910969058511549
 20
5.692409612319076
 10
1.837893070625409
 20
5.692409612319076
 10
1.763531049206364
 20
5.828355208565753
 10
1.763531049206364
 20
5.874858882983188
 10
1.047390715261743
 20
5.874858882983188
 10
1.166324808357397
 20
5.675443212595222
 10
1.23792952936581
 20
5.520773763623936
 10
1.374787579034809
 20
5.410411899422887
 10
1.49043328994956
 20
5.264160641753373
 10
1.718820356164223
 20
5.209704995493392
 10
1.910969058511549
 20
5.166548163983576
 10
1.910969058511549
 20
5.261880734672569
 97
        0
 92
        7
 72
     0
 73
     1
 93
       12
 10
3.040167053988331
 20
5.668362869296774
 10
3.158474800011779
 20
5.874858882983187
 10
2.470384852875675
 20
5.874858882983187
 10
2.470384852875675
 20
5.828355208565758
 10
2.39602283145663
 20
5.692409612319076
 10
2.322946843570484
 20
5.692409612319076
 10
2.322946843570484
 20
5.261880734672583
 10
2.322946843570484
 20
5.166548163983576
 10
2.423347418981693
 20
5.266948739394783
 10
2.566018809798293
 20
5.377844860519988
 10
2.667260871281285
 20
5.475583627054582
 10
2.894220500182336
 20
5.522416315490778
 97
        0
 75
     0
 76
     1
 52
45.0
 41
0.65
 77
     0
 78
     6
 53
45.0
 43
0.0
 44
0.0
 45
0.0
 46
0.229809703885628
 79
     2
 49
0.1625
 49
-0.1625
 53
45.0
 43
-0.0430893194785553
 44
0.0430893194785553
 45
0.0
 46
0.229809703885628
 79
     2
 49
0.1625
 49
-0.1625
 53
45.0
 43
-0.0861786389571105
 44
0.0861786389571105
 45
0.0
 46
0.229809703885628
 79
     2
 49
0.1625
 49
-0.1625
 53
135.0
 43
-0.0861786389571105
 44
0.114904851942814
 45
-0.2298097038856279
 46
0.0
 79
     2
 49
0.1625
 49
-0.1625
 53
135.0
 43
-0.0430893194785552
 44
0.1579941714213692
 45
-0.2298097038856279
 46
0.0
 79
     2
 49
0.1625
 49
-0.1625
 53
135.0
 43
0.0
 44
0.2010834908999244
 45
-0.2298097038856279
 46
0.0
 79
     2
 49
0.1625
 49
-0.1625
 47
0.0055604399639619
 98
        2
 10
1.77054696912963
 20
5.505734985877471
 10
2.449201281873641
 20
5.544658079765453
  0
TEXT
  5
9A5
330
1E
100
AcDbEntity
  8
OPTION-NOZ-ROTARY
100
AcDbText
 10
4.760000000000001
 20
6.636230316201615
 30
0.0
 40
0.125
  1
  WITH RAIN BIRD ROTARY NOZZLE
  7
ROMANS
100
AcDbText
  0
TEXT
  5
9A6
330
1E
100
AcDbEntity
  8
INSTRUCT-OPTION
100
AcDbText
 10
14.21498038305101
 20
6.925102260931662
 30
0.0
 40
0.1
  1
%%uROTARY NOZZLE%%u
  7
ROMANS
100
AcDbText
  0
TEXT
  5
9A7
330
1E
100
AcDbEntity
  8
INSTRUCT-OPTION
100
AcDbText
 10
14.21498038305101
 20
6.758976339271194
 30
0.0
 40
0.1
  1
  OPTION-NOZ-ROTARY
  7
ROMANS
100
AcDbText
  0
ENDSEC
  0
SECTION
  2
OBJECTS
  0
DICTIONARY
  5
C
330
0
100
AcDbDictionary
281
     1
  3
ACAD_GROUP
350
D
  3
ACAD_LAYOUT
350
19
  3
ACAD_MLINESTYLE
350
16
  3
ACAD_PLOTSETTINGS
350
18
  3
ACAD_PLOTSTYLENAME
350
E
  3
AcDbVariableDictionary
350
215
  0
DICTIONARY
  5
283
330
2
100
AcDbDictionary
280
     1
281
     1
  3
ACAD_LAYERFILTERS
360
356
  3
ACAD_LAYERSTATES
360
284
  0
DICTIONARY
  5
D
102
{ACAD_REACTORS
330
C
102
}
330
C
100
AcDbDictionary
281
     1
  0
DICTIONARY
  5
19
102
{ACAD_REACTORS
330
C
102
}
330
C
100
AcDbDictionary
281
     1
  3
Layout1
350
1D
  3
Model
350
21
  0
DICTIONARY
  5
16
102
{ACAD_REACTORS
330
C
102
}
330
C
100
AcDbDictionary
281
     1
  3
Standard
350
17
  0
DICTIONARY
  5
18
102
{ACAD_REACTORS
330
C
102
}
330
C
100
AcDbDictionary
281
     1
  0
ACDBDICTIONARYWDFLT
  5
E
102
{ACAD_REACTORS
330
C
102
}
330
C
100
AcDbDictionary
281
     1
  3
Normal
350
F
100
AcDbDictionaryWithDefault
340
F
  0
DICTIONARY
  5
215
102
{ACAD_REACTORS
330
C
102
}
330
C
100
AcDbDictionary
281
     1
  3
DIMASSOC
350
218
  3
HIDETEXT
350
217
  3
SORTENTS
350
216
  0
DICTIONARY
  5
356
102
{ACAD_REACTORS
330
283
102
}
330
283
100
AcDbDictionary
280
     1
281
     1
  0
DICTIONARY
  5
284
102
{ACAD_REACTORS
330
283
102
}
330
283
100
AcDbDictionary
281
     1
  0
LAYOUT
  5
1D
102
{ACAD_REACTORS
330
19
102
}
330
19
100
AcDbPlotSettings
  1

  2
S:\AutoCAD 2002\Plotters\1055B&WDraftShaded.pc3
  4

  6

 40
0.0
 41
0.0
 42
0.0
 43
0.0
 44
0.0
 45
0.0
 46
0.0
 47
0.0
 48
0.0
 49
0.0
140
0.0
141
0.0
142
1.0
143
1.0
 70
   688
 72
     0
 73
     0
 74
     5
  7
8500Color.ctb
 75
    16
147
1.0
148
0.0
149
0.0
100
AcDbLayout
  1
Layout1
 70
     1
 71
     1
 10
0.0
 20
0.0
 11
12.0
 21
9.0
 12
0.0
 22
0.0
 32
0.0
 14
1.000000000000000E+20
 24
1.000000000000000E+20
 34
1.000000000000000E+20
 15
-1.000000000000000E+20
 25
-1.000000000000000E+20
 35
-1.000000000000000E+20
146
0.0
 13
0.0
 23
0.0
 33
0.0
 16
1.0
 26
0.0
 36
0.0
 17
0.0
 27
1.0
 37
0.0
 76
     0
330
1A
  0
LAYOUT
  5
21
102
{ACAD_REACTORS
330
19
102
}
330
19
100
AcDbPlotSettings
  1

  2
8500ColorShaded.pc3
  4
Letter
  6

 40
5.027083396911621
 41
5.027085304260253
 42
5.027084350585937
 43
5.027069091796875
 44
215.8999938964843
 45
279.3999938964843
 46
0.0
 47
0.0
 48
10.32427554345823
 49
3.309499280594682
140
16.49464271188265
141
8.013305812965935
142
1.0
143
0.5818813699468021
 70
 11952
 72
     0
 73
     1
 74
     4
  7
8500Color.ctb
 75
     0
147
1.718563356120894
148
-262.2365988038392
149
-84.06128172710493
100
AcDbLayout
  1
Model
 70
     1
 71
     0
 10
0.0
 20
0.0
 11
12.0
 21
9.0
 12
0.0
 22
0.0
 32
0.0
 14
0.0
 24
0.0
 34
0.0
 15
0.0
 25
0.0
 35
0.0
146
0.0
 13
0.0
 23
0.0
 33
0.0
 16
1.0
 26
0.0
 36
0.0
 17
0.0
 27
1.0
 37
0.0
 76
     0
330
1E
  0
MLINESTYLE
  5
17
102
{ACAD_REACTORS
330
16
102
}
330
16
100
AcDbMlineStyle
  2
STANDARD
 70
     0
  3

 62
   256
 51
90.0
 52
90.0
 71
     2
 49
0.5
 62
   256
  6
BYLAYER
 49
-0.5
 62
   256
  6
BYLAYER
  0
ACDBPLACEHOLDER
  5
F
102
{ACAD_REACTORS
330
E
102
}
330
E
  0
DICTIONARYVAR
  5
218
102
{ACAD_REACTORS
330
215
102
}
330
215
100
DictionaryVariables
280
     0
  1
1
  0
DICTIONARYVAR
  5
217
102
{ACAD_REACTORS
330
215
102
}
330
215
100
DictionaryVariables
280
     0
  1
1
  0
DICTIONARYVAR
  5
216
102
{ACAD_REACTORS
330
215
102
}
330
215
100
DictionaryVariables
280
     0
  1
1
  0
ENDSEC
  0
EOF
