  0
SECTION
  2
HEADER
  9
$ACADVER
  1
AC1015
  9
$ACADMAINTVER
 70
    13
  9
$DWGCODEPAGE
  3
ANSI_1252
  9
$INSBASE
 10
0.0
 20
0.0
 30
0.0
  9
$EXTMIN
 10
0.0
 20
0.0
 30
0.0
  9
$EXTMAX
 10
16.48999999999999
 20
10.44
 30
0.03
  9
$LIMMIN
 10
0.0
 20
0.0
  9
$LIMMAX
 10
12.0
 20
9.0
  9
$ORTHOMODE
 70
     1
  9
$REGENMODE
 70
     1
  9
$FILLMODE
 70
     1
  9
$QTEXTMODE
 70
     0
  9
$MIRRTEXT
 70
     0
  9
$LTSCALE
 40
1.0
  9
$ATTMODE
 70
     1
  9
$TEXTSIZE
 40
0.1
  9
$TRACEWID
 40
0.05
  9
$TEXTSTYLE
  7
ROMANS
  9
$CLAYER
  8
OPTION-NOZ-ROTARY
  9
$CELTYPE
  6
ByLayer
  9
$CECOLOR
 62
   256
  9
$CELTSCALE
 40
1.0
  9
$DISPSILH
 70
     0
  9
$DIMSCALE
 40
1.0
  9
$DIMASZ
 40
0.18
  9
$DIMEXO
 40
0.0625
  9
$DIMDLI
 40
0.38
  9
$DIMRND
 40
0.0
  9
$DIMDLE
 40
0.0
  9
$DIMEXE
 40
0.18
  9
$DIMTP
 40
0.0
  9
$DIMTM
 40
0.0
  9
$DIMTXT
 40
0.18
  9
$DIMCEN
 40
0.09
  9
$DIMTSZ
 40
0.0
  9
$DIMTOL
 70
     0
  9
$DIMLIM
 70
     0
  9
$DIMTIH
 70
     1
  9
$DIMTOH
 70
     1
  9
$DIMSE1
 70
     0
  9
$DIMSE2
 70
     0
  9
$DIMTAD
 70
     0
  9
$DIMZIN
 70
     0
  9
$DIMBLK
  1

  9
$DIMASO
 70
     1
  9
$DIMSHO
 70
     1
  9
$DIMPOST
  1

  9
$DIMAPOST
  1

  9
$DIMALT
 70
     0
  9
$DIMALTD
 70
     2
  9
$DIMALTF
 40
25.4
  9
$DIMLFAC
 40
1.0
  9
$DIMTOFL
 70
     0
  9
$DIMTVP
 40
0.0
  9
$DIMTIX
 70
     0
  9
$DIMSOXD
 70
     0
  9
$DIMSAH
 70
     0
  9
$DIMBLK1
  1

  9
$DIMBLK2
  1

  9
$DIMSTYLE
  2
Standard
  9
$DIMCLRD
 70
     0
  9
$DIMCLRE
 70
     0
  9
$DIMCLRT
 70
     0
  9
$DIMTFAC
 40
1.0
  9
$DIMGAP
 40
0.09
  9
$DIMJUST
 70
     0
  9
$DIMSD1
 70
     0
  9
$DIMSD2
 70
     0
  9
$DIMTOLJ
 70
     1
  9
$DIMTZIN
 70
     0
  9
$DIMALTZ
 70
     0
  9
$DIMALTTZ
 70
     0
  9
$DIMUPT
 70
     0
  9
$DIMDEC
 70
     4
  9
$DIMTDEC
 70
     4
  9
$DIMALTU
 70
     2
  9
$DIMALTTD
 70
     2
  9
$DIMTXSTY
  7
STANDARD
  9
$DIMAUNIT
 70
     0
  9
$DIMADEC
 70
     0
  9
$DIMALTRND
 40
0.0
  9
$DIMAZIN
 70
     0
  9
$DIMDSEP
 70
    46
  9
$DIMATFIT
 70
     3
  9
$DIMFRAC
 70
     0
  9
$DIMLDRBLK
  1

  9
$DIMLUNIT
 70
     2
  9
$DIMLWD
 70
    -2
  9
$DIMLWE
 70
    -2
  9
$DIMTMOVE
 70
     2
  9
$LUNITS
 70
     2
  9
$LUPREC
 70
     4
  9
$SKETCHINC
 40
0.1
  9
$FILLETRAD
 40
0.0
  9
$AUNITS
 70
     0
  9
$AUPREC
 70
     0
  9
$MENU
  1
ACAD
  9
$ELEVATION
 40
0.0
  9
$PELEVATION
 40
0.0
  9
$THICKNESS
 40
0.0
  9
$LIMCHECK
 70
     0
  9
$CHAMFERA
 40
0.0
  9
$CHAMFERB
 40
0.0
  9
$CHAMFERC
 40
0.0
  9
$CHAMFERD
 40
0.0
  9
$SKPOLY
 70
     0
  9
$TDCREATE
 40
2449623.426764236
  9
$TDUCREATE
 40
2449623.676764236
  9
$TDUPDATE
 40
2453109.586367326
  9
$TDUUPDATE
 40
2453109.836367326
  9
$TDINDWG
 40
0.6671701736
  9
$TDUSRTIMER
 40
0.6671701736
  9
$USRTIMER
 70
     1
  9
$ANGBASE
 50
0.0
  9
$ANGDIR
 70
     0
  9
$PDMODE
 70
     0
  9
$PDSIZE
 40
0.0
  9
$PLINEWID
 40
0.0
  9
$SPLFRAME
 70
     0
  9
$SPLINETYPE
 70
     6
  9
$SPLINESEGS
 70
     8
  9
$HANDSEED
  5
51B
  9
$SURFTAB1
 70
     6
  9
$SURFTAB2
 70
     6
  9
$SURFTYPE
 70
     6
  9
$SURFU
 70
     6
  9
$SURFV
 70
     6
  9
$UCSBASE
  2

  9
$UCSNAME
  2

  9
$UCSORG
 10
0.0
 20
0.0
 30
0.0
  9
$UCSXDIR
 10
1.0
 20
0.0
 30
0.0
  9
$UCSYDIR
 10
0.0
 20
1.0
 30
0.0
  9
$UCSORTHOREF
  2

  9
$UCSORTHOVIEW
 70
     0
  9
$UCSORGTOP
 10
0.0
 20
0.0
 30
0.0
  9
$UCSORGBOTTOM
 10
0.0
 20
0.0
 30
0.0
  9
$UCSORGLEFT
 10
0.0
 20
0.0
 30
0.0
  9
$UCSORGRIGHT
 10
0.0
 20
0.0
 30
0.0
  9
$UCSORGFRONT
 10
0.0
 20
0.0
 30
0.0
  9
$UCSORGBACK
 10
0.0
 20
0.0
 30
0.0
  9
$PUCSBASE
  2

  9
$PUCSNAME
  2

  9
$PUCSORG
 10
0.0
 20
0.0
 30
0.0
  9
$PUCSXDIR
 10
1.0
 20
0.0
 30
0.0
  9
$PUCSYDIR
 10
0.0
 20
1.0
 30
0.0
  9
$PUCSORTHOREF
  2

  9
$PUCSORTHOVIEW
 70
     0
  9
$PUCSORGTOP
 10
0.0
 20
0.0
 30
0.0
  9
$PUCSORGBOTTOM
 10
0.0
 20
0.0
 30
0.0
  9
$PUCSORGLEFT
 10
0.0
 20
0.0
 30
0.0
  9
$PUCSORGRIGHT
 10
0.0
 20
0.0
 30
0.0
  9
$PUCSORGFRONT
 10
0.0
 20
0.0
 30
0.0
  9
$PUCSORGBACK
 10
0.0
 20
0.0
 30
0.0
  9
$USERI1
 70
     0
  9
$USERI2
 70
     0
  9
$USERI3
 70
     0
  9
$USERI4
 70
     0
  9
$USERI5
 70
     0
  9
$USERR1
 40
0.0
  9
$USERR2
 40
0.0
  9
$USERR3
 40
0.0
  9
$USERR4
 40
0.0
  9
$USERR5
 40
0.0
  9
$WORLDVIEW
 70
     1
  9
$SHADEDGE
 70
     3
  9
$SHADEDIF
 70
    70
  9
$TILEMODE
 70
     1
  9
$MAXACTVP
 70
    16
  9
$PINSBASE
 10
0.0
 20
0.0
 30
0.0
  9
$PLIMCHECK
 70
     0
  9
$PEXTMIN
 10
1.000000000000000E+20
 20
1.000000000000000E+20
 30
1.000000000000000E+20
  9
$PEXTMAX
 10
-1.000000000000000E+20
 20
-1.000000000000000E+20
 30
-1.000000000000000E+20
  9
$PLIMMIN
 10
0.0
 20
0.0
  9
$PLIMMAX
 10
12.0
 20
9.0
  9
$UNITMODE
 70
     0
  9
$VISRETAIN
 70
     0
  9
$PLINEGEN
 70
     1
  9
$PSLTSCALE
 70
     1
  9
$TREEDEPTH
 70
  3020
  9
$CMLSTYLE
  2
Standard
  9
$CMLJUST
 70
     0
  9
$CMLSCALE
 40
1.0
  9
$PROXYGRAPHICS
 70
     1
  9
$MEASUREMENT
 70
     0
  9
$CELWEIGHT
370
    -1
  9
$ENDCAPS
280
     0
  9
$JOINSTYLE
280
     0
  9
$LWDISPLAY
290
     0
  9
$INSUNITS
 70
     0
  9
$HYPERLINKBASE
  1

  9
$STYLESHEET
  1
OKIColorShaded.ctb
  9
$XEDIT
290
     1
  9
$CEPSNTYPE
380
     0
  9
$PSTYLEMODE
290
     1
  9
$FINGERPRINTGUID
  2
{DA940575-9742-4B5B-8070-9862C90A1056}
  9
$VERSIONGUID
  2
{1FC6D520-F15E-4B4E-B89C-0D9FD44011DB}
  9
$EXTNAMES
290
     1
  9
$PSVPSCALE
 40
0.0
  9
$OLESTARTUP
290
     1
  0
ENDSEC
  0
SECTION
  2
CLASSES
  0
CLASS
  1
ACDBDICTIONARYWDFLT
  2
AcDbDictionaryWithDefault
  3
AutoCAD 2000
 90
        0
280
     0
281
     0
  0
CLASS
  1
ACDBPLACEHOLDER
  2
AcDbPlaceHolder
  3
AutoCAD 2000
 90
        0
280
     0
281
     0
  0
CLASS
  1
LAYOUT
  2
AcDbLayout
  3
AutoCAD 2000
 90
        0
280
     0
281
     0
  0
CLASS
  1
DICTIONARYVAR
  2
AcDbDictionaryVar
  3
AutoCAD 2000
 90
        0
280
     0
281
     0
  0
CLASS
  1
PLOTSETTINGS
  2
AcDbPlotSettings
  3
AutoCAD 2000
 90
        0
280
     0
281
     0
  0
ENDSEC
  0
SECTION
  2
TABLES
  0
TABLE
  2
VPORT
  5
8
330
0
100
AcDbSymbolTable
 70
     3
  0
VPORT
  5
51A
330
8
100
AcDbSymbolTableRecord
100
AcDbViewportTableRecord
  2
*Active
 70
     0
 10
0.0
 20
0.0
 11
1.0
 21
1.0
 12
8.245000038393772
 22
5.220000024307517
 13
0.0
 23
0.0
 14
0.14
 24
0.14
 15
0.0
 25
0.0
 16
0.0
 26
0.0
 36
1.0
 17
0.0
 27
0.0
 37
0.0
 40
11.0072450655855
 41
1.505548705302096
 42
50.0
 43
0.0
 44
0.0
 50
0.0
 51
0.0
 71
     0
 72
  5000
 73
     1
 74
     1
 75
     0
 76
     0
 77
     0
 78
     0
281
     0
 65
     1
110
0.0
120
0.0
130
0.0
111
1.0
121
0.0
131
0.0
112
0.0
122
1.0
132
0.0
 79
     0
146
0.0
  0
ENDTAB
  0
TABLE
  2
LTYPE
  5
5
330
0
100
AcDbSymbolTable
 70
     1
  0
LTYPE
  5
13
330
5
100
AcDbSymbolTableRecord
100
AcDbLinetypeTableRecord
  2
ByBlock
 70
     0
  3

 72
    65
 73
     0
 40
0.0
  0
LTYPE
  5
14
330
5
100
AcDbSymbolTableRecord
100
AcDbLinetypeTableRecord
  2
ByLayer
 70
     0
  3

 72
    65
 73
     0
 40
0.0
  0
LTYPE
  5
15
330
5
100
AcDbSymbolTableRecord
100
AcDbLinetypeTableRecord
  2
CONTINUOUS
 70
     0
  3
Solid line
 72
    65
 73
     0
 40
0.0
  0
ENDTAB
  0
TABLE
  2
LAYER
  5
2
102
{ACAD_XDICTIONARY
360
4B5
102
}
330
0
100
AcDbSymbolTable
 70
    13
  0
LAYER
  5
10
330
2
100
AcDbSymbolTableRecord
100
AcDbLayerTableRecord
  2
0
 70
     0
 62
     7
  6
CONTINUOUS
370
    -3
390
F
  0
LAYER
  5
28
330
2
100
AcDbSymbolTableRecord
100
AcDbLayerTableRecord
  2
TEXT_BUBBLES
 70
     0
 62
     6
  6
CONTINUOUS
370
    -3
390
F
  0
LAYER
  5
29
330
2
100
AcDbSymbolTableRecord
100
AcDbLayerTableRecord
  2
IMAGE
 70
     0
 62
     7
  6
CONTINUOUS
370
    -3
390
F
  0
LAYER
  5
2C
330
2
100
AcDbSymbolTableRecord
100
AcDbLayerTableRecord
  2
TEXT_LEADERS
 70
     0
 62
    -5
  6
CONTINUOUS
370
    -3
390
F
  0
LAYER
  5
2D
330
2
100
AcDbSymbolTableRecord
100
AcDbLayerTableRecord
  2
OPTION-NOZ-VAN
 70
     0
 62
    -1
  6
CONTINUOUS
370
    -3
390
F
  0
LAYER
  5
2E
330
2
100
AcDbSymbolTableRecord
100
AcDbLayerTableRecord
  2
OPTION-VPC
 70
     0
 62
     1
  6
CONTINUOUS
370
    -3
390
F
  0
LAYER
  5
2F
330
2
100
AcDbSymbolTableRecord
100
AcDbLayerTableRecord
  2
OPTION-NOZ-PLASTIC
 70
     0
 62
    -1
  6
CONTINUOUS
370
    -3
390
F
  0
LAYER
  5
30
330
2
100
AcDbSymbolTableRecord
100
AcDbLayerTableRecord
  2
INSTRUCT-OPTION
 70
     0
 62
     7
  6
CONTINUOUS
370
    -3
390
F
  0
LAYER
  5
31
330
2
100
AcDbSymbolTableRecord
100
AcDbLayerTableRecord
  2
INSTRUCT-CALLOUT
 70
     0
 62
     4
  6
CONTINUOUS
370
    -3
390
F
  0
LAYER
  5
23F
330
2
100
AcDbSymbolTableRecord
100
AcDbLayerTableRecord
  2
OPTION-NOZ-U-SERIES
 70
     0
 62
    -1
  6
CONTINUOUS
370
    -3
390
F
  0
LAYER
  5
247
330
2
100
AcDbSymbolTableRecord
100
AcDbLayerTableRecord
  2
TITLE
 70
     0
 62
     4
  6
CONTINUOUS
370
    -3
390
F
  0
LAYER
  5
2D0
330
2
100
AcDbSymbolTableRecord
100
AcDbLayerTableRecord
  2
OPTION-NP
 70
     0
 62
    -1
  6
CONTINUOUS
370
    -3
390
F
  0
LAYER
  5
509
330
2
100
AcDbSymbolTableRecord
100
AcDbLayerTableRecord
  2
OPTION-NOZ-ROTARY
 70
     0
 62
     1
  6
CONTINUOUS
370
    -3
390
F
  0
ENDTAB
  0
TABLE
  2
STYLE
  5
3
330
0
100
AcDbSymbolTable
 70
     5
  0
STYLE
  5
11
330
3
100
AcDbSymbolTableRecord
100
AcDbTextStyleTableRecord
  2
STANDARD
 70
     0
 40
0.0
 41
1.0
 50
0.0
 71
     0
 42
0.2
  3
txt
  4

  0
STYLE
  5
24
330
3
100
AcDbSymbolTableRecord
100
AcDbTextStyleTableRecord
  2
ROMANS
 70
     0
 40
0.0
 41
1.0
 50
0.0
 71
     0
 42
0.1
  3
ROMANS.SHX
  4

  0
STYLE
  5
248
330
3
100
AcDbSymbolTableRecord
100
AcDbTextStyleTableRecord
  2
L100
 70
     0
 40
0.1
 41
1.0
 50
0.0
 71
     0
 42
0.1
  3
romans.shx
  4

  0
STYLE
  5
249
330
3
100
AcDbSymbolTableRecord
100
AcDbTextStyleTableRecord
  2
L200
 70
     0
 40
0.2
 41
1.0
 50
0.0
 71
     0
 42
0.081
  3
ARIAL.TTF
  4

1001
ACAD
1000
Arial
1071
       34
  0
STYLE
  5
24A
330
3
100
AcDbSymbolTableRecord
100
AcDbTextStyleTableRecord
  2
L80
 70
     0
 40
0.08
 41
1.0
 50
0.0
 71
     0
 42
0.08
  3
ROMANS
  4

  0
ENDTAB
  0
TABLE
  2
VIEW
  5
6
330
0
100
AcDbSymbolTable
 70
     1
  0
VIEW
  5
2D7
330
6
100
AcDbSymbolTableRecord
100
AcDbViewTableRecord
  2
PS1
 70
     0
 40
10.44
 10
8.244999999999997
 20
5.219999999999999
 41
16.48999999999999
 11
0.0
 21
0.0
 31
1.0
 12
0.0
 22
0.0
 32
0.0
 42
50.0
 43
0.0
 44
0.0
 50
0.0
 71
     0
281
     0
 72
     1
110
0.0
120
0.0
130
0.0
111
1.0
121
0.0
131
0.0
112
0.0
122
1.0
132
0.0
 79
     0
146
0.0
  0
ENDTAB
  0
TABLE
  2
UCS
  5
7
330
0
100
AcDbSymbolTable
 70
     0
  0
ENDTAB
  0
TABLE
  2
APPID
  5
9
330
0
100
AcDbSymbolTable
 70
     3
  0
APPID
  5
12
330
9
100
AcDbSymbolTableRecord
100
AcDbRegAppTableRecord
  2
ACAD
 70
     0
  0
APPID
  5
24B
330
9
100
AcDbSymbolTableRecord
100
AcDbRegAppTableRecord
  2
RAK
 70
     0
  0
APPID
  5
24C
330
9
100
AcDbSymbolTableRecord
100
AcDbRegAppTableRecord
  2
DCO15
 70
     0
  0
ENDTAB
  0
TABLE
  2
DIMSTYLE
  5
A
330
0
100
AcDbSymbolTable
 70
     1
100
AcDbDimStyleTable
 71
     0
  0
DIMSTYLE
105
232
330
A
100
AcDbSymbolTableRecord
100
AcDbDimStyleTableRecord
  2
Standard
 70
     0
340
11
  0
ENDTAB
  0
TABLE
  2
BLOCK_RECORD
  5
1
330
0
100
AcDbSymbolTable
 70
     1
  0
BLOCK_RECORD
  5
1E
330
1
100
AcDbSymbolTableRecord
100
AcDbBlockTableRecord
  2
*Model_Space
340
21
  0
BLOCK_RECORD
  5
1A
330
1
100
AcDbSymbolTableRecord
100
AcDbBlockTableRecord
  2
*Paper_Space
340
1D
  0
BLOCK_RECORD
  5
24D
330
1
100
AcDbSymbolTableRecord
100
AcDbBlockTableRecord
  2
titleblock
340
0
102
{BLKREFS
331
25C
102
}
  0
ENDTAB
  0
ENDSEC
  0
SECTION
  2
BLOCKS
  0
BLOCK
  5
35
330
1E
100
AcDbEntity
  8
0
100
AcDbBlockBegin
  2
*Model_Space
 70
     0
 10
0.0
 20
0.0
 30
0.0
  3
*Model_Space
  1

  0
ENDBLK
  5
36
330
1E
100
AcDbEntity
  8
0
100
AcDbBlockEnd
  0
BLOCK
  5
33
330
1A
100
AcDbEntity
 67
     1
  8
0
100
AcDbBlockBegin
  2
*Paper_Space
 70
     0
 10
0.0
 20
0.0
 30
0.0
  3
*Paper_Space
  1

  0
ENDBLK
  5
34
330
1A
100
AcDbEntity
 67
     1
  8
0
100
AcDbBlockEnd
  0
BLOCK
  5
259
330
24D
100
AcDbEntity
  8
0
100
AcDbBlockBegin
  2
titleblock
 70
     2
 10
0.0
 20
0.0
 30
0.0
  3
titleblock
  1

  0
LWPOLYLINE
  5
24E
330
24D
100
AcDbEntity
  8
IMAGE
100
AcDbPolyline
 90
        4
 70
     1
 43
0.0
 10
0.0
 20
0.0
 10
16.48999999999999
 20
0.0000000000000001
 10
16.48999999999999
 20
10.44
 10
0.0
 20
10.44
  0
ATTDEF
  5
24F
330
24D
100
AcDbEntity
  8
TITLE
100
AcDbText
 10
0.5055556038023421
 20
0.7842270964783673
 30
0.0
 40
0.2
  1
D
  7
L200
 72
     4
 11
0.6064423705144839
 21
0.8842270964783672
 31
0.0
100
AcDbAttributeDefinition
  3
#
  2
D
 70
     0
  0
ATTDEF
  5
250
330
24D
100
AcDbEntity
  8
TITLE
100
AcDbText
 10
1.231442370514484
 20
1.34371230274675
 30
0.0
 40
0.2
  1

  7
L200
100
AcDbAttributeDefinition
  3
DETAIL TITLE TOP LINE
  2
TITLE1
 70
     0
  0
ATTDEF
  5
251
330
24D
100
AcDbEntity
  8
TITLE
100
AcDbText
 10
1.231442370514484
 20
0.9842270964783674
 30
0.0
 40
0.2
  1
TITLE
  7
L200
100
AcDbAttributeDefinition
  3
DETAIL TITLE TOP 2ND LINE
  2
TITLE2
 70
     0
  0
ATTDEF
  5
252
330
24D
100
AcDbEntity
  8
TITLE
100
AcDbText
 10
2.713645751168312
 20
0.5927927664583189
 30
0.0
 40
0.2
  1
TITLE2
  7
L200
100
AcDbAttributeDefinition
  3
DETAIL TITLE BOTTOM 1
  2
TITLE3
 70
     0
  0
ATTDEF
  5
253
330
24D
100
AcDbEntity
  8
TITLE
100
AcDbText
 10
2.713645751168312
 20
0.2692560808167741
 30
0.0
 40
0.2
  1

  7
L200
100
AcDbAttributeDefinition
  3
DETAIL TITLE BOTTOM 2
  2
TITLE4
 70
     0
  0
ATTDEF
  5
254
330
24D
100
AcDbEntity
  8
TITLE
 62
     7
100
AcDbText
 10
8.177214829966379
 20
0.9696027915446398
 30
0.0
 40
0.08
  1
-
  7
L80
 72
     2
 11
8.261024353775903
 21
0.9696027915446398
 31
0.0
100
AcDbAttributeDefinition
  3
REVISION DATE
  2
REVISED
 70
     0
  0
ATTDEF
  5
255
330
24D
100
AcDbEntity
  8
TITLE
 62
     7
100
AcDbText
 10
0.2639423705144838
 20
0.0847116480207214
 30
0.0
 40
0.08
  1
-
  7
L80
100
AcDbAttributeDefinition
  3
DWG-NAME
  2
DWG-NAME
 70
     0
  0
LWPOLYLINE
  5
256
330
24D
100
AcDbEntity
  8
TITLE
 62
     3
100
AcDbPolyline
 90
        2
 70
     1
 43
0.03
 10
0.6064423705144839
 20
0.5417270964783675
 42
0.9999999999999998
 10
0.6064423705144839
 20
1.226727096478367
 42
0.9999999999999998
  0
ATTDEF
  5
257
330
24D
100
AcDbEntity
  8
TITLE
 62
     7
100
AcDbText
 10
1.231442370514484
 20
0.7005637793954894
 30
0.0
 40
0.1
  1
N.T.S.
  7
L100
100
AcDbAttributeDefinition
  3
SCALE
  2
SCALE
 70
     0
  0
LWPOLYLINE
  5
258
330
24D
100
AcDbEntity
  8
TITLE
 62
     3
100
AcDbPolyline
 90
        2
 70
     0
 43
0.04
 39
0.03
 10
0.9489423705144833
 20
0.8842270964783672
 10
8.261024353775903
 20
0.8842270964783672
  0
ENDBLK
  5
25A
330
24D
100
AcDbEntity
  8
0
100
AcDbBlockEnd
  0
ENDSEC
  0
SECTION
  2
ENTITIES
  0
CIRCLE
  5
106
330
1E
100
AcDbEntity
  8
TEXT_BUBBLES
100
AcDbCircle
 10
4.944733273542003
 20
5.385760686290239
 30
0.0
 40
0.15625
  0
TEXT
  5
107
330
1E
100
AcDbEntity
  8
TEXT_BUBBLES
100
AcDbText
 10
4.894138035446765
 20
5.323260686290239
 30
0.0
 40
0.125
  1
1
  7
ROMANS
 72
     4
 11
4.944733273542003
 21
5.385760686290239
 31
0.0
100
AcDbText
  0
CIRCLE
  5
108
330
1E
100
AcDbEntity
  8
TEXT_BUBBLES
100
AcDbCircle
 10
4.944733273542003
 20
5.035760525681777
 30
0.0
 40
0.15625
  0
TEXT
  5
109
330
1E
100
AcDbEntity
  8
TEXT_BUBBLES
100
AcDbText
 10
4.885209464018194
 20
4.973260525681777
 30
0.0
 40
0.125
  1
2
  7
ROMANS
 72
     4
 11
4.944733273542003
 21
5.035760525681777
 31
0.0
100
AcDbText
  0
CIRCLE
  5
10A
330
1E
100
AcDbEntity
  8
TEXT_BUBBLES
100
AcDbCircle
 10
4.953348815323974
 20
4.362324846271054
 30
0.0
 40
0.15625
  0
TEXT
  5
10B
330
1E
100
AcDbEntity
  8
TEXT_BUBBLES
100
AcDbText
 10
4.893825005800165
 20
4.299824846271054
 30
0.0
 40
0.125
  1
3
  7
ROMANS
 72
     4
 11
4.953348815323974
 21
4.362324846271054
 31
0.0
100
AcDbText
  0
CIRCLE
  5
10C
330
1E
100
AcDbEntity
  8
TEXT_BUBBLES
100
AcDbCircle
 10
4.944733273542003
 20
3.810760525681773
 30
0.0
 40
0.15625
  0
TEXT
  5
10D
330
1E
100
AcDbEntity
  8
TEXT_BUBBLES
100
AcDbText
 10
4.882233273542003
 20
3.748260525681773
 30
0.0
 40
0.125
  1
4
  7
ROMANS
 72
     4
 11
4.944733273542003
 21
3.810760525681773
 31
0.0
100
AcDbText
  0
CIRCLE
  5
10E
330
1E
100
AcDbEntity
  8
TEXT_BUBBLES
100
AcDbCircle
 10
4.944733273542003
 20
3.460760525681775
 30
0.0
 40
0.15625
  0
TEXT
  5
10F
330
1E
100
AcDbEntity
  8
TEXT_BUBBLES
100
AcDbText
 10
4.885209464018194
 20
3.398260525681775
 30
0.0
 40
0.125
  1
5
  7
ROMANS
 72
     4
 11
4.944733273542003
 21
3.460760525681775
 31
0.0
100
AcDbText
  0
CIRCLE
  5
110
330
1E
100
AcDbEntity
  8
TEXT_BUBBLES
100
AcDbCircle
 10
4.944733273542003
 20
3.113336270027032
 30
0.0
 40
0.15625
  0
TEXT
  5
111
330
1E
100
AcDbEntity
  8
TEXT_BUBBLES
100
AcDbText
 10
4.882233273542003
 20
3.050836270027032
 30
0.0
 40
0.125
  1
6
  7
ROMANS
 72
     4
 11
4.944733273542003
 21
3.113336270027032
 31
0.0
100
AcDbText
  0
CIRCLE
  5
117
330
1E
100
AcDbEntity
  8
TEXT_BUBBLES
100
AcDbCircle
 10
3.545686949445827
 20
1.754740882260641
 30
0.0
 40
0.15625
  0
TEXT
  5
118
330
1E
100
AcDbEntity
  8
TEXT_BUBBLES
100
AcDbText
 10
3.499351849549209
 20
1.692240882260641
 30
0.0
 40
0.125
  1
3
  7
ROMANS
 72
     4
 11
3.558875659073019
 21
1.754740882260641
 31
0.0
100
AcDbText
  0
CIRCLE
  5
119
330
1E
100
AcDbEntity
  8
TEXT_BUBBLES
100
AcDbCircle
 10
4.679105862704358
 20
1.754740882260641
 30
0.0
 40
0.15625
  0
TEXT
  5
11A
330
1E
100
AcDbEntity
  8
TEXT_BUBBLES
100
AcDbText
 10
4.619582053180549
 20
1.692240882260641
 30
0.0
 40
0.125
  1
7
  7
ROMANS
 72
     4
 11
4.679105862704358
 21
1.754740882260641
 31
0.0
100
AcDbText
  0
CIRCLE
  5
11B
330
1E
100
AcDbEntity
  8
TEXT_BUBBLES
100
AcDbCircle
 10
2.820017529102656
 20
1.754740882260641
 30
0.0
 40
0.15625
  0
TEXT
  5
11C
330
1E
100
AcDbEntity
  8
TEXT_BUBBLES
100
AcDbText
 10
2.760493719578847
 20
1.692240882260641
 30
0.0
 40
0.125
  1
5
  7
ROMANS
 72
     4
 11
2.820017529102656
 21
1.754740882260641
 31
0.0
100
AcDbText
  0
TEXT
  5
123
330
1E
100
AcDbEntity
  8
TEXT_BUBBLES
100
AcDbText
 10
0.6189640560282608
 20
3.690562803538007
 30
0.0
 40
0.125
  1
3
  7
ROMANS
 72
     4
 11
0.6784878655520704
 21
3.753062803538007
 31
0.0
100
AcDbText
  0
CIRCLE
  5
124
330
1E
100
AcDbEntity
  8
TEXT_BUBBLES
100
AcDbCircle
 10
0.6784878655520704
 20
3.753062803538007
 30
0.0
 40
0.15625
  0
TEXT
  5
125
330
1E
100
AcDbEntity
  8
TEXT_BUBBLES
100
AcDbText
 10
0.6157981879024641
 20
4.608025675761201
 30
0.0
 40
0.125
  1
2
  7
ROMANS
 72
     4
 11
0.6753219974262736
 21
4.670525675761201
 31
0.0
100
AcDbText
  0
CIRCLE
  5
126
330
1E
100
AcDbEntity
  8
TEXT_BUBBLES
100
AcDbCircle
 10
0.6753219974262736
 20
4.670525675761201
 30
0.0
 40
0.15625
  0
TEXT
  5
129
330
1E
100
AcDbEntity
  8
TEXT_BUBBLES
100
AcDbText
 10
4.153006542962092
 20
1.692240882260641
 30
0.0
 40
0.125
  1
5
  7
ROMANS
 72
     4
 11
4.212530352485901
 21
1.754740882260641
 31
0.0
100
AcDbText
  0
CIRCLE
  5
12A
330
1E
100
AcDbEntity
  8
TEXT_BUBBLES
100
AcDbCircle
 10
4.212530352485901
 20
1.754740882260641
 30
0.0
 40
0.15625
  0
CIRCLE
  5
12B
330
1E
100
AcDbEntity
  8
TEXT_BUBBLES
100
AcDbCircle
 10
0.6753219974262736
 20
5.113325376643631
 30
0.0
 40
0.15625
  0
TEXT
  5
12C
330
1E
100
AcDbEntity
  8
TEXT_BUBBLES
100
AcDbText
 10
0.6247267593310355
 20
5.050825376643631
 30
0.0
 40
0.125
  1
1
  7
ROMANS
 72
     4
 11
0.6753219974262736
 21
5.113325376643631
 31
0.0
100
AcDbText
  0
TEXT
  5
130
330
1E
100
AcDbEntity
  8
TEXT_LEADERS
100
AcDbText
 10
5.22616264039956
 20
4.794999999999999
 30
0.0
 40
0.125
  1
  RAIN BIRD 1802
  7
ROMANS
100
AcDbText
  0
TEXT
  5
131
330
1E
100
AcDbEntity
  8
TEXT_LEADERS
100
AcDbText
 10
5.22616264039956
 20
4.969999999999999
 30
0.0
 40
0.125
  1
POP-UP SPRAY SPRINKLER:
  7
ROMANS
100
AcDbText
  0
CIRCLE
  5
172
330
1E
100
AcDbEntity
  8
TEXT_BUBBLES
100
AcDbCircle
 10
3.886243685752201
 20
1.754740882260641
 30
0.0
 40
0.15625
  0
TEXT
  5
173
330
1E
100
AcDbEntity
  8
TEXT_BUBBLES
100
AcDbText
 10
3.823743685752201
 20
1.692240882260641
 30
0.0
 40
0.125
  1
6
  7
ROMANS
 72
     4
 11
3.886243685752201
 21
1.754740882260641
 31
0.0
100
AcDbText
  0
CIRCLE
  5
178
330
1E
100
AcDbEntity
  8
TEXT_BUBBLES
100
AcDbCircle
 10
0.6784878655520704
 20
3.326441847242027
 30
0.0
 40
0.15625
  0
TEXT
  5
179
330
1E
100
AcDbEntity
  8
TEXT_BUBBLES
100
AcDbText
 10
0.6159878655520704
 20
3.263941847242027
 30
0.0
 40
0.125
  1
4
  7
ROMANS
 72
     4
 11
0.6784878655520704
 21
3.326441847242027
 31
0.0
100
AcDbText
  0
TEXT
  5
17D
330
1E
100
AcDbEntity
  8
TEXT_LEADERS
100
AcDbText
 10
5.22616264039956
 20
1.79031053080618
 30
0.0
 40
0.125
  1
PVC SCH 40 TEE OR ELL
  7
ROMANS
100
AcDbText
  0
TEXT
  5
17E
330
1E
100
AcDbEntity
  8
TEXT_LEADERS
100
AcDbText
 10
5.22616264039956
 20
2.14031053080618
 30
0.0
 40
0.125
  1
PVC SCH 40 STREET ELL
  7
ROMANS
100
AcDbText
  0
TEXT
  5
180
330
1E
100
AcDbEntity
  8
TEXT_LEADERS
100
AcDbText
 10
4.89521089
 20
2.976903190294124
 30
0.0
 40
0.125
  1
  (LENGTH AS REQUIRED)
  7
ROMANS
100
AcDbText
  0
TEXT
  5
181
330
1E
100
AcDbEntity
  8
TEXT_LEADERS
100
AcDbText
 10
5.22616264039956
 20
3.151903190294123
 30
0.0
 40
0.125
  1
PVC SCH 80 NIPPLE
  7
ROMANS
100
AcDbText
  0
TEXT
  5
182
330
1E
100
AcDbEntity
  8
TEXT_LEADERS
100
AcDbText
 10
5.22616264039956
 20
4.168813499999999
 30
0.0
 40
0.125
  1
  (LENGTH AS REQUIRED)
  7
ROMANS
100
AcDbText
  0
TEXT
  5
183
330
1E
100
AcDbEntity
  8
TEXT_LEADERS
100
AcDbText
 10
5.22616264039956
 20
4.3438135
 30
0.0
 40
0.125
  1
PVC SCH 80 NIPPLE
  7
ROMANS
100
AcDbText
  0
TEXT
  5
184
330
1E
100
AcDbEntity
  8
TEXT_LEADERS
100
AcDbText
 10
5.22616264039956
 20
3.851903190294124
 30
0.0
 40
0.125
  1
PVC SCH 40 ELL
  7
ROMANS
100
AcDbText
  0
TEXT
  5
186
330
1E
100
AcDbEntity
  8
TEXT_BUBBLES
100
AcDbText
 10
5.22616264039956
 20
2.694999999999999
 30
0.0
 40
0.125
  1
PVC LATERAL PIPE
  7
ROMANS
100
AcDbText
  0
TEXT
  5
187
330
1E
100
AcDbEntity
  8
TEXT_BUBBLES
100
AcDbText
 10
5.22616264039956
 20
3.395
 30
0.0
 40
0.125
  1
PVC SCH 40 STREET ELL
  7
ROMANS
100
AcDbText
  0
TEXT
  5
188
330
1E
100
AcDbEntity
  8
TEXT_BUBBLES
100
AcDbText
 10
5.22616264039956
 20
3.745
 30
0.0
 40
0.125
  1
PVC SCH 40 ELL
  7
ROMANS
100
AcDbText
  0
TEXT
  5
189
330
1E
100
AcDbEntity
  8
TEXT_BUBBLES
100
AcDbText
 10
5.22616264039956
 20
4.094999999999999
 30
0.0
 40
0.125
  1
  (LENGTH AS REQUIRED)
  7
ROMANS
100
AcDbText
  0
TEXT
  5
18A
330
1E
100
AcDbEntity
  8
TEXT_BUBBLES
100
AcDbText
 10
5.22616264039956
 20
4.269999999999999
 30
0.0
 40
0.125
  1
PVC SCH 80 NIPPLE
  7
ROMANS
100
AcDbText
  0
TEXT
  5
18B
330
1E
100
AcDbEntity
  8
TEXT_BUBBLES
100
AcDbText
 10
5.22616264039956
 20
5.32
 30
0.0
 40
0.125
  1
FINISH GRADE/TOP OF MULCH
  7
ROMANS
100
AcDbText
  0
TEXT
  5
18C
330
1E
100
AcDbEntity
  8
TEXT_BUBBLES
100
AcDbText
 10
5.22616264039956
 20
3.044999999999999
 30
0.0
 40
0.125
  1
PVC SCH 40 TEE OR ELL
  7
ROMANS
100
AcDbText
  0
TEXT
  5
18D
330
1E
100
AcDbEntity
  8
TEXT_BUBBLES
100
AcDbText
 10
5.22616264039956
 20
4.794999999999999
 30
0.0
 40
0.125
  1
  RAIN BIRD 1802
  7
ROMANS
100
AcDbText
  0
TEXT
  5
18E
330
1E
100
AcDbEntity
  8
TEXT_BUBBLES
100
AcDbText
 10
5.22616264039956
 20
4.969999999999999
 30
0.0
 40
0.125
  1
POP-UP SPRAY SPRINKLER:
  7
ROMANS
100
AcDbText
  0
TEXT
  5
18F
330
1E
100
AcDbEntity
  8
TEXT_BUBBLES
100
AcDbText
 10
4.885209464018194
 20
2.700836270027031
 30
0.0
 40
0.125
  1
7
  7
ROMANS
 72
     4
 11
4.944733273542003
 21
2.763336270027031
 31
0.0
100
AcDbText
  0
CIRCLE
  5
190
330
1E
100
AcDbEntity
  8
TEXT_BUBBLES
100
AcDbCircle
 10
4.944733273542003
 20
2.763336270027031
 30
0.0
 40
0.15625
  0
TEXT
  5
192
330
1E
100
AcDbEntity
  8
OPTION-VPC
100
AcDbText
 10
6.883513256721035
 20
4.794999999999999
 30
0.0
 40
0.125
  1
  WITH 1800 VPC
  7
ROMANS
100
AcDbText
  0
TEXT
  5
193
330
1E
100
AcDbEntity
  8
OPTION-NOZ-VAN
100
AcDbText
 10
5.22616264039956
 20
4.62
 30
0.0
 40
0.125
  1
  WITH VAN NOZZLE
  7
ROMANS
100
AcDbText
  0
TEXT
  5
194
330
1E
100
AcDbEntity
  8
OPTION-NOZ-PLASTIC
100
AcDbText
 10
5.22616264039956
 20
4.62
 30
0.0
 40
0.125
  1
  WITH PLASTIC MPR NOZZLE
  7
ROMANS
100
AcDbText
  0
TEXT
  5
1AE
330
1E
100
AcDbEntity
  8
INSTRUCT-CALLOUT
100
AcDbText
 10
11.48728821462088
 20
9.776134305190703
 30
0.0
 40
0.125
  1
CHOOSE EITHER LEADERS OR BUBBLE CALLOUTS
  7
ROMANS
100
AcDbText
  0
TEXT
  5
1AF
330
1E
100
AcDbEntity
  8
INSTRUCT-CALLOUT
100
AcDbText
 10
11.48728821462088
 20
9.601134305190704
 30
0.0
 40
0.125
  1
BY TURNING ON THE APPROPRIATE LAYER:
  7
ROMANS
100
AcDbText
  0
LINE
  5
1B1
330
1E
100
AcDbEntity
  8
INSTRUCT-CALLOUT
100
AcDbLine
 10
12.28957190238158
 20
9.02474571333578
 30
0.0
 11
12.4258404482402
 21
9.024745713335779
 31
0.0
  0
LINE
  5
1B2
330
1E
100
AcDbEntity
  8
INSTRUCT-CALLOUT
100
AcDbLine
 10
12.00180148790325
 20
8.904994011529499
 30
0.0
 11
12.28957190238158
 21
9.02474571333578
 31
0.0
  0
SOLID
  5
1B3
330
1E
100
AcDbEntity
  8
INSTRUCT-CALLOUT
100
AcDbTrace
 10
12.08718748544358
 20
8.908032337391386
 30
0.0
 11
12.06413560055185
 21
8.963427378712232
 31
0.0
 12
11.90947641903517
 22
8.866574203376611
 32
0.0
 13
11.90947641903517
 23
8.866574203376611
 33
0.0
  0
SOLID
  5
1B5
330
1E
100
AcDbEntity
  8
INSTRUCT-CALLOUT
100
AcDbTrace
 10
14.229656813493
 20
8.921458371942785
 30
0.0
 11
14.24545910714734
 21
8.863576703728558
 31
0.0
 12
14.06391295567749
 22
8.845110656872655
 32
0.0
 13
14.06391295567749
 23
8.845110656872655
 33
0.0
  0
LINE
  5
1B6
330
1E
100
AcDbEntity
  8
INSTRUCT-CALLOUT
100
AcDbLine
 10
14.1603824027012
 20
8.87144781296322
 30
0.0
 11
14.41626381962605
 21
8.941306084427839
 31
0.0
  0
TEXT
  5
1B7
330
1E
100
AcDbEntity
  8
INSTRUCT-CALLOUT
100
AcDbText
 10
14.51640209250536
 20
8.919957890819343
 30
0.0
 40
0.125
  1
1
  7
ROMANS
 72
     4
 11
14.5669973306006
 21
8.982457890819343
 31
0.0
100
AcDbText
  0
CIRCLE
  5
1B8
330
1E
100
AcDbEntity
  8
INSTRUCT-CALLOUT
100
AcDbCircle
 10
14.5669973306006
 20
8.982457890819343
 30
0.0
 40
0.15625
  0
LWPOLYLINE
  5
21B
330
1E
100
AcDbEntity
  8
INSTRUCT-CALLOUT
100
AcDbPolyline
 90
        4
 70
     1
 43
0.0
 10
11.44826086726666
 20
10.09312987775725
 10
11.44826086726666
 20
8.661643856415011
 10
16.36666371200561
 20
8.661643856415011
 10
16.36666371200561
 20
10.09312987775725
  0
TEXT
  5
221
330
1E
100
AcDbEntity
  8
INSTRUCT-CALLOUT
100
AcDbText
 10
11.77885328720868
 20
10.15024536847445
 30
0.0
 40
0.125
  1
CHOOSING EQUIPMENT CALLOUT METHOD
  7
ROMANS
100
AcDbText
  0
TEXT
  5
224
330
1E
100
AcDbEntity
  8
INSTRUCT-CALLOUT
100
AcDbText
 10
11.98244725042478
 20
9.277216967037395
 30
0.0
 40
0.125
  1
TEXT_LEADERS         TEXT_BUBBLES
  7
ROMANS
100
AcDbText
  0
LINE
  5
225
330
1E
100
AcDbEntity
  8
INSTRUCT-CALLOUT
100
AcDbLine
 10
12.28957190238158
 20
9.02474571333578
 30
0.0
 11
12.4258404482402
 21
9.024745713335779
 31
0.0
  0
LINE
  5
226
330
1E
100
AcDbEntity
  8
INSTRUCT-CALLOUT
100
AcDbLine
 10
12.00180148790325
 20
8.904994011529499
 30
0.0
 11
12.28957190238158
 21
9.02474571333578
 31
0.0
  0
SOLID
  5
227
330
1E
100
AcDbEntity
  8
INSTRUCT-CALLOUT
100
AcDbTrace
 10
12.08718748544358
 20
8.908032337391386
 30
0.0
 11
12.06413560055185
 21
8.963427378712232
 31
0.0
 12
11.90947641903517
 22
8.866574203376611
 32
0.0
 13
11.90947641903517
 23
8.866574203376611
 33
0.0
  0
TEXT
  5
228
330
1E
100
AcDbEntity
  8
INSTRUCT-CALLOUT
100
AcDbText
 10
12.45181518525733
 20
8.959995103941881
 30
0.0
 40
0.125
  1
ITEM 1
  7
ROMANS
100
AcDbText
  0
SOLID
  5
229
330
1E
100
AcDbEntity
  8
INSTRUCT-CALLOUT
100
AcDbTrace
 10
14.229656813493
 20
8.921458371942785
 30
0.0
 11
14.24545910714734
 21
8.863576703728558
 31
0.0
 12
14.06391295567749
 22
8.845110656872655
 32
0.0
 13
14.06391295567749
 23
8.845110656872655
 33
0.0
  0
LINE
  5
22A
330
1E
100
AcDbEntity
  8
INSTRUCT-CALLOUT
100
AcDbLine
 10
14.1603824027012
 20
8.87144781296322
 30
0.0
 11
14.41626381962605
 21
8.941306084427839
 31
0.0
  0
TEXT
  5
22B
330
1E
100
AcDbEntity
  8
INSTRUCT-CALLOUT
100
AcDbText
 10
14.51640209250536
 20
8.919957890819343
 30
0.0
 40
0.125
  1
1
  7
ROMANS
 72
     4
 11
14.5669973306006
 21
8.982457890819343
 31
0.0
100
AcDbText
  0
CIRCLE
  5
22C
330
1E
100
AcDbEntity
  8
INSTRUCT-CALLOUT
100
AcDbCircle
 10
14.5669973306006
 20
8.982457890819343
 30
0.0
 40
0.15625
  0
TEXT
  5
22D
330
1E
100
AcDbEntity
  8
INSTRUCT-CALLOUT
100
AcDbText
 10
11.48728821462088
 20
8.274564795924504
 30
0.0
 40
0.125
  1
LAYER "INSTRUCT-CALLOUT".
  7
ROMANS
100
AcDbText
  0
TEXT
  5
22E
330
1E
100
AcDbEntity
  8
INSTRUCT-CALLOUT
100
AcDbText
 10
11.48728821462088
 20
8.449564795924503
 30
0.0
 40
0.125
  1
TO TURN OFF THIS INSTRUCTION BOX, TURN OFF
  7
ROMANS
100
AcDbText
  0
TEXT
  5
23E
330
1E
100
AcDbEntity
  8
OPTION-NOZ-U-SERIES
100
AcDbText
 10
5.22616264039956
 20
4.62
 30
0.0
 40
0.125
  1
  WITH U-SERIES NOZZLE
  7
ROMANS
100
AcDbText
  0
INSERT
  5
25C
330
1E
100
AcDbEntity
  8
TITLE
100
AcDbBlockReference
 66
     1
  2
titleblock
 10
0.0
 20
0.0
 30
0.0
  0
ATTRIB
  5
25E
330
25C
100
AcDbEntity
  8
TITLE
100
AcDbText
 10
0.5055556038023421
 20
0.7842270964783673
 30
0.0
 40
0.2
  1
D
  7
L200
 72
     4
 11
0.6064423705144839
 21
0.8842270964783672
 31
0.0
100
AcDbAttribute
  2
D
 70
     0
  0
ATTRIB
  5
25F
330
25C
100
AcDbEntity
  8
TITLE
100
AcDbText
 10
1.231442370514484
 20
1.34371230274675
 30
0.0
 40
0.2
  1

  7
L200
100
AcDbAttribute
  2
TITLE1
 70
     0
  0
ATTRIB
  5
260
330
25C
100
AcDbEntity
  8
TITLE
100
AcDbText
 10
1.231442370514484
 20
0.9842270964783674
 30
0.0
 40
0.2
  1
POP-UP SPRAY SPRINKLER
  7
L200
100
AcDbAttribute
  2
TITLE2
 70
     0
  0
ATTRIB
  5
261
330
25C
100
AcDbEntity
  8
TITLE
100
AcDbText
 10
2.713645751168312
 20
0.5927927664583189
 30
0.0
 40
0.2
  1
1803 WITH SWING JOINT
  7
L200
100
AcDbAttribute
  2
TITLE3
 70
     0
  0
ATTRIB
  5
262
330
25C
100
AcDbEntity
  8
TITLE
100
AcDbText
 10
2.713645751168312
 20
0.2692560808167741
 30
0.0
 40
0.2
  1

  7
L200
100
AcDbAttribute
  2
TITLE4
 70
     0
  0
ATTRIB
  5
263
330
25C
100
AcDbEntity
  8
TITLE
 62
     7
100
AcDbText
 10
7.689595782347332
 20
0.9696027915446398
 30
0.0
 40
0.08
  1
4-13-04
  7
L80
 72
     2
 11
8.261024353775903
 21
0.9696027915446398
 31
0.0
100
AcDbAttribute
  2
REVISED
 70
     0
  0
ATTRIB
  5
264
330
25C
100
AcDbEntity
  8
TITLE
 62
     7
100
AcDbText
 10
0.2639423705144838
 20
0.0847116480207214
 30
0.0
 40
0.08
  1
S-1803-SJ.DWG
  7
L80
100
AcDbAttribute
  2
DWG-NAME
 70
     0
  0
ATTRIB
  5
265
330
25C
100
AcDbEntity
  8
TITLE
 62
     7
100
AcDbText
 10
1.231442370514484
 20
0.7005637793954894
 30
0.0
 40
0.1
  1
N.T.S.
  7
L100
100
AcDbAttribute
  2
SCALE
 70
     0
  0
SEQEND
  5
25D
330
25C
100
AcDbEntity
  8
IMAGE
  0
LEADER
  5
26B
330
1E
100
AcDbEntity
  8
TEXT_BUBBLES
100
AcDbLeader
  3
Standard
 76
     2
 10
1.218991517176728
 20
4.966606576296678
 30
0.0
 10
0.8264812299861583
 20
5.073765941461785
 30
0.0
1001
ACAD
1000
DSTYLE
1002
{
1070
   147
1040
0.09
1070
    77
1070
     0
1070
   279
1070
     2
1002
}
  0
LEADER
  5
26C
330
1E
100
AcDbEntity
  8
TEXT_BUBBLES
100
AcDbLeader
  3
Standard
 76
     2
 10
2.215426355022171
 20
4.228785417014858
 30
0.0
 10
0.8193437796253199
 20
4.609930389210096
 30
0.0
1001
ACAD
1000
DSTYLE
1002
{
1070
   147
1040
0.09
1070
    77
1070
     0
1070
   279
1070
     2
1002
}
  0
LEADER
  5
26D
330
1E
100
AcDbEntity
  8
TEXT_BUBBLES
100
AcDbLeader
  3
Standard
 76
     2
 10
2.340862951927855
 20
3.249967940743858
 30
0.0
 10
0.8095713122900585
 20
3.668026384920517
 30
0.0
1001
ACAD
1000
DSTYLE
1002
{
1070
   147
1040
0.09
1070
    77
1070
     0
1070
   279
1070
     2
1002
}
  0
LEADER
  5
26E
330
1E
100
AcDbEntity
  8
TEXT_BUBBLES
100
AcDbLeader
  3
Standard
 76
     2
 10
2.326297987585836
 20
2.870230131705288
 30
0.0
 10
0.8314408873375874
 20
3.294513245226294
 30
0.0
1001
ACAD
1000
DSTYLE
1002
{
1070
   147
1040
0.09
1070
    77
1070
     0
1070
   279
1070
     2
1002
}
  0
LEADER
  5
26F
330
1E
100
AcDbEntity
  8
TEXT_BUBBLES
100
AcDbLeader
  3
Standard
 76
     2
 10
2.579878436736248
 20
2.73660790119558
 30
0.0
 10
2.786909307089907
 20
1.907442906265415
 30
0.0
1001
ACAD
1000
DSTYLE
1002
{
1070
   147
1040
0.09
1070
    77
1070
     0
1070
   279
1070
     2
1002
}
  0
LEADER
  5
270
330
1E
100
AcDbEntity
  8
TEXT_BUBBLES
100
AcDbLeader
  3
Standard
 76
     2
 10
3.384967810624866
 20
2.576050326515093
 30
0.0
 10
3.551032271737961
 20
1.910899423588335
 30
0.0
1001
ACAD
1000
DSTYLE
1002
{
1070
   147
1040
0.09
1070
    77
1070
     0
1070
   279
1070
     2
1002
}
  0
LEADER
  5
271
330
1E
100
AcDbEntity
  8
TEXT_BUBBLES
100
AcDbLeader
  3
Standard
 76
     2
 10
3.765827084441137
 20
2.416339632607624
 30
0.0
 10
3.892075038815853
 20
1.910882029372627
 30
0.0
1001
ACAD
1000
DSTYLE
1002
{
1070
   147
1040
0.09
1070
    77
1070
     0
1070
   279
1070
     2
1002
}
  0
LEADER
  5
273
330
1E
100
AcDbEntity
  8
TEXT_BUBBLES
100
AcDbLeader
  3
Standard
 76
     2
 10
4.015653674888747
 20
2.503434734437822
 30
0.0
 10
4.165442504390115
 20
1.903726777773297
 30
0.0
1001
ACAD
1000
DSTYLE
1002
{
1070
   147
1040
0.09
1070
    77
1070
     0
1070
   279
1070
     2
1002
}
  0
LEADER
  5
275
330
1E
100
AcDbEntity
  8
TEXT_BUBBLES
100
AcDbLeader
  3
Standard
 76
     2
 10
4.487053026399804
 20
2.439938607103684
 30
0.0
 10
4.62187975345803
 20
1.900134262166768
 30
0.0
1001
ACAD
1000
DSTYLE
1002
{
1070
   147
1040
0.09
1070
    77
1070
     0
1070
   279
1070
     2
1002
}
  0
TEXT
  5
27C
330
1E
100
AcDbEntity
  8
TEXT_LEADERS
100
AcDbText
 10
5.22616264039956
 20
5.373852901169523
 30
0.0
 40
0.125
  1
FINISH GRADE/TOP OF MULCH
  7
ROMANS
100
AcDbText
  0
TEXT
  5
27D
330
1E
100
AcDbEntity
  8
TEXT_LEADERS
100
AcDbText
 10
5.22616264039956
 20
3.501903190294124
 30
0.0
 40
0.125
  1
PVC SCH 40 STREET ELL
  7
ROMANS
100
AcDbText
  0
TEXT
  5
27E
330
1E
100
AcDbEntity
  8
TEXT_LEADERS
100
AcDbText
 10
5.22616264039956
 20
2.467504687726245
 30
0.0
 40
0.125
  1
PVC LATERAL PIPE
  7
ROMANS
100
AcDbText
  0
LEADER
  5
288
330
1E
100
AcDbEntity
  8
TEXT_LEADERS
100
AcDbLeader
  3
Standard
 76
     2
 10
4.601898187686517
 20
2.53941581855954
 30
0.0
 10
5.14085151938211
 20
2.53941581855954
 30
0.0
1001
ACAD
1000
DSTYLE
1002
{
1070
   147
1040
0.09
1070
    77
1070
     0
1070
   279
1070
     2
1002
}
  0
LEADER
  5
295
330
1E
100
AcDbEntity
  8
TEXT_LEADERS
100
AcDbLeader
  3
Standard
 76
     3
 10
4.009482082839742
 20
4.966331036174679
 30
0.0
 10
4.770810834978902
 20
5.436479683195219
 30
0.0
 10
5.14085151938211
 20
5.436479683195219
 30
0.0
1001
ACAD
1000
DSTYLE
1002
{
1070
   147
1040
0.09
1070
    77
1070
     0
1070
   279
1070
     2
1002
}
  0
LEADER
  5
297
330
1E
100
AcDbEntity
  8
TEXT_LEADERS
100
AcDbLeader
  3
Standard
 76
     3
 10
2.627404140081108
 20
4.137675527321851
 30
0.0
 10
4.770810834978902
 20
5.027059650198815
 30
0.0
 10
5.14085151938211
 20
5.027059650198815
 30
0.0
1001
ACAD
1000
DSTYLE
1002
{
1070
   147
1040
0.09
1070
    77
1070
     0
1070
   279
1070
     2
1002
}
  0
LEADER
  5
298
330
1E
100
AcDbEntity
  8
TEXT_LEADERS
100
AcDbLeader
  3
Standard
 76
     3
 10
2.510617184417811
 20
3.198102470572246
 30
0.0
 10
4.770810834978902
 20
4.408509918818597
 30
0.0
 10
5.146938469749934
 20
4.408509918818597
 30
0.0
1001
ACAD
1000
DSTYLE
1002
{
1070
   147
1040
0.09
1070
    77
1070
     0
1070
   279
1070
     2
1002
}
  0
LEADER
  5
299
330
1E
100
AcDbEntity
  8
TEXT_LEADERS
100
AcDbLeader
  3
Standard
 76
     3
 10
2.522790755424114
 20
2.988687160857531
 30
0.0
 10
4.770810834978902
 20
3.912323649456225
 30
0.0
 10
5.140739921236432
 20
3.912323649456225
 30
0.0
1001
ACAD
1000
DSTYLE
1002
{
1070
   147
1040
0.09
1070
    77
1070
     0
1070
   279
1070
     2
1002
}
  0
LEADER
  5
29B
330
1E
100
AcDbEntity
  8
TEXT_LEADERS
100
AcDbLeader
  3
Standard
 76
     3
 10
2.59778035290113
 20
2.923932442378391
 30
0.0
 10
4.770810834978902
 20
3.56751623257587
 30
0.0
 10
5.140739921236431
 20
3.56751623257587
 30
0.0
1001
ACAD
1000
DSTYLE
1002
{
1070
   147
1040
0.09
1070
    77
1070
     0
1070
   279
1070
     2
1002
}
  0
LEADER
  5
29C
330
1E
100
AcDbEntity
  8
TEXT_LEADERS
100
AcDbLeader
  3
Standard
 76
     3
 10
3.316254106001526
 20
2.761799234144382
 30
0.0
 10
4.770810834978902
 20
3.214298860571856
 30
0.0
 10
5.14085151938211
 20
3.214298860571856
 30
0.0
1001
ACAD
1000
DSTYLE
1002
{
1070
   147
1040
0.09
1070
    77
1070
     0
1070
   279
1070
     2
1002
}
  0
LEADER
  5
29D
330
1E
100
AcDbEntity
  8
TEXT_LEADERS
100
AcDbLeader
  3
Standard
 76
     3
 10
4.014853620793704
 20
2.499427800694949
 30
0.0
 10
4.770810834978902
 20
2.20169143707751
 30
0.0
 10
5.14085151938211
 20
2.20169143707751
 30
0.0
1001
ACAD
1000
DSTYLE
1002
{
1070
   147
1040
0.09
1070
    77
1070
     0
1070
   279
1070
     2
1002
}
  0
LEADER
  5
29E
330
1E
100
AcDbEntity
  8
TEXT_LEADERS
100
AcDbLeader
  3
Standard
 76
     3
 10
3.807178443330576
 20
2.416339632607625
 30
0.0
 10
4.770810834978902
 20
1.858882202313045
 30
0.0
 10
5.14085151938211
 20
1.858882202313045
 30
0.0
1001
ACAD
1000
DSTYLE
1002
{
1070
   147
1040
0.09
1070
    77
1070
     0
1070
   279
1070
     2
1002
}
  0
TEXT
  5
2CF
330
1E
100
AcDbEntity
  8
OPTION-NP
100
AcDbText
 10
6.883513256721035
 20
4.794999999999999
 30
0.0
 40
0.125
  1
  WITH 1800 NP COVER
  7
ROMANS
100
AcDbText
  0
LINE
  5
3D0
330
1E
100
AcDbEntity
  8
IMAGE
100
AcDbLine
 10
3.97504415953343
 20
5.284817175043034
 30
0.0
 11
3.823118297110402
 21
4.96605549605268
 31
0.0
  0
LINE
  5
3D1
330
1E
100
AcDbEntity
  8
IMAGE
100
AcDbLine
 10
3.678002904382218
 20
5.251841828940579
 30
0.0
 11
3.746403708708501
 21
4.966055496052691
 31
0.0
  0
LINE
  5
3D2
330
1E
100
AcDbEntity
  8
IMAGE
100
AcDbLine
 10
3.512979984853764
 20
5.306800739111325
 30
0.0
 11
3.512979984853764
 21
4.96605549605268
 31
0.0
  0
LINE
  5
3D3
330
1E
100
AcDbEntity
  8
IMAGE
100
AcDbLine
 10
3.843025823910662
 20
5.295808957077182
 30
0.0
 11
3.763570344137709
 21
4.96605549605268
 31
0.0
  0
LINE
  5
3D4
330
1E
100
AcDbEntity
  8
IMAGE
100
AcDbLine
 10
3.592140693528128
 20
5.254077302646672
 30
0.0
 11
3.665970376078312
 21
4.972601637924137
 31
0.0
  0
LINE
  5
3D5
330
1E
100
AcDbEntity
  8
IMAGE
100
AcDbLine
 10
3.878230713410064
 20
5.244848592327908
 30
0.0
 11
3.851858393492141
 21
4.96605549605268
 31
0.0
  0
LINE
  5
3D6
330
1E
100
AcDbEntity
  8
IMAGE
100
AcDbLine
 10
3.343556454137892
 20
5.284817175043034
 30
0.0
 11
3.191630591714864
 21
4.96605549605268
 31
0.0
  0
LINE
  5
3D7
330
1E
100
AcDbEntity
  8
IMAGE
100
AcDbLine
 10
2.881492279458226
 20
5.306800739111325
 30
0.0
 11
2.881492279458226
 21
4.96605549605268
 31
0.0
  0
LINE
  5
3D8
330
1E
100
AcDbEntity
  8
IMAGE
100
AcDbLine
 10
2.991507559143856
 20
5.273825393008875
 30
0.0
 11
2.965837327217211
 21
4.966055496052691
 31
0.0
  0
LINE
  5
3D9
330
1E
100
AcDbEntity
  8
IMAGE
100
AcDbLine
 10
3.211538118515125
 20
5.295808957077182
 30
0.0
 11
3.132082638742173
 21
4.96605549605268
 31
0.0
  0
LINE
  5
3DA
330
1E
100
AcDbEntity
  8
IMAGE
100
AcDbLine
 10
3.112926708392329
 20
5.249462947487298
 30
0.0
 11
3.139496156964323
 21
4.96605549605268
 31
0.0
  0
LINE
  5
3DB
330
1E
100
AcDbEntity
  8
IMAGE
100
AcDbLine
 10
2.776078781757153
 20
5.267920368124837
 30
0.0
 11
2.812891571034246
 21
4.96605549605268
 31
0.0
  0
LINE
  5
3DC
330
1E
100
AcDbEntity
  8
IMAGE
100
AcDbLine
 10
2.909895081379349
 20
5.226391171690364
 30
0.0
 11
2.981277444054198
 21
4.96605549605268
 31
0.0
  0
LINE
  5
3DD
330
1E
100
AcDbEntity
  8
IMAGE
100
AcDbLine
 10
3.402495306641475
 20
5.284817175043034
 30
0.0
 11
3.250569444218448
 21
4.96605549605268
 31
0.0
  0
LINE
  5
3DE
330
1E
100
AcDbEntity
  8
IMAGE
100
AcDbLine
 10
3.105454051490263
 20
5.251841828940579
 30
0.0
 11
3.173854855816548
 21
4.966055496052691
 31
0.0
  0
LINE
  5
3DF
330
1E
100
AcDbEntity
  8
IMAGE
100
AcDbLine
 10
2.940431131961811
 20
5.306800739111325
 30
0.0
 11
2.940431131961811
 21
4.96605549605268
 31
0.0
  0
LINE
  5
3E0
330
1E
100
AcDbEntity
  8
IMAGE
100
AcDbLine
 10
2.797411268370487
 20
5.20787470080398
 30
0.0
 11
2.992899957658038
 21
4.96605549605268
 31
0.0
  0
LINE
  5
3E1
330
1E
100
AcDbEntity
  8
IMAGE
100
AcDbLine
 10
3.050446411647439
 20
5.273825393008875
 30
0.0
 11
3.024776179720794
 21
4.966055496052691
 31
0.0
  0
LINE
  5
3E2
330
1E
100
AcDbEntity
  8
IMAGE
100
AcDbLine
 10
3.270476971018707
 20
5.295808957077182
 30
0.0
 11
3.191021491245756
 21
4.96605549605268
 31
0.0
  0
LINE
  5
3E3
330
1E
100
AcDbEntity
  8
IMAGE
100
AcDbLine
 10
3.019591840636175
 20
5.254077302646672
 30
0.0
 11
3.093421523186358
 21
4.972601637924137
 31
0.0
  0
LINE
  5
3E4
330
1E
100
AcDbEntity
  8
IMAGE
100
AcDbLine
 10
2.835017634260735
 20
5.267920368124837
 30
0.0
 11
2.871830423537829
 21
4.96605549605268
 31
0.0
  0
LINE
  5
3E5
330
1E
100
AcDbEntity
  8
IMAGE
100
AcDbLine
 10
3.549842437900435
 20
5.284817175043034
 30
0.0
 11
3.397916575477407
 21
4.96605549605268
 31
0.0
  0
LINE
  5
3E6
330
1E
100
AcDbEntity
  8
IMAGE
100
AcDbLine
 10
3.252801182749222
 20
5.251841828940579
 30
0.0
 11
3.321201987075506
 21
4.966055496052691
 31
0.0
  0
LINE
  5
3E7
330
1E
100
AcDbEntity
  8
IMAGE
100
AcDbLine
 10
3.087778263220769
 20
5.306800739111325
 30
0.0
 11
3.087778263220769
 21
4.96605549605268
 31
0.0
  0
LINE
  5
3E8
330
1E
100
AcDbEntity
  8
IMAGE
100
AcDbLine
 10
3.166938971895134
 20
5.254077302646672
 30
0.0
 11
3.240768654445317
 21
4.972601637924137
 31
0.0
  0
LINE
  5
3E9
330
1E
100
AcDbEntity
  8
IMAGE
100
AcDbLine
 10
3.453028991777069
 20
5.244848592327908
 30
0.0
 11
3.426656671859146
 21
4.96605549605268
 31
0.0
  0
LINE
  5
3EA
330
1E
100
AcDbEntity
  8
IMAGE
100
AcDbLine
 10
3.74981354460902
 20
5.284817175043034
 30
0.0
 11
3.597887682185993
 21
4.96605549605268
 31
0.0
  0
LINE
  5
3EB
330
1E
100
AcDbEntity
  8
IMAGE
100
AcDbLine
 10
3.452772289457809
 20
5.251841828940579
 30
0.0
 11
3.521173093784093
 21
4.966055496052691
 31
0.0
  0
LINE
  5
3EC
330
1E
100
AcDbEntity
  8
IMAGE
100
AcDbLine
 10
3.287749369929356
 20
5.306800739111325
 30
0.0
 11
3.287749369929356
 21
4.96605549605268
 31
0.0
  0
LINE
  5
3ED
330
1E
100
AcDbEntity
  8
IMAGE
100
AcDbLine
 10
3.397764649614984
 20
5.273825393008875
 30
0.0
 11
3.372094417688339
 21
4.966055496052691
 31
0.0
  0
LINE
  5
3EE
330
1E
100
AcDbEntity
  8
IMAGE
100
AcDbLine
 10
3.519183798863458
 20
5.249462947487298
 30
0.0
 11
3.545753247435452
 21
4.96605549605268
 31
0.0
  0
LINE
  5
3EF
330
1E
100
AcDbEntity
  8
IMAGE
100
AcDbLine
 10
3.36691007860372
 20
5.254077302646672
 30
0.0
 11
3.440739761153904
 21
4.972601637924137
 31
0.0
  0
LINE
  5
3F0
330
1E
100
AcDbEntity
  8
IMAGE
100
AcDbLine
 10
3.94317430465534
 20
5.249462947487298
 30
0.0
 11
3.969743753227335
 21
4.96605549605268
 31
0.0
  0
LINE
  5
3F1
330
1E
100
AcDbEntity
  8
IMAGE
100
AcDbLine
 10
3.826243778818049
 20
5.251841828940579
 30
0.0
 11
3.894644583144333
 21
4.966055496052691
 31
0.0
  0
LINE
  5
3F2
330
1E
100
AcDbEntity
  8
IMAGE
100
AcDbLine
 10
3.661220859289596
 20
5.306800739111325
 30
0.0
 11
3.661220859289596
 21
4.96605549605268
 31
0.0
  0
LINE
  5
3F3
330
1E
100
AcDbEntity
  8
IMAGE
100
AcDbLine
 10
3.518200995698273
 20
5.20787470080398
 30
0.0
 11
3.713689684985824
 21
4.96605549605268
 31
0.0
  0
LINE
  5
3F4
330
1E
100
AcDbEntity
  8
IMAGE
100
AcDbLine
 10
3.991266698346494
 20
5.295808957077182
 30
0.0
 11
3.911811218573544
 21
4.96605549605268
 31
0.0
  0
LINE
  5
3F5
330
1E
100
AcDbEntity
  8
IMAGE
100
AcDbLine
 10
3.892655288223699
 20
5.249462947487298
 30
0.0
 11
3.919224736795694
 21
4.96605549605268
 31
0.0
  0
LINE
  5
3F6
330
1E
100
AcDbEntity
  8
IMAGE
100
AcDbLine
 10
3.740381567963962
 20
5.254077302646672
 30
0.0
 11
3.814211250514144
 21
4.972601637924137
 31
0.0
  0
LINE
  5
3F7
330
1E
100
AcDbEntity
  8
IMAGE
100
AcDbLine
 10
3.555807361588521
 20
5.267920368124837
 30
0.0
 11
3.592620150865616
 21
4.96605549605268
 31
0.0
  0
LINE
  5
3F8
330
1E
100
AcDbEntity
  8
IMAGE
100
AcDbLine
 10
4.009482082839742
 20
4.966331036174679
 30
0.0
 11
2.778008017512089
 21
4.966331036174679
 31
0.0
  0
LINE
  5
3F9
330
1E
100
AcDbEntity
  8
IMAGE
100
AcDbLine
 10
3.825999848733763
 20
2.663409312004253
 30
0.0
 11
4.228539802463519
 21
2.663409312004255
 31
0.0
  0
LINE
  5
3FA
330
1E
100
AcDbEntity
  8
IMAGE
100
AcDbLine
 10
3.098080115634168
 20
2.63745929530277
 30
0.0
 11
1.799763184566542
 21
2.637459295302768
 31
0.0
  0
LINE
  5
3FB
330
1E
100
AcDbEntity
  8
IMAGE
100
AcDbLine
 10
3.667974755619933
 20
2.438504872391058
 30
0.0
 11
1.799763184566542
 21
2.438504872391058
 31
0.0
  0
LINE
  5
3FC
330
1E
100
AcDbEntity
  8
IMAGE
100
AcDbLine
 10
4.605064055812313
 20
2.439938607103684
 30
0.0
 11
4.228539802463517
 21
2.439938607103684
 31
0.0
  0
LINE
  5
3FD
330
1E
100
AcDbEntity
  8
IMAGE
100
AcDbLine
 10
4.605064055812313
 20
2.638893030015394
 30
0.0
 11
4.228539802463519
 21
2.638893030015394
 31
0.0
  0
LINE
  5
3FE
330
1E
100
AcDbEntity
  8
IMAGE
100
AcDbLine
 10
3.970544160553517
 20
2.632726815547297
 30
0.0
 11
3.931540335924697
 21
2.450310901840023
 31
0.0
  0
LINE
  5
3FF
330
1E
100
AcDbEntity
  8
IMAGE
100
AcDbLine
 10
3.667974755619933
 20
2.516803504065017
 30
0.0
 11
3.667974755619933
 21
2.416339632607625
 31
0.0
  0
LINE
  5
400
330
1E
100
AcDbEntity
  8
IMAGE
100
AcDbLine
 10
4.228539802463519
 20
2.416339632607625
 30
0.0
 11
3.667974755619933
 21
2.416339632607625
 31
0.0
  0
LINE
  5
401
330
1E
100
AcDbEntity
  8
IMAGE
100
AcDbLine
 10
3.729980644652247
 20
2.683791358533381
 30
0.0
 11
3.691052942532726
 21
2.501731460094357
 31
0.0
  0
LINE
  5
402
330
1E
100
AcDbEntity
  8
IMAGE
100
AcDbLine
 10
2.687044237313895
 20
2.905012363494773
 30
0.0
 11
2.648710453646123
 21
2.722826486869701
 31
0.0
  0
LINE
  5
403
330
1E
100
AcDbEntity
  8
IMAGE
100
AcDbLine
 10
2.687044237313895
 20
2.905012363494773
 30
0.0
 11
2.522894664541299
 21
2.939804966191833
 31
0.0
  0
LINE
  5
404
330
1E
100
AcDbEntity
  8
IMAGE
100
AcDbLine
 10
2.648710453646123
 20
2.722826486869701
 30
0.0
 11
2.419499613100269
 21
2.770931174292933
 31
0.0
  0
ARC
  5
405
330
1E
100
AcDbEntity
  8
IMAGE
100
AcDbCircle
 10
3.948867429036843
 20
2.540655301986401
 30
0.0
 40
0.077806711569825
100
AcDbArc
 50
272.3885930691139
 51
64.7687905991815
  0
LINE
  5
406
330
1E
100
AcDbEntity
  8
IMAGE
100
AcDbLine
 10
3.952110159049995
 20
2.462916192991174
 30
0.0
 11
3.982034258891362
 21
2.611038863722869
 31
0.0
  0
LINE
  5
407
330
1E
100
AcDbEntity
  8
IMAGE
100
AcDbLine
 10
3.931540335924697
 20
2.450310901840023
 30
0.0
 11
3.952110159049995
 21
2.462916192991176
 31
0.0
  0
LINE
  5
408
330
1E
100
AcDbEntity
  8
IMAGE
100
AcDbLine
 10
3.970544160553515
 20
2.632726815547296
 30
0.0
 11
3.982034258891362
 21
2.611038863722869
 31
0.0
  0
LINE
  5
409
330
1E
100
AcDbEntity
  8
IMAGE
100
AcDbLine
 10
3.691052942532726
 20
2.501731460094356
 30
0.0
 11
3.931540335924697
 21
2.450310901840023
 31
0.0
  0
LINE
  5
40A
330
1E
100
AcDbEntity
  8
IMAGE
100
AcDbLine
 10
3.729980644652247
 20
2.683791358533381
 30
0.0
 11
3.970544160553515
 21
2.632726815547296
 31
0.0
  0
LINE
  5
40B
330
1E
100
AcDbEntity
  8
IMAGE
100
AcDbLine
 10
4.228539802463519
 20
2.663409312004253
 30
0.0
 11
4.228539802463517
 21
2.416339632607625
 31
0.0
  0
LINE
  5
40C
330
1E
100
AcDbEntity
  8
IMAGE
100
AcDbLine
 10
2.522716976545013
 20
3.025668520175223
 30
0.0
 11
2.523029207210182
 21
2.869164185069124
 31
0.0
  0
LINE
  5
40D
330
1E
100
AcDbEntity
  8
IMAGE
100
AcDbLine
 10
2.327109713378036
 20
3.025668520175223
 30
0.0
 11
2.326292211978725
 21
2.869164185069124
 31
0.0
  0
LINE
  5
40E
330
1E
100
AcDbEntity
  8
IMAGE
100
AcDbLine
 10
2.327109713378036
 20
3.025668520175223
 30
0.0
 11
2.522716976545013
 21
3.025668520175223
 31
0.0
  0
LINE
  5
40F
330
1E
100
AcDbEntity
  8
IMAGE
100
AcDbLine
 10
3.728243876079877
 20
2.674574424148092
 30
0.0
 11
2.685562256480498
 21
2.895326765010547
 31
0.0
  0
LINE
  5
410
330
1E
100
AcDbEntity
  8
IMAGE
100
AcDbLine
 10
3.693360421034972
 20
2.511428953522088
 30
0.0
 11
2.650678801435593
 21
2.732181294384544
 31
0.0
  0
ARC
  5
411
330
1E
100
AcDbEntity
  8
IMAGE
100
AcDbCircle
 10
2.424660709594454
 20
2.869164185069124
 30
0.0
 40
0.0983684976157295
100
AcDbArc
 50
179.3791158729569
 51
0.237138043074384
  0
LWPOLYLINE
  5
412
330
1E
100
AcDbEntity
  8
IMAGE
100
AcDbPolyline
 90
        4
 70
     0
 43
0.0
 10
4.605064055812313
 20
2.638893030015394
 42
-0.6332430429610296
 10
4.605064055812313
 20
2.53941581855954
 42
0.6332430429610812
 10
4.605064055812313
 20
2.439938607103684
 42
0.6134111328532366
 10
4.605064055812311
 20
2.539415818559538
 42
0.6134111328532366
  0
LWPOLYLINE
  5
413
330
1E
100
AcDbEntity
  8
IMAGE
100
AcDbPolyline
 90
        4
 70
     0
 43
0.0
 10
1.799763184566542
 20
2.637459295302768
 42
0.6332430429610296
 10
1.799763184566542
 20
2.537982083846914
 42
-0.6332430429610812
 10
1.799763184566542
 20
2.438504872391058
 42
-0.6134111328532366
 10
1.799763184566544
 20
2.537982083846912
 42
-0.6134111328532366
  0
LINE
  5
414
330
1E
100
AcDbEntity
  8
IMAGE
100
AcDbLine
 10
2.340862951927855
 20
3.065456217479765
 30
0.0
 11
2.507696102175791
 21
3.065456217479765
 31
0.0
  0
LWPOLYLINE
  5
415
330
1E
100
AcDbEntity
  8
IMAGE
100
AcDbPolyline
 90
        2
 70
     0
 43
0.0
 10
2.35289342819922
 20
3.044905146120699
 10
2.495381900447652
 20
3.044905146120699
  0
LWPOLYLINE
  5
416
330
1E
100
AcDbEntity
  8
IMAGE
100
AcDbPolyline
 90
        2
 70
     0
 43
0.0
 10
3.706483771401746
 20
2.667025066192934
 10
3.676970875032004
 20
2.527626523619629
  0
LINE
  5
417
330
1E
100
AcDbEntity
  8
IMAGE
100
AcDbLine
 10
3.689692951335784
 20
2.682912396256876
 30
0.0
 11
3.655137668395278
 21
2.519697101500067
 31
0.0
  0
LINE
  5
418
330
1E
100
AcDbEntity
  8
IMAGE
100
AcDbLine
 10
2.724271258867994
 20
2.887819464209275
 30
0.0
 11
2.689715975927488
 21
2.724604169452467
 31
0.0
  0
LWPOLYLINE
  5
419
330
1E
100
AcDbEntity
  8
IMAGE
100
AcDbPolyline
 90
        2
 70
     0
 43
0.0
 10
2.702925764849372
 20
2.880146250799912
 10
2.67341286847963
 20
2.740747708226607
  0
LINE
  5
41A
330
1E
100
AcDbEntity
  8
IMAGE
100
AcDbLine
 10
2.340862951927855
 20
3.393512283448584
 30
0.0
 11
2.340862951927855
 21
3.025668520175225
 31
0.0
  0
LINE
  5
41B
330
1E
100
AcDbEntity
  8
IMAGE
100
AcDbLine
 10
2.50769610217579
 20
3.393512283448584
 30
0.0
 11
2.507696102175791
 21
3.025668520175225
 31
0.0
  0
LWPOLYLINE
  5
41C
330
1E
100
AcDbEntity
  8
IMAGE
100
AcDbPolyline
 90
        2
 70
     0
 43
0.0
 10
2.35289342819922
 20
3.366050704576752
 10
2.495381900447652
 20
3.366050704576752
  0
LINE
  5
41D
330
1E
100
AcDbEntity
  8
IMAGE
100
AcDbLine
 10
2.340862951927855
 20
3.346727625478918
 30
0.0
 11
2.507696102175791
 21
3.346727625478918
 31
0.0
  0
LINE
  5
41E
330
1E
100
AcDbEntity
  8
IMAGE
100
AcDbLine
 10
2.630570008206905
 20
3.517071852901509
 30
0.0
 11
2.538830319856486
 21
3.393512283448584
 31
0.0
  0
LINE
  5
41F
330
1E
100
AcDbEntity
  8
IMAGE
100
AcDbLine
 10
2.432956379931792
 20
3.517071852901509
 30
0.0
 11
2.432956379931792
 21
3.393512283448584
 31
0.0
  0
LINE
  5
420
330
1E
100
AcDbEntity
  8
IMAGE
100
AcDbLine
 10
2.534971941054921
 20
3.393512283448584
 30
0.0
 11
2.534971941054921
 21
3.517071852901509
 31
0.0
  0
LINE
  5
421
330
1E
100
AcDbEntity
  8
IMAGE
100
AcDbLine
 10
2.538830319856486
 20
3.393512283448584
 30
0.0
 11
2.424581115677436
 21
3.393512283448584
 31
0.0
  0
LINE
  5
422
330
1E
100
AcDbEntity
  8
IMAGE
100
AcDbLine
 10
2.630570008206905
 20
4.734440924964829
 30
0.0
 11
2.218592223147967
 21
4.734440924964829
 31
0.0
  0
LINE
  5
423
330
1E
100
AcDbEntity
  8
IMAGE
100
AcDbLine
 10
2.218592223147967
 20
4.752797459220452
 30
0.0
 11
2.630570008206905
 21
4.752797459220452
 31
0.0
  0
LINE
  5
424
330
1E
100
AcDbEntity
  8
IMAGE
100
AcDbLine
 10
2.41620585142308
 20
3.517071852901509
 30
0.0
 11
2.41620585142308
 21
3.393512283448584
 31
0.0
  0
LINE
  5
425
330
1E
100
AcDbEntity
  8
IMAGE
100
AcDbLine
 10
2.314190290299951
 20
3.393512283448584
 30
0.0
 11
2.314190290299951
 21
3.517071852901509
 31
0.0
  0
LINE
  5
426
330
1E
100
AcDbEntity
  8
IMAGE
100
AcDbLine
 10
2.218592223147967
 20
4.785922234218102
 30
0.0
 11
2.218592223147967
 21
4.353352887864065
 31
0.0
  0
LINE
  5
427
330
1E
100
AcDbEntity
  8
IMAGE
100
AcDbLine
 10
2.218592223147967
 20
4.353352887864065
 30
0.0
 11
2.218592223147967
 21
3.517071852901509
 31
0.0
  0
LINE
  5
428
330
1E
100
AcDbEntity
  8
IMAGE
100
AcDbLine
 10
2.218592223147967
 20
3.517071852901509
 30
0.0
 11
2.630570008206905
 21
3.517071852901509
 31
0.0
  0
LINE
  5
429
330
1E
100
AcDbEntity
  8
IMAGE
100
AcDbLine
 10
2.310331911498385
 20
3.393512283448584
 30
0.0
 11
2.424581115677436
 21
3.393512283448584
 31
0.0
  0
LINE
  5
42A
330
1E
100
AcDbEntity
  8
IMAGE
100
AcDbLine
 10
2.218592223147967
 20
3.517071852901509
 30
0.0
 11
2.310331911498385
 21
3.393512283448584
 31
0.0
  0
LINE
  5
42B
330
1E
100
AcDbEntity
  8
IMAGE
100
AcDbLine
 10
2.630570008206905
 20
4.353352887864065
 30
0.0
 11
2.630570008206905
 21
3.517071852901509
 31
0.0
  0
LINE
  5
42C
330
1E
100
AcDbEntity
  8
IMAGE
100
AcDbLine
 10
2.630570008206905
 20
4.785922234218102
 30
0.0
 11
2.630570008206905
 21
4.353352887864065
 31
0.0
  0
LINE
  5
42D
330
1E
100
AcDbEntity
  8
IMAGE
100
AcDbLine
 10
2.218592223147967
 20
4.785922234218102
 30
0.0
 11
2.145516235261827
 21
4.785922234218102
 31
0.0
  0
LINE
  5
42E
330
1E
100
AcDbEntity
  8
IMAGE
100
AcDbLine
 10
2.145516235261827
 20
4.785922234218102
 30
0.0
 11
2.145516235261827
 21
4.919827361757254
 31
0.0
  0
LINE
  5
42F
330
1E
100
AcDbEntity
  8
IMAGE
100
AcDbLine
 10
2.145516235261827
 20
4.919827361757254
 30
0.0
 11
2.07115421384278
 21
4.919827361757254
 31
0.0
  0
LINE
  5
430
330
1E
100
AcDbEntity
  8
IMAGE
100
AcDbLine
 10
2.07115421384278
 20
4.919827361757254
 30
0.0
 11
2.07115421384278
 21
4.966331036174679
 31
0.0
  0
LINE
  5
431
330
1E
100
AcDbEntity
  8
IMAGE
100
AcDbLine
 10
2.071154213842779
 20
4.919827361757244
 30
0.0
 11
2.145516235261827
 21
4.785922234218102
 31
0.0
  0
LINE
  5
432
330
1E
100
AcDbEntity
  8
IMAGE
100
AcDbLine
 10
2.77800801751209
 20
4.919827361757244
 30
0.0
 11
2.703645996093043
 21
4.785922234218102
 31
0.0
  0
LINE
  5
433
330
1E
100
AcDbEntity
  8
IMAGE
100
AcDbLine
 10
2.77800801751209
 20
4.919827361757254
 30
0.0
 11
2.77800801751209
 21
4.966331036174679
 31
0.0
  0
LINE
  5
434
330
1E
100
AcDbEntity
  8
IMAGE
100
AcDbLine
 10
2.703645996093043
 20
4.919827361757254
 30
0.0
 11
2.77800801751209
 21
4.919827361757254
 31
0.0
  0
LINE
  5
435
330
1E
100
AcDbEntity
  8
IMAGE
100
AcDbLine
 10
2.703645996093043
 20
4.785922234218102
 30
0.0
 11
2.703645996093043
 21
4.919827361757254
 31
0.0
  0
LINE
  5
436
330
1E
100
AcDbEntity
  8
IMAGE
100
AcDbLine
 10
2.630570008206905
 20
4.785922234218102
 30
0.0
 11
2.703645996093043
 21
4.785922234218102
 31
0.0
  0
LINE
  5
437
330
1E
100
AcDbEntity
  8
IMAGE
100
AcDbLine
 10
2.07115421384278
 20
4.966331036174679
 30
0.0
 11
2.77800801751209
 21
4.966331036174679
 31
0.0
  0
LINE
  5
438
330
1E
100
AcDbEntity
  8
IMAGE
100
AcDbLine
 10
2.145516235261827
 20
4.919827361757254
 30
0.0
 11
2.703645996093043
 21
4.919827361757254
 31
0.0
  0
LINE
  5
439
330
1E
100
AcDbEntity
  8
IMAGE
100
AcDbLine
 10
2.218592223147967
 20
4.785922234218102
 30
0.0
 11
2.630570008206905
 21
4.785922234218102
 31
0.0
  0
LINE
  5
43A
330
1E
100
AcDbEntity
  8
IMAGE
100
AcDbLine
 10
2.303535530777301
 20
4.919827361757254
 30
0.0
 11
2.303535530777301
 21
4.785922234218102
 31
0.0
  0
LINE
  5
43B
330
1E
100
AcDbEntity
  8
IMAGE
100
AcDbLine
 10
2.340716541486824
 20
4.919827361757254
 30
0.0
 11
2.340716541486824
 21
4.785922234218102
 31
0.0
  0
LINE
  5
43C
330
1E
100
AcDbEntity
  8
IMAGE
100
AcDbLine
 10
2.51284375865724
 20
4.919827361757254
 30
0.0
 11
2.51284375865724
 21
4.785922234218102
 31
0.0
  0
LINE
  5
43D
330
1E
100
AcDbEntity
  8
IMAGE
100
AcDbLine
 10
2.551316681696671
 20
4.919827361757254
 30
0.0
 11
2.551316681696671
 21
4.785922234218102
 31
0.0
  0
LINE
  5
43E
330
1E
100
AcDbEntity
  8
IMAGE
100
AcDbLine
 10
2.036716290536471
 20
5.284817175043034
 30
0.0
 11
1.884790428113443
 21
4.96605549605268
 31
0.0
  0
LINE
  5
43F
330
1E
100
AcDbEntity
  8
IMAGE
100
AcDbLine
 10
1.73967503538526
 20
5.251841828940579
 30
0.0
 11
1.808075839711543
 21
4.966055496052691
 31
0.0
  0
LINE
  5
440
330
1E
100
AcDbEntity
  8
IMAGE
100
AcDbLine
 10
1.574652115856805
 20
5.306800739111325
 30
0.0
 11
1.574652115856805
 21
4.96605549605268
 31
0.0
  0
LINE
  5
441
330
1E
100
AcDbEntity
  8
IMAGE
100
AcDbLine
 10
1.904697954913703
 20
5.295808957077182
 30
0.0
 11
1.825242475140751
 21
4.96605549605268
 31
0.0
  0
LINE
  5
442
330
1E
100
AcDbEntity
  8
IMAGE
100
AcDbLine
 10
1.65381282453117
 20
5.254077302646672
 30
0.0
 11
1.727642507081353
 21
4.972601637924137
 31
0.0
  0
LINE
  5
443
330
1E
100
AcDbEntity
  8
IMAGE
100
AcDbLine
 10
1.939902844413106
 20
5.244848592327908
 30
0.0
 11
1.913530524495183
 21
4.96605549605268
 31
0.0
  0
LINE
  5
444
330
1E
100
AcDbEntity
  8
IMAGE
100
AcDbLine
 10
1.405228585140934
 20
5.284817175043034
 30
0.0
 11
1.253302722717905
 21
4.96605549605268
 31
0.0
  0
LINE
  5
445
330
1E
100
AcDbEntity
  8
IMAGE
100
AcDbLine
 10
3.975835161688444
 20
5.267920368124837
 30
0.0
 11
4.012647950965538
 21
4.96605549605268
 31
0.0
  0
LINE
  5
446
330
1E
100
AcDbEntity
  8
IMAGE
100
AcDbLine
 10
1.464167437644517
 20
5.284817175043034
 30
0.0
 11
1.31224157522149
 21
4.96605549605268
 31
0.0
  0
LINE
  5
447
330
1E
100
AcDbEntity
  8
IMAGE
100
AcDbLine
 10
1.332149102021749
 20
5.295808957077182
 30
0.0
 11
1.252693622248798
 21
4.96605549605268
 31
0.0
  0
LINE
  5
448
330
1E
100
AcDbEntity
  8
IMAGE
100
AcDbLine
 10
1.611514568903477
 20
5.284817175043034
 30
0.0
 11
1.459588706480448
 21
4.96605549605268
 31
0.0
  0
LINE
  5
449
330
1E
100
AcDbEntity
  8
IMAGE
100
AcDbLine
 10
1.314473313752264
 20
5.251841828940579
 30
0.0
 11
1.382874118078548
 21
4.966055496052691
 31
0.0
  0
LINE
  5
44A
330
1E
100
AcDbEntity
  8
IMAGE
100
AcDbLine
 10
1.228611102898176
 20
5.254077302646672
 30
0.0
 11
1.302440785448359
 21
4.972601637924137
 31
0.0
  0
LINE
  5
44B
330
1E
100
AcDbEntity
  8
IMAGE
100
AcDbLine
 10
1.51470112278011
 20
5.244848592327908
 30
0.0
 11
1.488328802862187
 21
4.96605549605268
 31
0.0
  0
LINE
  5
44C
330
1E
100
AcDbEntity
  8
IMAGE
100
AcDbLine
 10
1.811485675612062
 20
5.284817175043034
 30
0.0
 11
1.659559813189035
 21
4.96605549605268
 31
0.0
  0
LINE
  5
44D
330
1E
100
AcDbEntity
  8
IMAGE
100
AcDbLine
 10
1.51444442046085
 20
5.251841828940579
 30
0.0
 11
1.582845224787135
 21
4.966055496052691
 31
0.0
  0
LINE
  5
44E
330
1E
100
AcDbEntity
  8
IMAGE
100
AcDbLine
 10
1.349421500932397
 20
5.306800739111325
 30
0.0
 11
1.349421500932397
 21
4.96605549605268
 31
0.0
  0
LINE
  5
44F
330
1E
100
AcDbEntity
  8
IMAGE
100
AcDbLine
 10
1.459436780618026
 20
5.273825393008875
 30
0.0
 11
1.433766548691381
 21
4.966055496052691
 31
0.0
  0
LINE
  5
450
330
1E
100
AcDbEntity
  8
IMAGE
100
AcDbLine
 10
1.580855929866499
 20
5.249462947487298
 30
0.0
 11
1.607425378438493
 21
4.96605549605268
 31
0.0
  0
LINE
  5
451
330
1E
100
AcDbEntity
  8
IMAGE
100
AcDbLine
 10
1.428582209606762
 20
5.254077302646672
 30
0.0
 11
1.502411892156945
 21
4.972601637924137
 31
0.0
  0
LINE
  5
452
330
1E
100
AcDbEntity
  8
IMAGE
100
AcDbLine
 10
2.004846435658382
 20
5.249462947487298
 30
0.0
 11
2.031415884230377
 21
4.96605549605268
 31
0.0
  0
LINE
  5
453
330
1E
100
AcDbEntity
  8
IMAGE
100
AcDbLine
 10
1.887915909821091
 20
5.251841828940579
 30
0.0
 11
1.956316714147375
 21
4.966055496052691
 31
0.0
  0
LINE
  5
454
330
1E
100
AcDbEntity
  8
IMAGE
100
AcDbLine
 10
1.722892990292637
 20
5.306800739111325
 30
0.0
 11
1.722892990292637
 21
4.96605549605268
 31
0.0
  0
LINE
  5
455
330
1E
100
AcDbEntity
  8
IMAGE
100
AcDbLine
 10
1.579873126701314
 20
5.20787470080398
 30
0.0
 11
1.775361815988865
 21
4.96605549605268
 31
0.0
  0
LINE
  5
456
330
1E
100
AcDbEntity
  8
IMAGE
100
AcDbLine
 10
2.052938829349536
 20
5.295808957077182
 30
0.0
 11
1.973483349576585
 21
4.96605549605268
 31
0.0
  0
LINE
  5
457
330
1E
100
AcDbEntity
  8
IMAGE
100
AcDbLine
 10
1.954327419226741
 20
5.249462947487298
 30
0.0
 11
1.980896867798735
 21
4.96605549605268
 31
0.0
  0
LINE
  5
458
330
1E
100
AcDbEntity
  8
IMAGE
100
AcDbLine
 10
1.802053698967003
 20
5.254077302646672
 30
0.0
 11
1.875883381517186
 21
4.972601637924137
 31
0.0
  0
LINE
  5
459
330
1E
100
AcDbEntity
  8
IMAGE
100
AcDbLine
 10
1.617479492591562
 20
5.267920368124837
 30
0.0
 11
1.654292281868657
 21
4.96605549605268
 31
0.0
  0
LINE
  5
45A
330
1E
100
AcDbEntity
  8
IMAGE
100
AcDbLine
 10
2.071154213842784
 20
4.966331036174679
 30
0.0
 11
1.222157385302525
 21
4.966331036174679
 31
0.0
  0
HATCH
  5
45B
330
1E
100
AcDbEntity
  8
IMAGE
100
AcDbHatch
 10
0.0
 20
0.0
 30
0.0
210
0.0
220
0.0
230
1.0
  2
EARTH
 70
     0
 71
     0
 91
        2
 92
        1
 93
       10
 72
     1
 10
1.389095159251429
 20
4.964904539609689
 11
1.637553370411572
 21
4.591108783325671
 72
     1
 10
1.637553370411572
 20
4.591108783325671
 11
1.839236640008116
 21
4.453380797952672
 72
     1
 10
1.839236640008116
 20
4.453380797952672
 11
2.09835534213415
 21
4.373088245109162
 72
     1
 10
2.09835534213415
 20
4.373088245109162
 11
2.200098068720836
 21
4.361693886706001
 72
     1
 10
2.200098068720836
 20
4.361693886706001
 11
2.218592223147967
 21
4.361693886706001
 72
     1
 10
2.218592223147967
 20
4.361693886706001
 11
2.218592223147967
 21
4.785922234218102
 72
     1
 10
2.218592223147967
 20
4.785922234218102
 11
2.145516235261827
 21
4.785922234218102
 72
     1
 10
2.145516235261827
 20
4.785922234218102
 11
2.07115421384278
 21
4.919827361757242
 72
     1
 10
2.07115421384278
 20
4.91982736175724
 11
2.071154213842784
 21
4.966331036174679
 72
     1
 10
2.071154213842784
 20
4.966331036174679
 11
1.389095159251429
 21
4.964904539609689
 97
        0
 92
        1
 93
       10
 72
     1
 10
3.460067072103442
 20
4.964904539609689
 11
3.211608860943299
 21
4.591108783325671
 72
     1
 10
3.211608860943299
 20
4.591108783325671
 11
3.009925591346755
 21
4.453380797952672
 72
     1
 10
3.009925591346755
 20
4.453380797952672
 11
2.750806889220721
 21
4.373088245109162
 72
     1
 10
2.750806889220721
 20
4.373088245109162
 11
2.649064162634035
 21
4.361693886706001
 72
     1
 10
2.649064162634035
 20
4.361693886706001
 11
2.630570008206904
 21
4.361693886706001
 72
     1
 10
2.630570008206904
 20
4.361693886706001
 11
2.630570008206904
 21
4.785922234218102
 72
     1
 10
2.630570008206904
 20
4.785922234218102
 11
2.703645996093044
 21
4.785922234218102
 72
     1
 10
2.703645996093044
 20
4.785922234218102
 11
2.778008017512091
 21
4.919827361757242
 72
     1
 10
2.778008017512091
 20
4.91982736175724
 11
2.778008017512087
 21
4.966331036174679
 72
     1
 10
2.778008017512087
 20
4.966331036174679
 11
3.460067072103442
 21
4.964904539609689
 97
        0
 75
     0
 76
     1
 52
45.0
 41
0.75
 77
     0
 78
     6
 53
45.0
 43
0.0031658681257967
 44
-0.0002755401219989
 45
0.0
 46
0.2651650429449553
 79
     2
 49
0.1875
 49
-0.1875
 53
45.0
 43
-0.0465525774263825
 44
0.0494429054301806
 45
0.0
 46
0.2651650429449553
 79
     2
 49
0.1875
 49
-0.1875
 53
45.0
 43
-0.0962710229785616
 44
0.0991613509823593
 45
0.0
 46
0.2651650429449553
 79
     2
 49
0.1875
 49
-0.1875
 53
135.0
 43
-0.0962710229785616
 44
0.1323069813504789
 45
-0.2651650429449553
 46
0.0
 79
     2
 49
0.1875
 49
-0.1875
 53
135.0
 43
-0.0465525774263825
 44
0.1820254269026575
 45
-0.2651650429449553
 46
0.0
 79
     2
 49
0.1875
 49
-0.1875
 53
135.0
 43
0.0031658681257967
 44
0.2317438724548371
 45
-0.2651650429449553
 46
0.0
 79
     2
 49
0.1875
 49
-0.1875
 98
        1
 10
0.0031658681257967
 20
-0.0002755401219989
  0
TEXT
  5
4DA
330
1E
100
AcDbEntity
  8
INSTRUCT-OPTION
100
AcDbText
 10
11.65147789575129
 20
5.817818766698252
 30
0.0
 40
0.125
  1
%%uVAN NOZZLE%%u
  7
ROMANS
100
AcDbText
  0
TEXT
  5
4DB
330
1E
100
AcDbEntity
  8
INSTRUCT-OPTION
100
AcDbText
 10
11.65147789575129
 20
6.436327652618416
 30
0.0
 40
0.125
  1
%%uU-SERIES NOZZLE%%u
  7
ROMANS
100
AcDbText
  0
TEXT
  5
4DC
330
1E
100
AcDbEntity
  8
INSTRUCT-OPTION
100
AcDbText
 10
11.65147789575129
 20
4.459792577285789
 30
0.0
 40
0.125
  1
BY TURNING ON THE APPROPRIATE LAYER:
  7
ROMANS
100
AcDbText
  0
TEXT
  5
4DD
330
1E
100
AcDbEntity
  8
INSTRUCT-OPTION
100
AcDbText
 10
11.65147789575129
 20
4.634792577285789
 30
0.0
 40
0.125
  1
CHOOSE ONE OF THE FOLLOWING CAPS 
  7
ROMANS
100
AcDbText
  0
LINE
  5
4DE
330
1E
100
AcDbEntity
  8
INSTRUCT-OPTION
100
AcDbLine
 10
11.44633249489347
 20
3.169237864957912
 30
0.0
 11
11.44633249489346
 21
7.842999663289548
 31
0.0
  0
LINE
  5
4DF
330
1E
100
AcDbEntity
  8
INSTRUCT-OPTION
100
AcDbLine
 10
16.038824761167
 20
3.169237864957911
 30
0.0
 11
11.44633249489346
 21
3.169237864957912
 31
0.0
  0
LINE
  5
4E0
330
1E
100
AcDbEntity
  8
INSTRUCT-OPTION
100
AcDbLine
 10
16.038824761167
 20
7.842999663289548
 30
0.0
 11
16.038824761167
 21
3.169237864957911
 31
0.0
  0
LINE
  5
4E1
330
1E
100
AcDbEntity
  8
INSTRUCT-OPTION
100
AcDbLine
 10
11.44633249489346
 20
7.842999663289548
 30
0.0
 11
16.038824761167
 21
7.842999663289546
 31
0.0
  0
TEXT
  5
4E9
330
1E
100
AcDbEntity
  8
INSTRUCT-OPTION
100
AcDbText
 10
11.65147789575129
 20
3.377900301772822
 30
0.0
 40
0.125
  1
  OPTION-NP
  7
ROMANS
100
AcDbText
  0
TEXT
  5
4EA
330
1E
100
AcDbEntity
  8
INSTRUCT-OPTION
100
AcDbText
 10
11.65147789575129
 20
3.902900301772822
 30
0.0
 40
0.125
  1
  OPTION-VPC
  7
ROMANS
100
AcDbText
  0
TEXT
  5
4EB
330
1E
100
AcDbEntity
  8
INSTRUCT-OPTION
100
AcDbText
 10
11.65147789575129
 20
4.15799399709007
 30
0.0
 40
0.125
  1
%%uVANDAL-PROOF CAP%%u
  7
ROMANS
100
AcDbText
  0
TEXT
  5
4EC
330
1E
100
AcDbEntity
  8
INSTRUCT-OPTION
100
AcDbText
 10
11.65147789575129
 20
7.041950978329049
 30
0.0
 40
0.125
  1
%%uPLASTIC MPR NOZZLE%%u
  7
ROMANS
100
AcDbText
  0
TEXT
  5
4EE
330
1E
100
AcDbEntity
  8
INSTRUCT-OPTION
100
AcDbText
 10
11.65147789575129
 20
3.634248527659329
 30
0.0
 40
0.125
  1
%%uNON-POTABLE CAP%%u
  7
ROMANS
100
AcDbText
  0
TEXT
  5
4EF
330
1E
100
AcDbEntity
  8
INSTRUCT-OPTION
100
AcDbText
 10
11.65147789575129
 20
7.621183108345809
 30
0.0
 40
0.125
  1
CHOOSE A DIFFERENT SPRINKLER NOZZLE 
  7
ROMANS
100
AcDbText
  0
TEXT
  5
4F2
330
1E
100
AcDbEntity
  8
INSTRUCT-OPTION
100
AcDbText
 10
11.65147789575129
 20
5.610161364622664
 30
0.0
 40
0.125
  1
  OPTION-NOZ-VAN
  7
ROMANS
100
AcDbText
  0
TEXT
  5
4F3
330
1E
100
AcDbEntity
  8
INSTRUCT-OPTION
100
AcDbText
 10
11.65147789575129
 20
6.145958234475866
 30
0.0
 40
0.125
  1
  OPTION-NOZ-U-SERIES
  7
ROMANS
100
AcDbText
  0
TEXT
  5
4F4
330
1E
100
AcDbEntity
  8
INSTRUCT-OPTION
100
AcDbText
 10
11.43968973708256
 20
2.760412809062456
 30
0.0
 40
0.125
  1
LAYER "INSTRUCT-OPTION".
  7
ROMANS
100
AcDbText
  0
TEXT
  5
4F5
330
1E
100
AcDbEntity
  8
INSTRUCT-OPTION
100
AcDbText
 10
11.43968973708256
 20
2.972813523346458
 30
0.0
 40
0.125
  1
TO TURN OFF THIS INSTRUCTION BOX, TURN OFF
  7
ROMANS
100
AcDbText
  0
TEXT
  5
4F6
330
1E
100
AcDbEntity
  8
INSTRUCT-OPTION
100
AcDbText
 10
11.43015658745272
 20
7.886897946506573
 30
0.0
 40
0.125
  1
CHOOSING NOZZLES AND OPTIONAL FEATURES
  7
ROMANS
100
AcDbText
  0
TEXT
  5
4F7
330
1E
100
AcDbEntity
  8
INSTRUCT-OPTION
100
AcDbText
 10
11.65147789575129
 20
6.816089806198162
 30
0.0
 40
0.125
  1
  OPTION-NOZ-PLASTIC
  7
ROMANS
100
AcDbText
  0
TEXT
  5
4F8
330
1E
100
AcDbEntity
  8
INSTRUCT-OPTION
100
AcDbText
 10
11.65147789575129
 20
7.446183108345808
 30
0.0
 40
0.125
  1
BY TURNING ON THE APPROPRIATE LAYER:
  7
ROMANS
100
AcDbText
  0
TEXT
  5
50A
330
1E
100
AcDbEntity
  8
OPTION-NOZ-ROTARY
100
AcDbText
 10
5.22616264039956
 20
4.62
 30
0.0
 40
0.125
  1
  WITH RAIN BIRD ROTARY NOZZLE
  7
ROMANS
100
AcDbText
  0
TEXT
  5
50B
330
1E
100
AcDbEntity
  8
INSTRUCT-OPTION
100
AcDbText
 10
11.65147789575129
 20
5.027229802905377
 30
0.0
 40
0.125
  1
  OPTION-NOZ-ROTARY
  7
ROMANS
100
AcDbText
  0
TEXT
  5
50C
330
1E
100
AcDbEntity
  8
INSTRUCT-OPTION
100
AcDbText
 10
11.65147789575129
 20
5.234887204980965
 30
0.0
 40
0.125
  1
%%uROTARY NOZZLE%%u
  7
ROMANS
100
AcDbText
  0
ENDSEC
  0
SECTION
  2
OBJECTS
  0
DICTIONARY
  5
C
330
0
100
AcDbDictionary
281
     1
  3
ACAD_GROUP
350
D
  3
ACAD_LAYOUT
350
19
  3
ACAD_MLINESTYLE
350
16
  3
ACAD_PLOTSETTINGS
350
18
  3
ACAD_PLOTSTYLENAME
350
E
  3
AcadDim
350
29A
  3
AcDbVariableDictionary
350
235
  0
DICTIONARY
  5
4B5
330
2
100
AcDbDictionary
280
     1
281
     1
  3
ACAD_LAYERFILTERS
360
4FB
  3
ACAD_LAYERSTATES
360
4B6
  0
DICTIONARY
  5
D
102
{ACAD_REACTORS
330
C
102
}
330
C
100
AcDbDictionary
281
     1
  0
DICTIONARY
  5
19
102
{ACAD_REACTORS
330
C
102
}
330
C
100
AcDbDictionary
281
     1
  3
Layout1
350
1D
  3
Model
350
21
  0
DICTIONARY
  5
16
102
{ACAD_REACTORS
330
C
102
}
330
C
100
AcDbDictionary
281
     1
  3
Standard
350
17
  0
DICTIONARY
  5
18
102
{ACAD_REACTORS
330
C
102
}
330
C
100
AcDbDictionary
281
     1
  3
1055 B&W Full Shaded Draft
350
2A3
  3
1055 B&W Full Shaded Final
350
2A4
  3
1055 Color Full Shaded Draft
350
2A5
  3
1055 Color Full Shaded Final
350
2A6
  3
1055 PLUS B&W Full Shaded Draft
350
2A7
  3
1055 PLUS B&W Full Shaded Final
350
2A8
  3
1055 PLUS Color Full Shaded Draft
350
2A9
  3
1055 PLUS Color Full Shaded Final
350
2AA
  3
1055-B&W-Shaded-Draft
350
2AB
  3
1055-B&W-Shaded-Final
350
2AC
  3
1055-Color-Shaded-Draft
350
2AD
  3
1055-Color-Shaded-Final
350
2AE
  3
1055-PLUS-B&W-Shaded-Draft
350
2AF
  3
1055-PLUS-B&W-Shaded-Final
350
2B0
  3
1055-PLUS-Color-Shaded-Draft
350
2B1
  3
1055-PLUS-Color-Shaded-Final
350
2B2
  3
2200 Color Inkjet
350
2B3
  3
2200-Color-Inkjet
350
2B4
  3
24x36 PDF
350
2B5
  3
8500 B&W Shaded 11x17
350
2B6
  3
8500 B&W Shaded 8.5x11
350
2B7
  3
8500 Color Shaded 11x17
350
2B8
  3
8500 Color Shaded 8.5x11
350
2B9
  3
8500-B&W-Shaded-11x17
350
2BA
  3
8500-B&W-Shaded-8.5x11
350
2BB
  3
8500-Color-Shaded-11x17
350
2BC
  3
8500-Color-Shaded-8.5x11
350
2BD
  3
Laser Jet 5 Shaded 11x17
350
2BE
  3
Laser Jet 5 Shaded 8.5x11
350
2BF
  3
LaserJet5-Shaded-11x17
350
2C0
  3
LaserJet5-Shaded-8.5x11
350
2C1
  3
Oki Doki B&W Shaded 11x17
350
2C2
  3
Oki Doki B&W Shaded 8.5x11
350
2C3
  3
Oki Doki Color Laser
350
2C4
  3
Oki Doki Color Shaded 11x17
350
2C5
  3
Oki Doki Color Shaded 8.5x11
350
2C6
  3
Oki-Doki-B&W-Shaded-11x17
350
2C7
  3
Oki-Doki-B&W-Shaded-8.5x11
350
2C8
  3
Oki-Doki-Color-Laser
350
2C9
  3
Oki-Doki-Color-Shaded-11x17
350
2CA
  3
Oki-Doki-Color-Shaded-8.5x11
350
2CB
  0
ACDBDICTIONARYWDFLT
  5
E
102
{ACAD_REACTORS
330
C
102
}
330
C
100
AcDbDictionary
281
     1
  3
Normal
350
F
100
AcDbDictionaryWithDefault
340
F
  0
XRECORD
  5
29A
102
{ACAD_REACTORS
330
C
102
}
330
C
100
AcDbXrecord
280
     1
 90
   990106
  3

 60
     4
 61
     0
 62
     1
 63
     3
 64
     0
 65
     0
 66
     0
 67
     3
 68
     1
 69
     0
 70
     0
 71
     0
 72
     0
 40
0.0
170
     0
  0
DICTIONARY
  5
235
102
{ACAD_REACTORS
330
C
102
}
330
C
100
AcDbDictionary
281
     1
  3
DIMASSOC
350
238
  3
HIDETEXT
350
237
  3
SORTENTS
350
236
  0
DICTIONARY
  5
4FB
102
{ACAD_REACTORS
330
4B5
102
}
330
4B5
100
AcDbDictionary
280
     1
281
     1
  0
DICTIONARY
  5
4B6
102
{ACAD_REACTORS
330
4B5
102
}
330
4B5
100
AcDbDictionary
281
     1
  0
LAYOUT
  5
1D
102
{ACAD_REACTORS
330
19
102
}
330
19
100
AcDbPlotSettings
  1

  2
S:\AutoCAD 2002\Plotters\1055B&WDraftShaded.pc3
  4

  6

 40
0.0
 41
0.0
 42
0.0
 43
0.0
 44
0.0
 45
0.0
 46
0.0
 47
0.0
 48
0.0
 49
0.0
140
0.0
141
0.0
142
1.0
143
1.0
 70
   688
 72
     0
 73
     0
 74
     5
  7

 75
    16
147
1.0
148
0.0
149
0.0
100
AcDbLayout
  1
Layout1
 70
     1
 71
     1
 10
0.0
 20
0.0
 11
12.0
 21
9.0
 12
0.0
 22
0.0
 32
0.0
 14
1.000000000000000E+20
 24
1.000000000000000E+20
 34
1.000000000000000E+20
 15
-1.000000000000000E+20
 25
-1.000000000000000E+20
 35
-1.000000000000000E+20
146
0.0
 13
0.0
 23
0.0
 33
0.0
 16
1.0
 26
0.0
 36
0.0
 17
0.0
 27
1.0
 37
0.0
 76
     0
330
1A
  0
LAYOUT
  5
21
102
{ACAD_REACTORS
330
19
102
}
330
19
100
AcDbPlotSettings
  1

  2
OKI DOKI Color Laser.pc3
  4
Tabloid
  6
PS1
 40
5.027083396911621
 41
5.027085304260253
 42
5.027099609375
 43
5.027069091796875
 44
279.3999938964843
 45
431.7999877929687
 46
1.27
 47
0.0
 48
0.0
 49
0.0000000000000001
140
16.48999999999999
141
10.44
142
1.0
143
0.9931242156595709
 70
 11956
 72
     0
 73
     1
 74
     3
  7
OKIColorShaded.ctb
 75
     0
147
1.006923388063659
148
0.0000000000000115
149
0.0
100
AcDbLayout
  1
Model
 70
     1
 71
     0
 10
0.0
 20
0.0
 11
12.0
 21
9.0
 12
0.0
 22
0.0
 32
0.0
 14
0.0
 24
0.0
 34
0.0
 15
0.0
 25
0.0
 35
0.0
146
0.0
 13
0.0
 23
0.0
 33
0.0
 16
1.0
 26
0.0
 36
0.0
 17
0.0
 27
1.0
 37
0.0
 76
     0
330
1E
  0
MLINESTYLE
  5
17
102
{ACAD_REACTORS
330
16
102
}
330
16
100
AcDbMlineStyle
  2
STANDARD
 70
     0
  3

 62
   256
 51
90.0
 52
90.0
 71
     2
 49
0.5
 62
   256
  6
BYLAYER
 49
-0.5
 62
   256
  6
BYLAYER
  0
PLOTSETTINGS
  5
2A3
102
{ACAD_REACTORS
330
18
102
}
330
18
100
AcDbPlotSettings
  1
1055 B&W Full Shaded Draft
  2
1055B&WDraftShaded.pc3
  4
User607
  6
ps1
 40
0.0
 41
0.0
 42
0.0
 43
0.0
 44
901.7000122070312
 45
1155.700073242187
 46
0.0
 47
0.0
 48
180377.877572
 49
80019.819395
140
180380.8390819999
141
80022.26069
142
1.0
143
1.0
 70
   688
 72
     0
 73
     2
 74
     3
  7
1055B&WFullDraftShaded.ctb
 75
    16
147
1.0
148
-4581603.303200401
149
-2032962.095032944
  0
PLOTSETTINGS
  5
2A4
102
{ACAD_REACTORS
330
18
102
}
330
18
100
AcDbPlotSettings
  1
1055 B&W Full Shaded Final
  2
1055B&WFinalShaded.pc3
  4
User257
  6
PS1
 40
4.995333194732666
 41
8.297271728515625
 42
4.99530029296875
 43
8.29736328125
 44
911.6906738281249
 45
1172.294677734375
 46
0.0
 47
0.0
 48
180377.877572
 49
80019.819395
140
180380.8390819999
141
80022.26069
142
1.0
143
1.0
 70
   688
 72
     0
 73
     3
 74
     3
  7
1055B&WFullFinalShaded.ctb
 75
    16
147
1.0
148
-4581603.303200401
149
-2032962.095032944
  0
PLOTSETTINGS
  5
2A5
102
{ACAD_REACTORS
330
18
102
}
330
18
100
AcDbPlotSettings
  1
1055 Color Full Shaded Draft
  2
1055ColorDraftShaded.pc3
  4
User607
  6
PS1
 40
0.0
 41
0.0
 42
0.0
 43
0.0
 44
901.7000122070312
 45
1155.700073242187
 46
0.0
 47
0.0
 48
180377.877572
 49
80019.819395
140
180380.8390819999
141
80022.26069
142
1.0
143
1.0
 70
   688
 72
     0
 73
     2
 74
     3
  7
1055ColorFullDraftShaded.ctb
 75
    16
147
1.0
148
-4581603.303200401
149
-2032962.095032944
  0
PLOTSETTINGS
  5
2A6
102
{ACAD_REACTORS
330
18
102
}
330
18
100
AcDbPlotSettings
  1
1055 Color Full Shaded Final
  2
1055ColorFinalShaded.pc3
  4
User607
  6
PS1
 40
0.0
 41
0.0
 42
0.0
 43
0.0
 44
901.7000122070312
 45
1155.700073242187
 46
0.0
 47
0.0
 48
180377.877572
 49
80019.819395
140
180380.8390819999
141
80022.26069
142
1.0
143
1.0
 70
   688
 72
     0
 73
     2
 74
     3
  7
1055ColorFullFinalShaded.ctb
 75
    16
147
1.0
148
-4581603.303200401
149
-2032962.095032944
  0
PLOTSETTINGS
  5
2A7
102
{ACAD_REACTORS
330
18
102
}
330
18
100
AcDbPlotSettings
  1
1055 PLUS B&W Full Shaded Draft
  2
1055_PLUS_B&WDraftShaded.pc3
  4
User257
  6
ps1
 40
4.995333194732666
 41
8.297393798828125
 42
4.99530029296875
 43
8.29736328125
 44
901.6152954101562
 45
1155.615356445312
 46
0.0
 47
0.0
 48
180377.877572
 49
80019.819395
140
180380.8390819999
141
80022.26069
142
1.0
143
1.0
 70
   688
 72
     0
 73
     3
 74
     5
  7
1055B&WFullDraftShaded.ctb
 75
    16
147
1.0
148
-4581603.303200401
149
-2032962.095032944
  0
PLOTSETTINGS
  5
2A8
102
{ACAD_REACTORS
330
18
102
}
330
18
100
AcDbPlotSettings
  1
1055 PLUS B&W Full Shaded Final
  2
1055_PLUS_B&WFinalShaded.pc3
  4
User257
  6
PS1
 40
4.995333194732666
 41
8.297271728515625
 42
4.99530029296875
 43
8.29736328125
 44
901.6576538085937
 45
1155.657592773437
 46
0.0
 47
0.0
 48
180377.877572
 49
80019.819395
140
180380.8390819999
141
80022.26069
142
1.0
143
1.0
 70
   688
 72
     0
 73
     3
 74
     5
  7
1055B&WFullFinalShaded.ctb
 75
    16
147
1.0
148
-4581603.303200401
149
-2032962.095032944
  0
PLOTSETTINGS
  5
2A9
102
{ACAD_REACTORS
330
18
102
}
330
18
100
AcDbPlotSettings
  1
1055 PLUS Color Full Shaded Draft
  2
1055_PLUS_ColorDraftShaded.pc3
  4
User257
  6
PS1
 40
4.995333194732666
 41
8.297393798828125
 42
4.99530029296875
 43
8.29736328125
 44
901.6152954101562
 45
1155.615356445312
 46
0.0
 47
0.0
 48
180377.877572
 49
80019.819395
140
180380.8390819999
141
80022.26069
142
1.0
143
1.0
 70
   688
 72
     0
 73
     3
 74
     5
  7
1055ColorFullDraftShaded.ctb
 75
    16
147
1.0
148
-4581603.303200401
149
-2032962.095032944
  0
PLOTSETTINGS
  5
2AA
102
{ACAD_REACTORS
330
18
102
}
330
18
100
AcDbPlotSettings
  1
1055 PLUS Color Full Shaded Final
  2
1055_PLUS_ColorFinalShaded.pc3
  4
User257
  6
PS1
 40
4.995333194732666
 41
8.297271728515625
 42
4.99530029296875
 43
8.29736328125
 44
901.6576538085937
 45
1155.657592773437
 46
0.0
 47
0.0
 48
180377.877572
 49
80019.819395
140
180380.8390819999
141
80022.26069
142
1.0
143
1.0
 70
   688
 72
     0
 73
     3
 74
     5
  7
1055ColorFullFinalShaded.ctb
 75
    16
147
1.0
148
-4581603.303200401
149
-2032962.095032944
  0
PLOTSETTINGS
  5
2AB
102
{ACAD_REACTORS
330
18
102
}
330
18
100
AcDbPlotSettings
  1
1055-B&W-Shaded-Draft
  2
1055B&WDraftShaded.pc3
  4
User257
  6

 40
4.995333194732666
 41
8.297393798828125
 42
4.99530029296875
 43
8.29736328125
 44
901.6152954101562
 45
1155.615356445312
 46
0.0
 47
0.0
 48
180360.0524337165
 49
80033.77936194791
140
180369.1574725906
141
80037.61796031875
142
1.0
143
30.0
 70
  1696
 72
     0
 73
     1
 74
     1
  7
1055B&WFullDraftShaded.ctb
 75
     0
147
0.0333333333333333
148
-190.0773302744904
149
-129.2444057835751
  0
PLOTSETTINGS
  5
2AC
102
{ACAD_REACTORS
330
18
102
}
330
18
100
AcDbPlotSettings
  1
1055-B&W-Shaded-Final
  2
1055B&WFinalShaded.pc3
  4
User607
  6

 40
0.0
 41
0.0
 42
0.0
 43
0.0
 44
901.7000122070312
 45
1155.700073242187
 46
0.0
 47
0.0
 48
180360.0524337165
 49
80033.77936194791
140
180369.1574725906
141
80037.61796031875
142
1.0
143
30.0
 70
  1696
 72
     0
 73
     1
 74
     1
  7
1055B&WFullFinalShaded.ctb
 75
     0
147
0.0333333333333333
148
-190.0773302744904
149
-129.2444057835751
  0
PLOTSETTINGS
  5
2AD
102
{ACAD_REACTORS
330
18
102
}
330
18
100
AcDbPlotSettings
  1
1055-Color-Shaded-Draft
  2
1055ColorDraftShaded.pc3
  4
User257
  6

 40
4.995333194732666
 41
8.297393798828125
 42
4.99530029296875
 43
8.29736328125
 44
901.6152954101562
 45
1155.615356445312
 46
0.0
 47
0.0
 48
180360.0524337165
 49
80033.77936194791
140
180369.1574725906
141
80037.61796031875
142
1.0
143
30.0
 70
  1696
 72
     0
 73
     1
 74
     1
  7
1055ColorFullDraftShaded.ctb
 75
     0
147
0.0333333333333333
148
-190.0773302744904
149
-129.2444057835751
  0
PLOTSETTINGS
  5
2AE
102
{ACAD_REACTORS
330
18
102
}
330
18
100
AcDbPlotSettings
  1
1055-Color-Shaded-Final
  2
1055ColorDraftShaded.pc3
  4
User257
  6

 40
4.995333194732666
 41
8.297393798828125
 42
4.99530029296875
 43
8.29736328125
 44
901.6152954101562
 45
1155.615356445312
 46
0.0
 47
0.0
 48
180360.0524337165
 49
80033.77936194791
140
180369.1574725906
141
80037.61796031875
142
1.0
143
30.0
 70
  1696
 72
     0
 73
     1
 74
     1
  7
1055ColorFullFinalShaded.ctb
 75
     0
147
0.0333333333333333
148
-190.0773302744904
149
-129.2444057835751
  0
PLOTSETTINGS
  5
2AF
102
{ACAD_REACTORS
330
18
102
}
330
18
100
AcDbPlotSettings
  1
1055-PLUS-B&W-Shaded-Draft
  2
1055_PLUS_B&WDraftShaded.pc3
  4
User257
  6

 40
4.995333194732666
 41
8.297393798828125
 42
4.99530029296875
 43
8.29736328125
 44
901.6152954101562
 45
1155.615356445312
 46
0.0
 47
0.0
 48
180360.0524337165
 49
80033.77936194791
140
180369.1574725906
141
80037.61796031875
142
1.0
143
30.0
 70
  1696
 72
     0
 73
     1
 74
     0
  7
1055B&WFullDraftShaded.ctb
 75
     0
147
0.0333333333333333
148
0.9506237099442845
149
8.593888772447144
  0
PLOTSETTINGS
  5
2B0
102
{ACAD_REACTORS
330
18
102
}
330
18
100
AcDbPlotSettings
  1
1055-PLUS-B&W-Shaded-Final
  2
1055_PLUS_B&WFinalShaded.pc3
  4
User257
  6

 40
4.995333194732666
 41
8.297271728515625
 42
4.99530029296875
 43
8.29736328125
 44
901.6576538085937
 45
1155.657592773437
 46
0.0
 47
0.0
 48
180360.0524337165
 49
80033.77936194791
140
180369.1574725906
141
80037.61796031875
142
1.0
143
30.0
 70
  1696
 72
     0
 73
     1
 74
     0
  7
1055B&WFullFinalShaded.ctb
 75
     0
147
0.0333333333333333
148
0.9506237099442845
149
8.593888772447144
  0
PLOTSETTINGS
  5
2B1
102
{ACAD_REACTORS
330
18
102
}
330
18
100
AcDbPlotSettings
  1
1055-PLUS-Color-Shaded-Draft
  2
1055_PLUS_ColorDraftShaded.pc3
  4
User257
  6

 40
4.995333194732666
 41
8.297393798828125
 42
4.99530029296875
 43
8.29736328125
 44
901.6152954101562
 45
1155.615356445312
 46
0.0
 47
0.0
 48
180360.0524337165
 49
80033.77936194791
140
180369.1574725906
141
80037.61796031875
142
1.0
143
30.0
 70
  1696
 72
     0
 73
     1
 74
     0
  7
1055ColorFullDraftShaded.ctb
 75
     0
147
0.0333333333333333
148
0.9506237099442845
149
8.593888772447144
  0
PLOTSETTINGS
  5
2B2
102
{ACAD_REACTORS
330
18
102
}
330
18
100
AcDbPlotSettings
  1
1055-PLUS-Color-Shaded-Final
  2
1055_PLUS_ColorFinalShaded.pc3
  4
User257
  6

 40
4.995333194732666
 41
8.297271728515625
 42
4.99530029296875
 43
8.29736328125
 44
901.6576538085937
 45
1155.657592773437
 46
0.0
 47
0.0
 48
180360.0524337165
 49
80033.77936194791
140
180369.1574725906
141
80037.61796031875
142
1.0
143
30.0
 70
  1696
 72
     0
 73
     1
 74
     0
  7
1055ColorFullFinalShaded.ctb
 75
     0
147
0.0333333333333333
148
0.9506237099442845
149
8.593888772447144
  0
PLOTSETTINGS
  5
2B3
102
{ACAD_REACTORS
330
18
102
}
330
18
100
AcDbPlotSettings
  1
2200 Color Inkjet
  2
HP  2200 Color Inkjet.pc3
  4
Letter
  6
PS1
 40
7.143749713897705
 41
12.47775650024414
 42
7.14373779296875
 43
3.17498779296875
 44
215.8999938964843
 45
279.3999938964843
 46
0.0
 47
0.0
 48
180377.877572
 49
80019.819395
140
180380.8390819999
141
80022.26069
142
1.0
143
0.3486331030131726
 70
   688
 72
     0
 73
     1
 74
     3
  7
Color.ctb
 75
     0
147
2.868344948764708
148
-4581603.303200401
149
-2032962.095032944
  0
PLOTSETTINGS
  5
2B4
102
{ACAD_REACTORS
330
18
102
}
330
18
100
AcDbPlotSettings
  1
2200-Color-Inkjet
  2
HP  2200 Color Inkjet.pc3
  4
Letter
  6

 40
7.143749713897705
 41
12.47775650024414
 42
7.14373779296875
 43
3.17498779296875
 44
215.8999938964843
 45
279.3999938964843
 46
0.0
 47
0.0
 48
180360.0524337165
 49
80033.77936194791
140
180369.1574725906
141
80037.61796031875
142
1.0
143
0.069393053089765
 70
  1712
 72
     0
 73
     1
 74
     1
  7
Color.ctb
 75
     0
147
14.41066440334347
148
-190.0773302744904
149
-129.2444057835751
  0
PLOTSETTINGS
  5
2B5
102
{ACAD_REACTORS
330
18
102
}
330
18
100
AcDbPlotSettings
  1
24x36 PDF
  2
Bluebeam PDF Printer.pc3
  4
User128
  6
PS1
 40
3.174999952316284
 41
3.174999952316284
 42
3.17498779296875
 43
3.17498779296875
 44
609.5999755859375
 45
914.3999633789062
 46
270.5099999999999
 47
416.3059999999999
 48
180377.877572
 49
80019.819395
140
180380.8390819999
141
80022.26069
142
1.0
143
1.0
 70
   692
 72
     0
 73
     1
 74
     4
  7
1055B&WFullDraftShaded.ctb
 75
    16
147
1.0
148
-4581598.0903288
149
-2032503.412632999
  0
PLOTSETTINGS
  5
2B6
102
{ACAD_REACTORS
330
18
102
}
330
18
100
AcDbPlotSettings
  1
8500 B&W Shaded 11x17
  2
8500B&WShaded.pc3
  4
11x17
  6
PS1
 40
5.027083396911621
 41
5.027085304260253
 42
5.027099609375
 43
5.027069091796875
 44
279.3999938964843
 45
431.7999877929687
 46
0.0
 47
92.964
 48
180377.877572
 49
80019.819395
140
180380.8390819999
141
80022.26069
142
1.0
143
0.0116192543742624
 70
   692
 72
     0
 73
     1
 74
     3
  7
8500B&WShaded.ctb
 75
     0
147
86.06404230335863
148
-4581651.879813895
149
-2032998.63613423
  0
PLOTSETTINGS
  5
2B7
102
{ACAD_REACTORS
330
18
102
}
330
18
100
AcDbPlotSettings
  1
8500 B&W Shaded 8.5x11
  2
8500B&WShaded.pc3
  4
Letter
  6
PS1
 40
5.027083396911621
 41
5.027085304260253
 42
5.027084350585937
 43
5.027069091796875
 44
215.8999938964843
 45
279.3999938964843
 46
0.0
 47
44.44999999999999
 48
180377.877572
 49
80019.819395
140
180380.8390819999
141
80022.26069
142
1.0
143
0.0152035994604527
 70
   692
 72
     0
 73
     1
 74
     3
  7
8500B&WShaded.ctb
 75
     0
147
65.77389799048455
148
-4581651.879813895
149
-2032998.63613423
  0
PLOTSETTINGS
  5
2B8
102
{ACAD_REACTORS
330
18
102
}
330
18
100
AcDbPlotSettings
  1
8500 Color Shaded 11x17
  2
8500ColorShaded.pc3
  4
11x17
  6
PS1
 40
5.027083396911621
 41
5.027085304260253
 42
5.027099609375
 43
5.027069091796875
 44
279.3999938964843
 45
431.7999877929687
 46
0.0
 47
92.964
 48
180377.877572
 49
80019.819395
140
180380.8390819999
141
80022.26069
142
1.0
143
0.0116192543742624
 70
   692
 72
     0
 73
     1
 74
     3
  7
8500ColorShaded.ctb
 75
     0
147
86.06404230335863
148
-4581651.879813895
149
-2032998.63613423
  0
PLOTSETTINGS
  5
2B9
102
{ACAD_REACTORS
330
18
102
}
330
18
100
AcDbPlotSettings
  1
8500 Color Shaded 8.5x11
  2
8500ColorShaded.pc3
  4
Letter
  6
PS1
 40
5.027083396911621
 41
5.027085304260253
 42
5.027084350585937
 43
5.027069091796875
 44
215.8999938964843
 45
279.3999938964843
 46
0.0
 47
44.44999999999999
 48
180377.877572
 49
80019.819395
140
180380.8390819999
141
80022.26069
142
1.0
143
0.0152035994604527
 70
   692
 72
     0
 73
     1
 74
     3
  7
8500ColorShaded.ctb
 75
     0
147
65.77389799048455
148
-4581651.879813895
149
-2032998.63613423
  0
PLOTSETTINGS
  5
2BA
102
{ACAD_REACTORS
330
18
102
}
330
18
100
AcDbPlotSettings
  1
8500-B&W-Shaded-11x17
  2
8500B&WShaded.pc3
  4
11x17
  6

 40
5.027083396911621
 41
5.027085304260253
 42
5.027099609375
 43
5.027069091796875
 44
279.3999938964843
 45
431.7999877929687
 46
0.0
 47
0.0
 48
180360.0524337165
 49
80033.77936194791
140
180369.1574725906
141
80037.61796031875
142
1.0
143
0.0519425466957002
 70
  1712
 72
     0
 73
     1
 74
     1
  7
8500B&WShaded.ctb
 75
     0
147
19.252040256293
148
-190.0773302744904
149
-129.2444057835751
  0
PLOTSETTINGS
  5
2BB
102
{ACAD_REACTORS
330
18
102
}
330
18
100
AcDbPlotSettings
  1
8500-B&W-Shaded-8.5x11
  2
8500B&WShaded.pc3
  4
Letter
  6

 40
5.027083396911621
 41
5.027085304260253
 42
5.027084350585937
 43
5.027069091796875
 44
215.8999938964843
 45
279.3999938964843
 46
0.0
 47
0.0
 48
180360.0524337165
 49
80033.77936194791
140
180369.1574725906
141
80037.61796031875
142
1.0
143
0.0679659511256221
 70
  1712
 72
     0
 73
     1
 74
     1
  7
8500B&WShaded.ctb
 75
     0
147
14.71324955273106
148
-190.0773302744904
149
-129.2444057835751
  0
PLOTSETTINGS
  5
2BC
102
{ACAD_REACTORS
330
18
102
}
330
18
100
AcDbPlotSettings
  1
8500-Color-Shaded-11x17
  2
8500ColorShaded.pc3
  4
11x17
  6

 40
5.027083396911621
 41
5.027085304260253
 42
5.027099609375
 43
5.027069091796875
 44
279.3999938964843
 45
431.7999877929687
 46
0.0
 47
0.0
 48
180360.0524337165
 49
80033.77936194791
140
180369.1574725906
141
80037.61796031875
142
1.0
143
0.0519425466957002
 70
  1712
 72
     0
 73
     1
 74
     1
  7
8500ColorShaded.ctb
 75
     0
147
19.252040256293
148
-190.0773302744904
149
-129.2444057835751
  0
PLOTSETTINGS
  5
2BD
102
{ACAD_REACTORS
330
18
102
}
330
18
100
AcDbPlotSettings
  1
8500-Color-Shaded-8.5x11
  2
8500ColorShaded.pc3
  4
Letter
  6

 40
5.027083396911621
 41
5.027085304260253
 42
5.027084350585937
 43
5.027069091796875
 44
215.8999938964843
 45
279.3999938964843
 46
0.0
 47
0.0
 48
180360.0524337165
 49
80033.77936194791
140
180369.1574725906
141
80037.61796031875
142
1.0
143
0.0679659511256221
 70
  1712
 72
     0
 73
     1
 74
     1
  7
8500ColorShaded.ctb
 75
     0
147
14.71324955273106
148
-190.0773302744904
149
-129.2444057835751
  0
PLOTSETTINGS
  5
2BE
102
{ACAD_REACTORS
330
18
102
}
330
18
100
AcDbPlotSettings
  1
Laser Jet 5 Shaded 11x17
  2
LaserJet5Shaded.pc3
  4
11x17
  6
PS1
 40
7.143749713897705
 41
5.873736858367919
 42
7.143768310546875
 43
7.14373779296875
 44
279.3999938964843
 45
431.7999877929687
 46
0.0
 47
29.71799999999999
 48
180377.877572
 49
80019.819395
140
180380.8390819999
141
80022.26069
142
1.0
143
0.2557442899420743
 70
   692
 72
     0
 73
     1
 74
     3
  7
LaserJet5Shaded.ctb
 75
     0
147
3.910155727138614
148
-4581603.303200401
149
-2032962.095032944
  0
PLOTSETTINGS
  5
2BF
102
{ACAD_REACTORS
330
18
102
}
330
18
100
AcDbPlotSettings
  1
Laser Jet 5 Shaded 8.5x11
  2
LaserJet5Shaded.pc3
  4
Letter
  6
PS1
 40
7.143749713897705
 41
6.974400997161865
 42
7.14373779296875
 43
6.297088623046875
 44
215.8999938964843
 45
279.3999938964843
 46
2.794
 47
0.0
 48
180377.877572
 49
80019.819395
140
180380.8390819999
141
80022.26069
142
1.0
143
0.345513616778612
 70
   692
 72
     0
 73
     1
 74
     3
  7
LaserJet5Shaded.ctb
 75
     0
147
2.894241938489939
148
-4581603.303200401
149
-2032962.095032944
  0
PLOTSETTINGS
  5
2C0
102
{ACAD_REACTORS
330
18
102
}
330
18
100
AcDbPlotSettings
  1
LaserJet5-Shaded-11x17
  2
LaserJet5Shaded.pc3
  4
11x17
  6

 40
7.143749713897705
 41
5.873736858367919
 42
7.143768310546875
 43
7.14373779296875
 44
279.3999938964843
 45
431.7999877929687
 46
0.0
 47
0.0
 48
180360.0524337165
 49
80033.77936194791
140
180369.1574725906
141
80037.61796031875
142
1.0
143
0.0527719690046124
 70
  1712
 72
     0
 73
     1
 74
     1
  7
LaserJet5Shaded.ctb
 75
     0
147
18.9494540162524
148
-190.0773302744904
149
-129.2444057835751
  0
PLOTSETTINGS
  5
2C1
102
{ACAD_REACTORS
330
18
102
}
330
18
100
AcDbPlotSettings
  1
LaserJet5-Shaded-8.5x11
  2
LaserJet5Shaded.pc3
  4
Letter
  6

 40
7.143749713897705
 41
6.974400997161865
 42
7.14373779296875
 43
6.297088623046875
 44
215.8999938964843
 45
279.3999938964843
 46
0.0
 47
0.0
 48
180360.0524337165
 49
80033.77936194791
140
180369.1574725906
141
80037.61796031875
142
1.0
143
0.069393053089765
 70
  1712
 72
     0
 73
     1
 74
     1
  7
LaserJet5Shaded.ctb
 75
     0
147
14.41066440334347
148
-190.0773302744904
149
-129.2444057835751
  0
PLOTSETTINGS
  5
2C2
102
{ACAD_REACTORS
330
18
102
}
330
18
100
AcDbPlotSettings
  1
Oki Doki B&W Shaded 11x17
  2
OKI DOKI Color Laser.pc3
  4
Tabloid
  6
PS1
 40
5.027083396911621
 41
5.027085304260253
 42
5.027099609375
 43
5.027069091796875
 44
279.3999938964843
 45
431.7999877929687
 46
0.0
 47
47.49799999999999
 48
180377.877572
 49
80019.819395
140
180380.8390819999
141
80022.26069
142
1.0
143
0.2302203728173071
 70
   692
 72
     0
 73
     1
 74
     4
  7
OKIB&WShaded.ctb
 75
     0
147
4.343664236846477
148
-4581598.0903288
149
-2032503.412632999
  0
PLOTSETTINGS
  5
2C3
102
{ACAD_REACTORS
330
18
102
}
330
18
100
AcDbPlotSettings
  1
Oki Doki B&W Shaded 8.5x11
  2
OKI DOKI Color Laser.pc3
  4
Letter
  6
PS1
 40
5.027083396911621
 41
5.027085304260253
 42
5.027084350585937
 43
5.027069091796875
 44
215.8999938964843
 45
279.3999938964843
 46
0.0
 47
9.906
 48
180377.877572
 49
80019.819395
140
180380.8390819999
141
80022.26069
142
1.0
143
0.3012394963745367
 70
   692
 72
     0
 73
     1
 74
     4
  7
OKIB&WShaded.ctb
 75
     0
147
3.319617819161008
148
-4581598.0903288
149
-2032503.412632999
  0
PLOTSETTINGS
  5
2C4
102
{ACAD_REACTORS
330
18
102
}
330
18
100
AcDbPlotSettings
  1
Oki Doki Color Laser
  2
OKI DOKI Color Laser.pc3
  4
Letter
  6
PS1
 40
5.027083396911621
 41
5.027085304260253
 42
5.027084350585937
 43
5.027069091796875
 44
215.8999938964843
 45
279.3999938964843
 46
71.88199999999999
 47
97.02799999999999
 48
180377.877572
 49
80019.819395
140
180380.8390819999
141
80022.26069
142
1.0
143
1.0
 70
   692
 72
     0
 73
     1
 74
     4
  7
Color.ctb
 75
    16
147
1.0
148
-4581598.0903288
149
-2032503.412632999
  0
PLOTSETTINGS
  5
2C5
102
{ACAD_REACTORS
330
18
102
}
330
18
100
AcDbPlotSettings
  1
Oki Doki Color Shaded 11x17
  2
OKI DOKI Color Laser.pc3
  4
Tabloid
  6
PS1
 40
5.027083396911621
 41
5.027085304260253
 42
5.027099609375
 43
5.027069091796875
 44
279.3999938964843
 45
431.7999877929687
 46
0.0
 47
47.49799999999999
 48
180377.877572
 49
80019.819395
140
180380.8390819999
141
80022.26069
142
1.0
143
0.2302203728173071
 70
   692
 72
     0
 73
     1
 74
     4
  7
OKIColorShaded.ctb
 75
     0
147
4.343664236846477
148
-4581598.0903288
149
-2032503.412632999
  0
PLOTSETTINGS
  5
2C6
102
{ACAD_REACTORS
330
18
102
}
330
18
100
AcDbPlotSettings
  1
Oki Doki Color Shaded 8.5x11
  2
OKI DOKI Color Laser.pc3
  4
Letter
  6
PS1
 40
5.027083396911621
 41
5.027085304260253
 42
5.027084350585937
 43
5.027069091796875
 44
215.8999938964843
 45
279.3999938964843
 46
0.0
 47
9.906
 48
180377.877572
 49
80019.819395
140
180380.8390819999
141
80022.26069
142
1.0
143
0.3012394963745367
 70
   692
 72
     0
 73
     1
 74
     4
  7
OKIColorShaded.ctb
 75
     0
147
3.319617819161008
148
-4581598.0903288
149
-2032503.412632999
  0
PLOTSETTINGS
  5
2C7
102
{ACAD_REACTORS
330
18
102
}
330
18
100
AcDbPlotSettings
  1
Oki-Doki-B&W-Shaded-11x17
  2
OKI DOKI Color Laser.pc3
  4
Tabloid
  6

 40
5.027083396911621
 41
5.027085304260253
 42
5.027099609375
 43
5.027069091796875
 44
279.3999938964843
 45
431.7999877929687
 46
45.72
 47
0.0
 48
180360.0524337165
 49
80033.77936194791
140
180369.1574725906
141
80037.61796031875
142
1.0
143
0.5483586774064594
 70
  1716
 72
     0
 73
     1
 74
     4
  7
OKIB&WShaded.ctb
 75
     0
147
1.823623918435361
148
-4581145.331816398
149
-2032857.995793476
  0
PLOTSETTINGS
  5
2C8
102
{ACAD_REACTORS
330
18
102
}
330
18
100
AcDbPlotSettings
  1
Oki-Doki-B&W-Shaded-8.5x11
  2
OKI DOKI Color Laser.pc3
  4
Letter
  6

 40
5.027083396911621
 41
5.027085304260253
 42
5.027084350585937
 43
5.027069091796875
 44
215.8999938964843
 45
279.3999938964843
 46
46.228
 47
0.0
 48
180360.0524337165
 49
80033.77936194791
140
180369.1574725906
141
80037.61796031875
142
1.0
143
0.8586284006917006
 70
  1716
 72
     0
 73
     1
 74
     4
  7
OKIB&WShaded.ctb
 75
     0
147
1.16464817515285
148
-4581145.331816398
149
-2032857.995793476
  0
PLOTSETTINGS
  5
2C9
102
{ACAD_REACTORS
330
18
102
}
330
18
100
AcDbPlotSettings
  1
Oki-Doki-Color-Laser
  2
OKI DOKI Color Laser.pc3
  4
Letter
  6

 40
5.027083396911621
 41
5.027085304260253
 42
5.027084350585937
 43
5.027069091796875
 44
215.8999938964843
 45
279.3999938964843
 46
17.018
 47
0.0
 48
180360.0524337165
 49
80033.77936194791
140
180369.1574725906
141
80037.61796031875
142
1.0
143
1.429088128819241
 70
  1716
 72
     0
 73
     1
 74
     0
  7
Color.ctb
 75
     0
147
0.6997469084193093
148
0.9506237099442977
149
8.593888772447144
  0
PLOTSETTINGS
  5
2CA
102
{ACAD_REACTORS
330
18
102
}
330
18
100
AcDbPlotSettings
  1
Oki-Doki-Color-Shaded-11x17
  2
OKI DOKI Color Laser.pc3
  4
Tabloid
  6

 40
5.027083396911621
 41
5.027085304260253
 42
5.027099609375
 43
5.027069091796875
 44
279.3999938964843
 45
431.7999877929687
 46
45.72
 47
0.0
 48
180360.0524337165
 49
80033.77936194791
140
180369.1574725906
141
80037.61796031875
142
1.0
143
0.5483586774064594
 70
  1716
 72
     0
 73
     1
 74
     4
  7
OKIColorShaded.ctb
 75
     0
147
1.823623918435361
148
-4581145.331816398
149
-2032857.995793476
  0
PLOTSETTINGS
  5
2CB
102
{ACAD_REACTORS
330
18
102
}
330
18
100
AcDbPlotSettings
  1
Oki-Doki-Color-Shaded-8.5x11
  2
OKI DOKI Color Laser.pc3
  4
Letter
  6

 40
5.027083396911621
 41
5.027085304260253
 42
5.027084350585937
 43
5.027069091796875
 44
215.8999938964843
 45
279.3999938964843
 46
46.228
 47
0.0
 48
180360.0524337165
 49
80033.77936194791
140
180369.1574725906
141
80037.61796031875
142
1.0
143
0.8586284006917006
 70
  1716
 72
     0
 73
     1
 74
     4
  7
OKIColorShaded.ctb
 75
     0
147
1.16464817515285
148
-4581145.331816398
149
-2032857.995793476
  0
ACDBPLACEHOLDER
  5
F
102
{ACAD_REACTORS
330
E
102
}
330
E
  0
DICTIONARYVAR
  5
238
102
{ACAD_REACTORS
330
235
102
}
330
235
100
DictionaryVariables
280
     0
  1
1
  0
DICTIONARYVAR
  5
237
102
{ACAD_REACTORS
330
235
102
}
330
235
100
DictionaryVariables
280
     0
  1
1
  0
DICTIONARYVAR
  5
236
102
{ACAD_REACTORS
330
235
102
}
330
235
100
DictionaryVariables
280
     0
  1
1
  0
ENDSEC
  0
EOF
