  0
SECTION
  2
HEADER
  9
$ACADVER
  1
AC1015
  9
$ACADMAINTVER
 70
    13
  9
$DWGCODEPAGE
  3
ANSI_1252
  9
$INSBASE
 10
0.0
 20
0.0
 30
0.0
  9
$EXTMIN
 10
0.0
 20
0.0
 30
0.0
  9
$EXTMAX
 10
16.48999999999999
 20
10.44
 30
0.03
  9
$LIMMIN
 10
0.0
 20
0.0
  9
$LIMMAX
 10
12.0
 20
9.0
  9
$ORTHOMODE
 70
     0
  9
$REGENMODE
 70
     1
  9
$FILLMODE
 70
     1
  9
$QTEXTMODE
 70
     0
  9
$MIRRTEXT
 70
     0
  9
$LTSCALE
 40
1.0
  9
$ATTMODE
 70
     1
  9
$TEXTSIZE
 40
0.1
  9
$TRACEWID
 40
0.05
  9
$TEXTSTYLE
  7
ROMANS
  9
$CLAYER
  8
OPTION-NOZ-ROTARY
  9
$CELTYPE
  6
ByLayer
  9
$CECOLOR
 62
   256
  9
$CELTSCALE
 40
1.0
  9
$DISPSILH
 70
     0
  9
$DIMSCALE
 40
1.0
  9
$DIMASZ
 40
0.18
  9
$DIMEXO
 40
0.0625
  9
$DIMDLI
 40
0.38
  9
$DIMRND
 40
0.0
  9
$DIMDLE
 40
0.0
  9
$DIMEXE
 40
0.18
  9
$DIMTP
 40
0.0
  9
$DIMTM
 40
0.0
  9
$DIMTXT
 40
0.18
  9
$DIMCEN
 40
0.09
  9
$DIMTSZ
 40
0.0
  9
$DIMTOL
 70
     0
  9
$DIMLIM
 70
     0
  9
$DIMTIH
 70
     1
  9
$DIMTOH
 70
     1
  9
$DIMSE1
 70
     0
  9
$DIMSE2
 70
     0
  9
$DIMTAD
 70
     0
  9
$DIMZIN
 70
     0
  9
$DIMBLK
  1

  9
$DIMASO
 70
     1
  9
$DIMSHO
 70
     1
  9
$DIMPOST
  1

  9
$DIMAPOST
  1

  9
$DIMALT
 70
     0
  9
$DIMALTD
 70
     2
  9
$DIMALTF
 40
25.4
  9
$DIMLFAC
 40
1.0
  9
$DIMTOFL
 70
     0
  9
$DIMTVP
 40
0.0
  9
$DIMTIX
 70
     0
  9
$DIMSOXD
 70
     0
  9
$DIMSAH
 70
     0
  9
$DIMBLK1
  1

  9
$DIMBLK2
  1

  9
$DIMSTYLE
  2
STANDARD
  9
$DIMCLRD
 70
     0
  9
$DIMCLRE
 70
     0
  9
$DIMCLRT
 70
     0
  9
$DIMTFAC
 40
1.0
  9
$DIMGAP
 40
0.09
  9
$DIMJUST
 70
     0
  9
$DIMSD1
 70
     0
  9
$DIMSD2
 70
     0
  9
$DIMTOLJ
 70
     1
  9
$DIMTZIN
 70
     0
  9
$DIMALTZ
 70
     0
  9
$DIMALTTZ
 70
     0
  9
$DIMUPT
 70
     0
  9
$DIMDEC
 70
     4
  9
$DIMTDEC
 70
     4
  9
$DIMALTU
 70
     2
  9
$DIMALTTD
 70
     2
  9
$DIMTXSTY
  7
STANDARD
  9
$DIMAUNIT
 70
     0
  9
$DIMADEC
 70
     0
  9
$DIMALTRND
 40
0.0
  9
$DIMAZIN
 70
     0
  9
$DIMDSEP
 70
    46
  9
$DIMATFIT
 70
     3
  9
$DIMFRAC
 70
     0
  9
$DIMLDRBLK
  1

  9
$DIMLUNIT
 70
     2
  9
$DIMLWD
 70
    -2
  9
$DIMLWE
 70
    -2
  9
$DIMTMOVE
 70
     2
  9
$LUNITS
 70
     2
  9
$LUPREC
 70
     4
  9
$SKETCHINC
 40
0.1
  9
$FILLETRAD
 40
0.0
  9
$AUNITS
 70
     0
  9
$AUPREC
 70
     0
  9
$MENU
  1
ACAD
  9
$ELEVATION
 40
0.0
  9
$PELEVATION
 40
0.0
  9
$THICKNESS
 40
0.0
  9
$LIMCHECK
 70
     0
  9
$CHAMFERA
 40
0.0
  9
$CHAMFERB
 40
0.0
  9
$CHAMFERC
 40
0.0
  9
$CHAMFERD
 40
0.0
  9
$SKPOLY
 70
     0
  9
$TDCREATE
 40
2451463.484798657
  9
$TDUCREATE
 40
2451463.734798657
  9
$TDUPDATE
 40
2453109.571323831
  9
$TDUUPDATE
 40
2453109.821323831
  9
$TDINDWG
 40
0.3314173727
  9
$TDUSRTIMER
 40
0.3314173727
  9
$USRTIMER
 70
     1
  9
$ANGBASE
 50
0.0
  9
$ANGDIR
 70
     0
  9
$PDMODE
 70
     0
  9
$PDSIZE
 40
0.0
  9
$PLINEWID
 40
0.0
  9
$SPLFRAME
 70
     0
  9
$SPLINETYPE
 70
     6
  9
$SPLINESEGS
 70
     8
  9
$HANDSEED
  5
BFC
  9
$SURFTAB1
 70
     6
  9
$SURFTAB2
 70
     6
  9
$SURFTYPE
 70
     6
  9
$SURFU
 70
     6
  9
$SURFV
 70
     6
  9
$UCSBASE
  2

  9
$UCSNAME
  2

  9
$UCSORG
 10
0.0
 20
0.0
 30
0.0
  9
$UCSXDIR
 10
1.0
 20
0.0
 30
0.0
  9
$UCSYDIR
 10
0.0
 20
1.0
 30
0.0
  9
$UCSORTHOREF
  2

  9
$UCSORTHOVIEW
 70
     0
  9
$UCSORGTOP
 10
0.0
 20
0.0
 30
0.0
  9
$UCSORGBOTTOM
 10
0.0
 20
0.0
 30
0.0
  9
$UCSORGLEFT
 10
0.0
 20
0.0
 30
0.0
  9
$UCSORGRIGHT
 10
0.0
 20
0.0
 30
0.0
  9
$UCSORGFRONT
 10
0.0
 20
0.0
 30
0.0
  9
$UCSORGBACK
 10
0.0
 20
0.0
 30
0.0
  9
$PUCSBASE
  2

  9
$PUCSNAME
  2

  9
$PUCSORG
 10
0.0
 20
0.0
 30
0.0
  9
$PUCSXDIR
 10
1.0
 20
0.0
 30
0.0
  9
$PUCSYDIR
 10
0.0
 20
1.0
 30
0.0
  9
$PUCSORTHOREF
  2

  9
$PUCSORTHOVIEW
 70
     0
  9
$PUCSORGTOP
 10
0.0
 20
0.0
 30
0.0
  9
$PUCSORGBOTTOM
 10
0.0
 20
0.0
 30
0.0
  9
$PUCSORGLEFT
 10
0.0
 20
0.0
 30
0.0
  9
$PUCSORGRIGHT
 10
0.0
 20
0.0
 30
0.0
  9
$PUCSORGFRONT
 10
0.0
 20
0.0
 30
0.0
  9
$PUCSORGBACK
 10
0.0
 20
0.0
 30
0.0
  9
$USERI1
 70
     0
  9
$USERI2
 70
     0
  9
$USERI3
 70
     0
  9
$USERI4
 70
     0
  9
$USERI5
 70
     0
  9
$USERR1
 40
0.0
  9
$USERR2
 40
0.0
  9
$USERR3
 40
0.0
  9
$USERR4
 40
0.0
  9
$USERR5
 40
0.0
  9
$WORLDVIEW
 70
     1
  9
$SHADEDGE
 70
     3
  9
$SHADEDIF
 70
    70
  9
$TILEMODE
 70
     1
  9
$MAXACTVP
 70
    16
  9
$PINSBASE
 10
0.0
 20
0.0
 30
0.0
  9
$PLIMCHECK
 70
     0
  9
$PEXTMIN
 10
1.000000000000000E+20
 20
1.000000000000000E+20
 30
1.000000000000000E+20
  9
$PEXTMAX
 10
-1.000000000000000E+20
 20
-1.000000000000000E+20
 30
-1.000000000000000E+20
  9
$PLIMMIN
 10
0.0
 20
0.0
  9
$PLIMMAX
 10
12.0
 20
9.0
  9
$UNITMODE
 70
     0
  9
$VISRETAIN
 70
     0
  9
$PLINEGEN
 70
     1
  9
$PSLTSCALE
 70
     1
  9
$TREEDEPTH
 70
  3020
  9
$CMLSTYLE
  2
Standard
  9
$CMLJUST
 70
     0
  9
$CMLSCALE
 40
1.0
  9
$PROXYGRAPHICS
 70
     1
  9
$MEASUREMENT
 70
     0
  9
$CELWEIGHT
370
    -1
  9
$ENDCAPS
280
     0
  9
$JOINSTYLE
280
     0
  9
$LWDISPLAY
290
     0
  9
$INSUNITS
 70
     0
  9
$HYPERLINKBASE
  1

  9
$STYLESHEET
  1
OKIColorShaded.ctb
  9
$XEDIT
290
     1
  9
$CEPSNTYPE
380
     0
  9
$PSTYLEMODE
290
     1
  9
$FINGERPRINTGUID
  2
{8EF778CE-910C-4465-9611-25651CD23DF6}
  9
$VERSIONGUID
  2
{D14C9F16-27DD-43A1-A6DC-9FE3AB6C4031}
  9
$EXTNAMES
290
     1
  9
$PSVPSCALE
 40
0.0
  9
$OLESTARTUP
290
     1
  0
ENDSEC
  0
SECTION
  2
CLASSES
  0
CLASS
  1
ACDBDICTIONARYWDFLT
  2
AcDbDictionaryWithDefault
  3
AutoCAD 2000
 90
        0
280
     0
281
     0
  0
CLASS
  1
ACDBPLACEHOLDER
  2
AcDbPlaceHolder
  3
AutoCAD 2000
 90
        0
280
     0
281
     0
  0
CLASS
  1
LAYOUT
  2
AcDbLayout
  3
AutoCAD 2000
 90
        0
280
     0
281
     0
  0
CLASS
  1
DICTIONARYVAR
  2
AcDbDictionaryVar
  3
AutoCAD 2000
 90
        0
280
     0
281
     0
  0
CLASS
  1
PLOTSETTINGS
  2
AcDbPlotSettings
  3
AutoCAD 2000
 90
        0
280
     0
281
     0
  0
ENDSEC
  0
SECTION
  2
TABLES
  0
TABLE
  2
VPORT
  5
A42
330
0
100
AcDbSymbolTable
 70
     2
  0
VPORT
  5
BFB
330
A42
100
AcDbSymbolTableRecord
100
AcDbViewportTableRecord
  2
*Active
 70
     0
 10
0.0
 20
0.0
 11
1.0
 21
1.0
 12
8.245000038393772
 22
5.220000024307517
 13
0.0
 23
0.0
 14
0.14
 24
0.14
 15
0.0
 25
0.0
 16
0.0
 26
0.0
 36
1.0
 17
0.0
 27
0.0
 37
0.0
 40
11.0072450655855
 41
1.505548705302096
 42
50.0
 43
0.0
 44
0.0
 50
0.0
 51
0.0
 71
     0
 72
  5000
 73
     1
 74
     0
 75
     0
 76
     0
 77
     0
 78
     1
281
     0
 65
     1
110
0.0
120
0.0
130
0.0
111
1.0
121
0.0
131
0.0
112
0.0
122
1.0
132
0.0
 79
     0
146
0.0
  0
ENDTAB
  0
TABLE
  2
LTYPE
  5
A3F
330
0
100
AcDbSymbolTable
 70
     1
  0
LTYPE
  5
A4D
330
A3F
100
AcDbSymbolTableRecord
100
AcDbLinetypeTableRecord
  2
ByBlock
 70
     0
  3

 72
    65
 73
     0
 40
0.0
  0
LTYPE
  5
A4E
330
A3F
100
AcDbSymbolTableRecord
100
AcDbLinetypeTableRecord
  2
ByLayer
 70
     0
  3

 72
    65
 73
     0
 40
0.0
  0
LTYPE
  5
A4F
330
A3F
100
AcDbSymbolTableRecord
100
AcDbLinetypeTableRecord
  2
CONTINUOUS
 70
     0
  3
Solid line
 72
    65
 73
     0
 40
0.0
  0
ENDTAB
  0
TABLE
  2
LAYER
  5
A3C
102
{ACAD_XDICTIONARY
360
B93
102
}
330
0
100
AcDbSymbolTable
 70
    19
  0
LAYER
  5
A4A
330
A3C
100
AcDbSymbolTableRecord
100
AcDbLayerTableRecord
  2
0
 70
     0
 62
     7
  6
CONTINUOUS
370
    -3
390
A49
  0
LAYER
  5
A63
330
A3C
100
AcDbSymbolTableRecord
100
AcDbLayerTableRecord
  2
TEXT_BUBBLES
 70
     0
 62
     6
  6
CONTINUOUS
370
    -3
390
A49
  0
LAYER
  5
A64
330
A3C
100
AcDbSymbolTableRecord
100
AcDbLayerTableRecord
  2
IMAGE
 70
     0
 62
     7
  6
CONTINUOUS
370
    -3
390
A49
  0
LAYER
  5
A67
330
A3C
100
AcDbSymbolTableRecord
100
AcDbLayerTableRecord
  2
TEXT_LEADERS
 70
     0
 62
    -5
  6
CONTINUOUS
370
    -3
390
A49
  0
LAYER
  5
A68
330
A3C
100
AcDbSymbolTableRecord
100
AcDbLayerTableRecord
  2
OPTION-NOZ-VAN
 70
     0
 62
    -1
  6
CONTINUOUS
370
    -3
390
A49
  0
LAYER
  5
A6A
330
A3C
100
AcDbSymbolTableRecord
100
AcDbLayerTableRecord
  2
OPTION-NOZ-PLASTIC
 70
     0
 62
    -1
  6
CONTINUOUS
370
    -3
390
A49
  0
LAYER
  5
A6B
330
A3C
100
AcDbSymbolTableRecord
100
AcDbLayerTableRecord
  2
INSTRUCT-OPTION
 70
     0
 62
     7
  6
CONTINUOUS
370
    -3
390
A49
  0
LAYER
  5
A6C
330
A3C
100
AcDbSymbolTableRecord
100
AcDbLayerTableRecord
  2
INSTRUCT-CALLOUT
 70
     0
 62
     4
  6
CONTINUOUS
370
    -3
390
A49
  0
LAYER
  5
A6E
330
A3C
100
AcDbSymbolTableRecord
100
AcDbLayerTableRecord
  2
OPTION-NOZ-U-SERIES
 70
     0
 62
    -1
  6
CONTINUOUS
370
    -3
390
A49
  0
LAYER
  5
A6F
330
A3C
100
AcDbSymbolTableRecord
100
AcDbLayerTableRecord
  2
OPTION-VPC
 70
     0
 62
    -1
  6
CONTINUOUS
370
    -3
390
A49
  0
LAYER
  5
A70
330
A3C
100
AcDbSymbolTableRecord
100
AcDbLayerTableRecord
  2
OPTION-NP
 70
     0
 62
     1
  6
CONTINUOUS
370
    -3
390
A49
  0
LAYER
  5
A71
330
A3C
100
AcDbSymbolTableRecord
100
AcDbLayerTableRecord
  2
OPTION-SA
 70
     0
 62
    -1
  6
CONTINUOUS
370
    -3
390
A49
  0
LAYER
  5
A72
330
A3C
100
AcDbSymbolTableRecord
100
AcDbLayerTableRecord
  2
TEXT-SA-BUBBLES
 70
     0
 62
    -1
  6
CONTINUOUS
370
    -3
390
A49
  0
LAYER
  5
A73
330
A3C
100
AcDbSymbolTableRecord
100
AcDbLayerTableRecord
  2
TEXT-SA-LEADERS
 70
     0
 62
    -1
  6
CONTINUOUS
370
    -3
390
A49
  0
LAYER
  5
A74
330
A3C
100
AcDbSymbolTableRecord
100
AcDbLayerTableRecord
  2
OPTION-RB-SA
 70
     0
 62
     1
  6
CONTINUOUS
370
    -3
390
A49
  0
LAYER
  5
A75
330
A3C
100
AcDbSymbolTableRecord
100
AcDbLayerTableRecord
  2
TEXT-RB-SA-LEADERS
 70
     0
 62
    -1
  6
CONTINUOUS
370
    -3
390
A49
  0
LAYER
  5
A76
330
A3C
100
AcDbSymbolTableRecord
100
AcDbLayerTableRecord
  2
TEXT-RB-SA-BUBBLES
 70
     0
 62
     1
  6
CONTINUOUS
370
    -3
390
A49
  0
LAYER
  5
A87
330
A3C
100
AcDbSymbolTableRecord
100
AcDbLayerTableRecord
  2
TITLE
 70
     0
 62
     4
  6
CONTINUOUS
370
    -3
390
A49
  0
LAYER
  5
BE6
330
A3C
100
AcDbSymbolTableRecord
100
AcDbLayerTableRecord
  2
OPTION-NOZ-ROTARY
 70
     0
 62
     1
  6
CONTINUOUS
370
    -3
390
A49
  0
ENDTAB
  0
TABLE
  2
STYLE
  5
A3D
330
0
100
AcDbSymbolTable
 70
     6
  0
STYLE
  5
A4B
330
A3D
100
AcDbSymbolTableRecord
100
AcDbTextStyleTableRecord
  2
STANDARD
 70
     0
 40
0.0
 41
1.0
 50
0.0
 71
     0
 42
0.2
  3
txt
  4

  0
STYLE
  5
A5E
330
A3D
100
AcDbSymbolTableRecord
100
AcDbTextStyleTableRecord
  2
ROMANS
 70
     0
 40
0.0
 41
1.0
 50
0.0
 71
     0
 42
0.1
  3
ROMANS.SHX
  4

  0
STYLE
  5
A5F
330
A3D
100
AcDbSymbolTableRecord
100
AcDbTextStyleTableRecord
  2
SIMPLEX
 70
     0
 40
0.0
 41
1.0
 50
0.0
 71
     0
 42
0.1
  3
SIMPLEX
  4

  0
STYLE
  5
A88
330
A3D
100
AcDbSymbolTableRecord
100
AcDbTextStyleTableRecord
  2
L100
 70
     0
 40
0.1
 41
1.0
 50
0.0
 71
     0
 42
0.1
  3
romans.shx
  4

  0
STYLE
  5
A89
330
A3D
100
AcDbSymbolTableRecord
100
AcDbTextStyleTableRecord
  2
L200
 70
     0
 40
0.2
 41
1.0
 50
0.0
 71
     0
 42
0.081
  3
ARIAL.TTF
  4

1001
ACAD
1000
Arial
1071
       34
  0
STYLE
  5
A8A
330
A3D
100
AcDbSymbolTableRecord
100
AcDbTextStyleTableRecord
  2
L80
 70
     0
 40
0.08
 41
1.0
 50
0.0
 71
     0
 42
0.08
  3
ROMANS
  4

  0
ENDTAB
  0
TABLE
  2
VIEW
  5
A40
330
0
100
AcDbSymbolTable
 70
     0
  0
ENDTAB
  0
TABLE
  2
UCS
  5
A41
330
0
100
AcDbSymbolTable
 70
     0
  0
ENDTAB
  0
TABLE
  2
APPID
  5
A43
330
0
100
AcDbSymbolTable
 70
     3
  0
APPID
  5
A4C
330
A43
100
AcDbSymbolTableRecord
100
AcDbRegAppTableRecord
  2
ACAD
 70
     0
  0
APPID
  5
A61
330
A43
100
AcDbSymbolTableRecord
100
AcDbRegAppTableRecord
  2
RAK
 70
     0
  0
APPID
  5
A8B
330
A43
100
AcDbSymbolTableRecord
100
AcDbRegAppTableRecord
  2
DCO15
 70
     0
  0
ENDTAB
  0
TABLE
  2
DIMSTYLE
  5
A44
330
0
100
AcDbSymbolTable
 70
     1
100
AcDbDimStyleTable
 71
     0
  0
DIMSTYLE
105
A62
102
{ACAD_REACTORS
330
B5A
330
B2E
102
}
330
A44
100
AcDbSymbolTableRecord
100
AcDbDimStyleTableRecord
  2
STANDARD
 70
     0
279
     2
340
A4B
  0
ENDTAB
  0
TABLE
  2
BLOCK_RECORD
  5
A3B
330
0
100
AcDbSymbolTable
 70
     2
  0
BLOCK_RECORD
  5
A58
330
A3B
100
AcDbSymbolTableRecord
100
AcDbBlockTableRecord
  2
*Model_Space
340
A5B
  0
BLOCK_RECORD
  5
A54
330
A3B
100
AcDbSymbolTableRecord
100
AcDbBlockTableRecord
  2
*Paper_Space
340
A57
  0
BLOCK_RECORD
  5
A5C
330
A3B
100
AcDbSymbolTableRecord
100
AcDbBlockTableRecord
  2
*X0
340
0
102
{BLKREFS
331
1E9
102
}
  0
BLOCK_RECORD
  5
A8C
330
A3B
100
AcDbSymbolTableRecord
100
AcDbBlockTableRecord
  2
titleblock
340
0
102
{BLKREFS
331
A9B
102
}
  0
ENDTAB
  0
ENDSEC
  0
SECTION
  2
BLOCKS
  0
BLOCK
  5
A79
330
A58
100
AcDbEntity
  8
0
100
AcDbBlockBegin
  2
*Model_Space
 70
     0
 10
0.0
 20
0.0
 30
0.0
  3
*Model_Space
  1

  0
ENDBLK
  5
A7A
330
A58
100
AcDbEntity
  8
0
100
AcDbBlockEnd
  0
BLOCK
  5
A77
330
A54
100
AcDbEntity
 67
     1
  8
0
100
AcDbBlockBegin
  2
*Paper_Space
 70
     0
 10
0.0
 20
0.0
 30
0.0
  3
*Paper_Space
  1

  0
ENDBLK
  5
A78
330
A54
100
AcDbEntity
 67
     1
  8
0
100
AcDbBlockEnd
  0
BLOCK
  5
A0E
330
A5C
100
AcDbEntity
  8
0
100
AcDbBlockBegin
  2
*X0
 70
     1
 10
0.0
 20
0.0
 30
0.0
  3
*X0
  1

  0
LINE
  5
99F
330
A5C
100
AcDbEntity
  8
0
 62
     0
100
AcDbLine
 10
3.138008259039668
 20
4.862876962248747
 30
0.0
 11
3.098997619463728
 21
4.901887601824686
 31
0.0
  0
LINE
  5
9A0
330
A5C
100
AcDbEntity
  8
0
 62
     0
100
AcDbLine
 10
2.984092767520916
 20
4.786982749881872
 30
0.0
 11
2.869187915578102
 21
4.901887601824686
 31
0.0
  0
LINE
  5
9A1
330
A5C
100
AcDbEntity
  8
0
 62
     0
100
AcDbLine
 10
2.754283063635287
 20
4.786982749881873
 30
0.0
 11
2.639378211692473
 21
4.901887601824687
 31
0.0
  0
LINE
  5
9A2
330
A5C
100
AcDbEntity
  8
0
 62
     0
100
AcDbLine
 10
2.913729082769505
 20
4.627536730747654
 30
0.0
 11
2.869187915578101
 21
4.672077897939058
 31
0.0
  0
LINE
  5
9A3
330
A5C
100
AcDbEntity
  8
0
 62
     0
100
AcDbLine
 10
2.524473359749658
 20
4.786982749881873
 30
0.0
 11
2.476495241608228
 21
4.834960868023303
 31
0.0
  0
LINE
  5
9A4
330
A5C
100
AcDbEntity
  8
0
 62
     0
100
AcDbLine
 10
2.741424061037796
 20
4.570032048593735
 30
0.0
 11
2.639378211692473
 21
4.672077897939058
 31
0.0
  0
LINE
  5
9A5
330
A5C
100
AcDbEntity
  8
0
 62
     0
100
AcDbLine
 10
2.524473359749659
 20
4.557173045996244
 30
0.0
 11
2.409568507806845
 21
4.672077897939058
 31
0.0
  0
LINE
  5
9A6
330
A5C
100
AcDbEntity
  8
0
 62
     0
100
AcDbLine
 10
2.473733511700102
 20
4.378103190160174
 30
0.0
 11
2.409568507806845
 21
4.44226819405343
 31
0.0
  0
LINE
  5
9A7
330
A5C
100
AcDbEntity
  8
0
 62
     0
100
AcDbLine
 10
1.835044248092775
 20
4.786982749881873
 30
0.0
 11
1.720139396149961
 21
4.901887601824687
 31
0.0
  0
LINE
  5
9A8
330
A5C
100
AcDbEntity
  8
0
 62
     0
100
AcDbLine
 10
1.963652002148847
 20
4.6583749958258
 30
0.0
 11
1.949949100035589
 21
4.672077897939058
 31
0.0
  0
LINE
  5
9A9
330
A5C
100
AcDbEntity
  8
0
 62
     0
100
AcDbLine
 10
1.605234544207147
 20
4.786982749881873
 30
0.0
 11
1.490329692264333
 21
4.901887601824688
 31
0.0
  0
LINE
  5
9AA
330
A5C
100
AcDbEntity
  8
0
 62
     0
100
AcDbLine
 10
1.835044248092775
 20
4.557173045996245
 30
0.0
 11
1.720139396149961
 21
4.672077897939059
 31
0.0
  0
LINE
  5
9AB
330
A5C
100
AcDbEntity
  8
0
 62
     0
100
AcDbLine
 10
1.963652002148847
 20
4.428565291940173
 30
0.0
 11
1.949949100035589
 21
4.442268194053431
 31
0.0
  0
LINE
  5
9AC
330
A5C
100
AcDbEntity
  8
0
 62
     0
100
AcDbLine
 10
1.37542484032152
 20
4.786982749881873
 30
0.0
 11
1.260519988378706
 21
4.901887601824688
 31
0.0
  0
LINE
  5
9AD
330
A5C
100
AcDbEntity
  8
0
 62
     0
100
AcDbLine
 10
1.605234544207148
 20
4.557173045996245
 30
0.0
 11
1.490329692264334
 21
4.672077897939059
 31
0.0
  0
LINE
  5
9AE
330
A5C
100
AcDbEntity
  8
0
 62
     0
100
AcDbLine
 10
1.835044248092775
 20
4.327363342110617
 30
0.0
 11
1.720139396149962
 21
4.442268194053431
 31
0.0
  0
LINE
  5
9AF
330
A5C
100
AcDbEntity
  8
0
 62
     0
100
AcDbLine
 10
1.37542484032152
 20
4.557173045996245
 30
0.0
 11
1.260519988378706
 21
4.672077897939059
 31
0.0
  0
LINE
  5
9B0
330
A5C
100
AcDbEntity
  8
0
 62
     0
100
AcDbLine
 10
1.587186966755675
 20
4.345410919562089
 30
0.0
 11
1.490329692264334
 21
4.442268194053431
 31
0.0
  0
LINE
  5
9B1
330
A5C
100
AcDbEntity
  8
0
 62
     0
100
AcDbLine
 10
3.109492802886834
 20
4.80521377944447
 30
0.0
 11
3.055908299985173
 21
4.858798282346131
 31
0.0
  0
LINE
  5
9B2
330
A5C
100
AcDbEntity
  8
0
 62
     0
100
AcDbLine
 10
2.94100344804236
 20
4.743893430403317
 30
0.0
 11
2.826098596099546
 21
4.858798282346131
 31
0.0
  0
LINE
  5
9B3
330
A5C
100
AcDbEntity
  8
0
 62
     0
100
AcDbLine
 10
2.711193744156732
 20
4.743893430403317
 30
0.0
 11
2.596288892213918
 21
4.858798282346131
 31
0.0
  0
LINE
  5
9B4
330
A5C
100
AcDbEntity
  8
0
 62
     0
100
AcDbLine
 10
2.854345283707078
 20
4.600741890852971
 30
0.0
 11
2.826098596099546
 21
4.628988578460503
 31
0.0
  0
LINE
  5
9B5
330
A5C
100
AcDbEntity
  8
0
 62
     0
100
AcDbLine
 10
2.481384040271104
 20
4.743893430403317
 30
0.0
 11
2.441120165041855
 21
4.784157305632565
 31
0.0
  0
LINE
  5
9B6
330
A5C
100
AcDbEntity
  8
0
 62
     0
100
AcDbLine
 10
2.669193390280845
 20
4.556084080393575
 30
0.0
 11
2.596288892213918
 21
4.628988578460503
 31
0.0
  0
LINE
  5
9B7
330
A5C
100
AcDbEntity
  8
0
 62
     0
100
AcDbLine
 10
2.481384040271104
 20
4.514083726517689
 30
0.0
 11
2.375629787207784
 21
4.619837979581009
 31
0.0
  0
LINE
  5
9B8
330
A5C
100
AcDbEntity
  8
0
 62
     0
100
AcDbLine
 10
2.429898814659887
 20
4.335759248243277
 30
0.0
 11
2.375629787207786
 21
4.390028275695379
 31
0.0
  0
LINE
  5
9B9
330
A5C
100
AcDbEntity
  8
0
 62
     0
100
AcDbLine
 10
1.79195492861422
 20
4.743893430403317
 30
0.0
 11
1.677050076671406
 21
4.858798282346131
 31
0.0
  0
LINE
  5
9BA
330
A5C
100
AcDbEntity
  8
0
 62
     0
100
AcDbLine
 10
1.963652002148847
 20
4.57219635686869
 30
0.0
 11
1.906859780557034
 21
4.628988578460503
 31
0.0
  0
LINE
  5
9BB
330
A5C
100
AcDbEntity
  8
0
 62
     0
100
AcDbLine
 10
1.562145224728591
 20
4.743893430403319
 30
0.0
 11
1.447240372785777
 21
4.858798282346133
 31
0.0
  0
LINE
  5
9BC
330
A5C
100
AcDbEntity
  8
0
 62
     0
100
AcDbLine
 10
1.791954928614219
 20
4.51408372651769
 30
0.0
 11
1.677050076671405
 21
4.628988578460504
 31
0.0
  0
LINE
  5
9BD
330
A5C
100
AcDbEntity
  8
0
 62
     0
100
AcDbLine
 10
1.963652002148846
 20
4.342386652983063
 30
0.0
 11
1.906859780557033
 21
4.399178874574876
 31
0.0
  0
LINE
  5
9BE
330
A5C
100
AcDbEntity
  8
0
 62
     0
100
AcDbLine
 10
1.332335520842964
 20
4.743893430403319
 30
0.0
 11
1.21743066890015
 21
4.858798282346133
 31
0.0
  0
LINE
  5
9BF
330
A5C
100
AcDbEntity
  8
0
 62
     0
100
AcDbLine
 10
1.562145224728592
 20
4.51408372651769
 30
0.0
 11
1.447240372785778
 21
4.628988578460504
 31
0.0
  0
LINE
  5
9C0
330
A5C
100
AcDbEntity
  8
0
 62
     0
100
AcDbLine
 10
1.771369830418324
 20
4.304859120827957
 30
0.0
 11
1.677050076671406
 21
4.399178874574876
 31
0.0
  0
LINE
  5
9C1
330
A5C
100
AcDbEntity
  8
0
 62
     0
100
AcDbLine
 10
3.127723832449433
 20
4.930613814810389
 30
0.0
 11
3.091731070963147
 21
4.966606576296674
 31
0.0
  0
LINE
  5
9C2
330
A5C
100
AcDbEntity
  8
0
 62
     0
100
AcDbLine
 10
2.897914128563805
 20
4.930613814810389
 30
0.0
 11
2.861921367077518
 21
4.966606576296674
 31
0.0
  0
LINE
  5
9C3
330
A5C
100
AcDbEntity
  8
0
 62
     0
100
AcDbLine
 10
3.066719675202675
 20
4.761808268171519
 30
0.0
 11
3.012818980506618
 21
4.815708962867574
 31
0.0
  0
LINE
  5
9C4
330
A5C
100
AcDbEntity
  8
0
 62
     0
100
AcDbLine
 10
2.668104424678177
 20
4.93061381481039
 30
0.0
 11
2.63211166319189
 21
4.966606576296677
 31
0.0
  0
LINE
  5
9C5
330
A5C
100
AcDbEntity
  8
0
 62
     0
100
AcDbLine
 10
2.897914128563805
 20
4.700804110924762
 30
0.0
 11
2.783009276620991
 21
4.815708962867576
 31
0.0
  0
LINE
  5
9C6
330
A5C
100
AcDbEntity
  8
0
 62
     0
100
AcDbLine
 10
2.668104424678176
 20
4.700804110924762
 30
0.0
 11
2.553199572735362
 21
4.815708962867576
 31
0.0
  0
LINE
  5
9C7
330
A5C
100
AcDbEntity
  8
0
 62
     0
100
AcDbLine
 10
2.787594472398644
 20
4.581314063204295
 30
0.0
 11
2.78300927662099
 21
4.585899258981948
 31
0.0
  0
LINE
  5
9C8
330
A5C
100
AcDbEntity
  8
0
 62
     0
100
AcDbLine
 10
2.438294720792548
 20
4.700804110924762
 30
0.0
 11
2.375629787207782
 21
4.763469044509527
 31
0.0
  0
LINE
  5
9C9
330
A5C
100
AcDbEntity
  8
0
 62
     0
100
AcDbLine
 10
2.620624740961818
 20
4.518474090755492
 30
0.0
 11
2.553199572735362
 21
4.585899258981948
 31
0.0
  0
LINE
  5
9CA
330
A5C
100
AcDbEntity
  8
0
 62
     0
100
AcDbLine
 10
2.438294720792549
 20
4.470994407039134
 30
0.0
 11
2.375629787207786
 21
4.533659340623898
 31
0.0
  0
LINE
  5
9CB
330
A5C
100
AcDbEntity
  8
0
 62
     0
100
AcDbLine
 10
1.963652002148848
 20
4.715827421797206
 30
0.0
 11
1.895322118313487
 21
4.784157305632567
 31
0.0
  0
LINE
  5
9CC
330
A5C
100
AcDbEntity
  8
0
 62
     0
100
AcDbLine
 10
1.748865609135664
 20
4.93061381481039
 30
0.0
 11
1.712872847649378
 21
4.966606576296676
 31
0.0
  0
LINE
  5
9CD
330
A5C
100
AcDbEntity
  8
0
 62
     0
100
AcDbLine
 10
1.884845104810487
 20
4.794634319135568
 30
0.0
 11
1.863770461078478
 21
4.815708962867576
 31
0.0
  0
LINE
  5
9CE
330
A5C
100
AcDbEntity
  8
0
 62
     0
100
AcDbLine
 10
2.386064117619673
 20
4.293415306326381
 30
0.0
 11
2.375629787207787
 21
4.303849636738267
 31
0.0
  0
LINE
  5
9CF
330
A5C
100
AcDbEntity
  8
0
 62
     0
100
AcDbLine
 10
1.519055905250037
 20
4.930613814810391
 30
0.0
 11
1.483063143763748
 21
4.96660657629668
 31
0.0
  0
LINE
  5
9D0
330
A5C
100
AcDbEntity
  8
0
 62
     0
100
AcDbLine
 10
1.748865609135665
 20
4.700804110924763
 30
0.0
 11
1.633960757192851
 21
4.815708962867577
 31
0.0
  0
LINE
  5
9D1
330
A5C
100
AcDbEntity
  8
0
 62
     0
100
AcDbLine
 10
1.963652002148847
 20
4.48601771791158
 30
0.0
 11
1.863770461078479
 21
4.585899258981949
 31
0.0
  0
LINE
  5
9D2
330
A5C
100
AcDbEntity
  8
0
 62
     0
100
AcDbLine
 10
1.289246201364409
 20
4.93061381481039
 30
0.0
 11
1.25325343987812
 21
4.966606576296679
 31
0.0
  0
LINE
  5
9D3
330
A5C
100
AcDbEntity
  8
0
 62
     0
100
AcDbLine
 10
1.519055905250037
 20
4.700804110924762
 30
0.0
 11
1.404151053307223
 21
4.815708962867576
 31
0.0
  0
LINE
  5
9D4
330
A5C
100
AcDbEntity
  8
0
 62
     0
100
AcDbLine
 10
1.748865609135665
 20
4.470994407039134
 30
0.0
 11
1.633960757192851
 21
4.585899258981948
 31
0.0
  0
LINE
  5
9D5
330
A5C
100
AcDbEntity
  8
0
 62
     0
100
AcDbLine
 10
1.936631625611039
 20
4.283228390563759
 30
0.0
 11
1.863770461078479
 21
4.356089555096319
 31
0.0
  0
LINE
  5
9D6
330
A5C
100
AcDbEntity
  8
0
 62
     0
100
AcDbLine
 10
1.289246201364409
 20
4.700804110924762
 30
0.0
 11
1.194941282183097
 21
4.795109030106074
 31
0.0
  0
LINE
  5
9D7
330
A5C
100
AcDbEntity
  8
0
 62
     0
100
AcDbLine
 10
1.519055905250037
 20
4.470994407039134
 30
0.0
 11
1.404151053307223
 21
4.585899258981948
 31
0.0
  0
LINE
  5
9D8
330
A5C
100
AcDbEntity
  8
0
 62
     0
100
AcDbLine
 10
1.662626993738397
 20
4.327423318550774
 30
0.0
 11
1.633960757192851
 21
4.356089555096319
 31
0.0
  0
LINE
  5
9D9
330
A5C
100
AcDbEntity
  8
0
 62
     0
100
AcDbLine
 10
3.127723832449433
 20
4.901887601824687
 30
0.0
 11
3.168688815739084
 21
4.942852585114338
 31
0.0
  0
LINE
  5
9DA
330
A5C
100
AcDbEntity
  8
0
 62
     0
100
AcDbLine
 10
2.897914128563805
 20
4.672077897939058
 30
0.0
 11
3.012818980506619
 21
4.786982749881873
 31
0.0
  0
LINE
  5
9DB
330
A5C
100
AcDbEntity
  8
0
 62
     0
100
AcDbLine
 10
2.897914128563807
 20
4.901887601824688
 30
0.0
 11
2.962633103035797
 21
4.966606576296678
 31
0.0
  0
LINE
  5
9DC
330
A5C
100
AcDbEntity
  8
0
 62
     0
100
AcDbLine
 10
2.668104424678178
 20
4.672077897939059
 30
0.0
 11
2.783009276620993
 21
4.786982749881873
 31
0.0
  0
LINE
  5
9DD
330
A5C
100
AcDbEntity
  8
0
 62
     0
100
AcDbLine
 10
2.43829472079255
 20
4.442268194053431
 30
0.0
 11
2.553199572735364
 21
4.557173045996245
 31
0.0
  0
LINE
  5
9DE
330
A5C
100
AcDbEntity
  8
0
 62
     0
100
AcDbLine
 10
2.668104424678178
 20
4.901887601824688
 30
0.0
 11
2.732823399150168
 21
4.966606576296678
 31
0.0
  0
LINE
  5
9DF
330
A5C
100
AcDbEntity
  8
0
 62
     0
100
AcDbLine
 10
2.43829472079255
 20
4.672077897939059
 30
0.0
 11
2.553199572735364
 21
4.786982749881873
 31
0.0
  0
LINE
  5
9E0
330
A5C
100
AcDbEntity
  8
0
 62
     0
100
AcDbLine
 10
1.831388726882412
 20
4.29498160791455
 30
0.0
 11
1.863770461078479
 21
4.327363342110617
 31
0.0
  0
LINE
  5
9E1
330
A5C
100
AcDbEntity
  8
0
 62
     0
100
AcDbLine
 10
1.748865609135665
 20
4.442268194053431
 30
0.0
 11
1.863770461078479
 21
4.557173045996245
 31
0.0
  0
LINE
  5
9E2
330
A5C
100
AcDbEntity
  8
0
 62
     0
100
AcDbLine
 10
1.748865609135666
 20
4.672077897939059
 30
0.0
 11
1.863770461078479
 21
4.786982749881873
 31
0.0
  0
LINE
  5
9E3
330
A5C
100
AcDbEntity
  8
0
 62
     0
100
AcDbLine
 10
1.519055905250038
 20
4.442268194053431
 30
0.0
 11
1.633960757192852
 21
4.557173045996245
 31
0.0
  0
LINE
  5
9E4
330
A5C
100
AcDbEntity
  8
0
 62
     0
100
AcDbLine
 10
1.748865609135666
 20
4.901887601824688
 30
0.0
 11
1.813584583607656
 21
4.966606576296678
 31
0.0
  0
LINE
  5
9E5
330
A5C
100
AcDbEntity
  8
0
 62
     0
100
AcDbLine
 10
1.519055905250038
 20
4.672077897939059
 30
0.0
 11
1.633960757192852
 21
4.786982749881873
 31
0.0
  0
LINE
  5
9E6
330
A5C
100
AcDbEntity
  8
0
 62
     0
100
AcDbLine
 10
1.377065737398127
 20
4.530087730087148
 30
0.0
 11
1.404151053307224
 21
4.557173045996245
 31
0.0
  0
LINE
  5
9E7
330
A5C
100
AcDbEntity
  8
0
 62
     0
100
AcDbLine
 10
1.519055905250038
 20
4.901887601824688
 30
0.0
 11
1.583774879722028
 21
4.966606576296678
 31
0.0
  0
LINE
  5
9E8
330
A5C
100
AcDbEntity
  8
0
 62
     0
100
AcDbLine
 10
1.28924620136441
 20
4.672077897939059
 30
0.0
 11
1.404151053307224
 21
4.786982749881873
 31
0.0
  0
LINE
  5
9E9
330
A5C
100
AcDbEntity
  8
0
 62
     0
100
AcDbLine
 10
1.28924620136441
 20
4.901887601824688
 30
0.0
 11
1.353965175836401
 21
4.966606576296678
 31
0.0
  0
LINE
  5
9EA
330
A5C
100
AcDbEntity
  8
0
 62
     0
100
AcDbLine
 10
2.971558637002036
 20
4.65954376742018
 30
0.0
 11
3.051612267346928
 21
4.739597397765071
 31
0.0
  0
LINE
  5
9EB
330
A5C
100
AcDbEntity
  8
0
 62
     0
100
AcDbLine
 10
2.941003448042362
 20
4.858798282346133
 30
0.0
 11
3.048811741992907
 21
4.966606576296678
 31
0.0
  0
LINE
  5
9EC
330
A5C
100
AcDbEntity
  8
0
 62
     0
100
AcDbLine
 10
2.711193744156733
 20
4.628988578460504
 30
0.0
 11
2.826098596099547
 21
4.743893430403319
 31
0.0
  0
LINE
  5
9ED
330
A5C
100
AcDbEntity
  8
0
 62
     0
100
AcDbLine
 10
2.481384040271105
 20
4.399178874574876
 30
0.0
 11
2.596288892213919
 21
4.51408372651769
 31
0.0
  0
LINE
  5
9EE
330
A5C
100
AcDbEntity
  8
0
 62
     0
100
AcDbLine
 10
2.711193744156733
 20
4.858798282346132
 30
0.0
 11
2.819002038107279
 21
4.966606576296679
 31
0.0
  0
LINE
  5
9EF
330
A5C
100
AcDbEntity
  8
0
 62
     0
100
AcDbLine
 10
2.481384040271104
 20
4.628988578460504
 30
0.0
 11
2.596288892213919
 21
4.743893430403318
 31
0.0
  0
LINE
  5
9F0
330
A5C
100
AcDbEntity
  8
0
 62
     0
100
AcDbLine
 10
2.499375650345626
 20
4.876789892420653
 30
0.0
 11
2.589192334221651
 21
4.966606576296679
 31
0.0
  0
LINE
  5
9F1
330
A5C
100
AcDbEntity
  8
0
 62
     0
100
AcDbLine
 10
1.791954928614221
 20
4.399178874574875
 30
0.0
 11
1.906859780557035
 21
4.514083726517689
 31
0.0
  0
LINE
  5
9F2
330
A5C
100
AcDbEntity
  8
0
 62
     0
100
AcDbLine
 10
1.79195492861422
 20
4.628988578460504
 30
0.0
 11
1.906859780557034
 21
4.743893430403318
 31
0.0
  0
LINE
  5
9F3
330
A5C
100
AcDbEntity
  8
0
 62
     0
100
AcDbLine
 10
1.562145224728592
 20
4.399178874574875
 30
0.0
 11
1.677050076671406
 21
4.514083726517689
 31
0.0
  0
LINE
  5
9F4
330
A5C
100
AcDbEntity
  8
0
 62
     0
100
AcDbLine
 10
1.79195492861422
 20
4.858798282346132
 30
0.0
 11
1.829312816402924
 21
4.896156170134836
 31
0.0
  0
LINE
  5
9F5
330
A5C
100
AcDbEntity
  8
0
 62
     0
100
AcDbLine
 10
1.562145224728592
 20
4.628988578460504
 30
0.0
 11
1.677050076671406
 21
4.743893430403318
 31
0.0
  0
LINE
  5
9F6
330
A5C
100
AcDbEntity
  8
0
 62
     0
100
AcDbLine
 10
1.418262341240915
 20
4.485105694972826
 30
0.0
 11
1.447240372785778
 21
4.514083726517689
 31
0.0
  0
LINE
  5
9F7
330
A5C
100
AcDbEntity
  8
0
 62
     0
100
AcDbLine
 10
1.562145224728593
 20
4.858798282346132
 30
0.0
 11
1.669953518679138
 21
4.966606576296677
 31
0.0
  0
LINE
  5
9F8
330
A5C
100
AcDbEntity
  8
0
 62
     0
100
AcDbLine
 10
1.332335520842965
 20
4.628988578460504
 30
0.0
 11
1.447240372785779
 21
4.743893430403318
 31
0.0
  0
LINE
  5
9F9
330
A5C
100
AcDbEntity
  8
0
 62
     0
100
AcDbLine
 10
1.332335520842965
 20
4.858798282346132
 30
0.0
 11
1.440143814793511
 21
4.966606576296678
 31
0.0
  0
LINE
  5
9FA
330
A5C
100
AcDbEntity
  8
0
 62
     0
100
AcDbLine
 10
1.215743960170248
 20
4.742206721673415
 30
0.0
 11
1.217430668900151
 21
4.743893430403318
 31
0.0
  0
LINE
  5
9FB
330
A5C
100
AcDbEntity
  8
0
 62
     0
100
AcDbLine
 10
1.15113119154849
 20
4.907403656937285
 30
0.0
 11
1.210334110907884
 21
4.966606576296678
 31
0.0
  0
LINE
  5
9FC
330
A5C
100
AcDbEntity
  8
0
 62
     0
100
AcDbLine
 10
2.984092767520916
 20
4.815708962867576
 30
0.0
 11
3.09899761946373
 21
4.93061381481039
 31
0.0
  0
LINE
  5
9FD
330
A5C
100
AcDbEntity
  8
0
 62
     0
100
AcDbLine
 10
2.754283063635288
 20
4.585899258981948
 30
0.0
 11
2.869187915578102
 21
4.700804110924762
 31
0.0
  0
LINE
  5
9FE
330
A5C
100
AcDbEntity
  8
0
 62
     0
100
AcDbLine
 10
2.754283063635289
 20
4.815708962867577
 30
0.0
 11
2.869187915578103
 21
4.930613814810391
 31
0.0
  0
LINE
  5
9FF
330
A5C
100
AcDbEntity
  8
0
 62
     0
100
AcDbLine
 10
2.52447335974966
 20
4.585899258981949
 30
0.0
 11
2.639378211692474
 21
4.700804110924763
 31
0.0
  0
LINE
  5
A00
330
A5C
100
AcDbEntity
  8
0
 62
     0
100
AcDbLine
 10
2.375629787207785
 20
4.437055686440073
 30
0.0
 11
2.409568507806846
 21
4.470994407039134
 31
0.0
  0
LINE
  5
A01
330
A5C
100
AcDbEntity
  8
0
 62
     0
100
AcDbLine
 10
2.52447335974966
 20
4.815708962867577
 30
0.0
 11
2.639378211692474
 21
4.930613814810391
 31
0.0
  0
LINE
  5
A02
330
A5C
100
AcDbEntity
  8
0
 62
     0
100
AcDbLine
 10
2.375629787207782
 20
4.666865390325699
 30
0.0
 11
2.409568507806846
 21
4.700804110924763
 31
0.0
  0
LINE
  5
A03
330
A5C
100
AcDbEntity
  8
0
 62
     0
100
AcDbLine
 10
1.835044248092776
 20
4.35608955509632
 30
0.0
 11
1.94994910003559
 21
4.470994407039134
 31
0.0
  0
LINE
  5
A04
330
A5C
100
AcDbEntity
  8
0
 62
     0
100
AcDbLine
 10
1.835044248092776
 20
4.585899258981949
 30
0.0
 11
1.94994910003559
 21
4.700804110924763
 31
0.0
  0
LINE
  5
A05
330
A5C
100
AcDbEntity
  8
0
 62
     0
100
AcDbLine
 10
1.605234544207148
 20
4.35608955509632
 30
0.0
 11
1.720139396149962
 21
4.470994407039134
 31
0.0
  0
LINE
  5
A06
330
A5C
100
AcDbEntity
  8
0
 62
     0
100
AcDbLine
 10
1.835044248092775
 20
4.815708962867576
 30
0.0
 11
1.859784455362664
 21
4.840449170137464
 31
0.0
  0
LINE
  5
A07
330
A5C
100
AcDbEntity
  8
0
 62
     0
100
AcDbLine
 10
1.605234544207148
 20
4.585899258981948
 30
0.0
 11
1.720139396149962
 21
4.700804110924762
 31
0.0
  0
LINE
  5
A08
330
A5C
100
AcDbEntity
  8
0
 62
     0
100
AcDbLine
 10
1.459458945083703
 20
4.440123659858503
 30
0.0
 11
1.490329692264334
 21
4.470994407039134
 31
0.0
  0
LINE
  5
A09
330
A5C
100
AcDbEntity
  8
0
 62
     0
100
AcDbLine
 10
1.605234544207148
 20
4.815708962867577
 30
0.0
 11
1.720139396149962
 21
4.930613814810391
 31
0.0
  0
LINE
  5
A0A
330
A5C
100
AcDbEntity
  8
0
 62
     0
100
AcDbLine
 10
1.37542484032152
 20
4.585899258981949
 30
0.0
 11
1.490329692264334
 21
4.700804110924763
 31
0.0
  0
LINE
  5
A0B
330
A5C
100
AcDbEntity
  8
0
 62
     0
100
AcDbLine
 10
1.37542484032152
 20
4.815708962867576
 30
0.0
 11
1.490329692264334
 21
4.93061381481039
 31
0.0
  0
LINE
  5
A0C
330
A5C
100
AcDbEntity
  8
0
 62
     0
100
AcDbLine
 10
1.240269911917811
 20
4.680554034463868
 30
0.0
 11
1.260519988378706
 21
4.700804110924762
 31
0.0
  0
LINE
  5
A0D
330
A5C
100
AcDbEntity
  8
0
 62
     0
100
AcDbLine
 10
1.175273933622802
 20
4.845367760054486
 30
0.0
 11
1.260519988378706
 21
4.930613814810389
 31
0.0
  0
ENDBLK
  5
A0F
330
A5C
100
AcDbEntity
  8
0
100
AcDbBlockEnd
  0
BLOCK
  5
A98
330
A8C
100
AcDbEntity
  8
0
100
AcDbBlockBegin
  2
titleblock
 70
     2
 10
0.0
 20
0.0
 30
0.0
  3
titleblock
  1

  0
LWPOLYLINE
  5
A8D
330
A8C
100
AcDbEntity
  8
IMAGE
100
AcDbPolyline
 90
        4
 70
     1
 43
0.0
 10
0.0
 20
0.0
 10
16.48999999999999
 20
0.0000000000000001
 10
16.48999999999999
 20
10.44
 10
0.0
 20
10.44
  0
ATTDEF
  5
A8E
330
A8C
100
AcDbEntity
  8
TITLE
100
AcDbText
 10
0.5055556038023421
 20
0.7842270964783673
 30
0.0
 40
0.2
  1
D
  7
L200
 72
     4
 11
0.6064423705144839
 21
0.8842270964783672
 31
0.0
100
AcDbAttributeDefinition
  3
#
  2
D
 70
     0
  0
ATTDEF
  5
A8F
330
A8C
100
AcDbEntity
  8
TITLE
100
AcDbText
 10
1.231442370514484
 20
1.34371230274675
 30
0.0
 40
0.2
  1

  7
L200
100
AcDbAttributeDefinition
  3
DETAIL TITLE TOP LINE
  2
TITLE1
 70
     0
  0
ATTDEF
  5
A90
330
A8C
100
AcDbEntity
  8
TITLE
100
AcDbText
 10
1.231442370514484
 20
0.9842270964783674
 30
0.0
 40
0.2
  1
TITLE
  7
L200
100
AcDbAttributeDefinition
  3
DETAIL TITLE TOP 2ND LINE
  2
TITLE2
 70
     0
  0
ATTDEF
  5
A91
330
A8C
100
AcDbEntity
  8
TITLE
100
AcDbText
 10
2.713645751168312
 20
0.5927927664583189
 30
0.0
 40
0.2
  1
TITLE2
  7
L200
100
AcDbAttributeDefinition
  3
DETAIL TITLE BOTTOM 1
  2
TITLE3
 70
     0
  0
ATTDEF
  5
A92
330
A8C
100
AcDbEntity
  8
TITLE
100
AcDbText
 10
2.713645751168312
 20
0.2692560808167741
 30
0.0
 40
0.2
  1

  7
L200
100
AcDbAttributeDefinition
  3
DETAIL TITLE BOTTOM 2
  2
TITLE4
 70
     0
  0
ATTDEF
  5
A93
330
A8C
100
AcDbEntity
  8
TITLE
 62
     7
100
AcDbText
 10
8.177214829966379
 20
0.9696027915446398
 30
0.0
 40
0.08
  1
-
  7
L80
 72
     2
 11
8.261024353775903
 21
0.9696027915446398
 31
0.0
100
AcDbAttributeDefinition
  3
REVISION DATE
  2
REVISED
 70
     0
  0
ATTDEF
  5
A94
330
A8C
100
AcDbEntity
  8
TITLE
 62
     7
100
AcDbText
 10
0.2639423705144838
 20
0.0847116480207214
 30
0.0
 40
0.08
  1
-
  7
L80
100
AcDbAttributeDefinition
  3
DWG-NAME
  2
DWG-NAME
 70
     0
  0
LWPOLYLINE
  5
A95
330
A8C
100
AcDbEntity
  8
TITLE
 62
     3
100
AcDbPolyline
 90
        2
 70
     1
 43
0.03
 10
0.6064423705144839
 20
0.5417270964783675
 42
0.9999999999999998
 10
0.6064423705144839
 20
1.226727096478367
 42
0.9999999999999998
  0
ATTDEF
  5
A96
330
A8C
100
AcDbEntity
  8
TITLE
 62
     7
100
AcDbText
 10
1.231442370514484
 20
0.7005637793954894
 30
0.0
 40
0.1
  1
N.T.S.
  7
L100
100
AcDbAttributeDefinition
  3
SCALE
  2
SCALE
 70
     0
  0
LWPOLYLINE
  5
A97
330
A8C
100
AcDbEntity
  8
TITLE
 62
     3
100
AcDbPolyline
 90
        2
 70
     0
 43
0.04
 39
0.03
 10
0.9489423705144833
 20
0.8842270964783672
 10
8.261024353775903
 20
0.8842270964783672
  0
ENDBLK
  5
A99
330
A8C
100
AcDbEntity
  8
0
100
AcDbBlockEnd
  0
ENDSEC
  0
SECTION
  2
ENTITIES
  0
LINE
  5
C3
330
A58
100
AcDbEntity
  8
IMAGE
100
AcDbLine
 10
1.816213992843665
 20
4.966606576296678
 30
0.0
 11
0.9672171643034058
 21
4.966606576296678
 31
0.0
  0
LINE
  5
C4
330
A58
100
AcDbEntity
  8
IMAGE
100
AcDbLine
 10
1.362539271592443
 20
5.268195908246836
 30
0.0
 11
1.399352060869538
 21
4.966331036174679
 31
0.0
  0
LINE
  5
C5
330
A58
100
AcDbEntity
  8
IMAGE
100
AcDbLine
 10
1.547113477967884
 20
5.254352842768671
 30
0.0
 11
1.620943160518067
 21
4.972877178046136
 31
0.0
  0
LINE
  5
C6
330
A58
100
AcDbEntity
  8
IMAGE
100
AcDbLine
 10
1.699387198227621
 20
5.249738487609297
 30
0.0
 11
1.725956646799616
 21
4.966331036174679
 31
0.0
  0
LINE
  5
C7
330
A58
100
AcDbEntity
  8
IMAGE
100
AcDbLine
 10
1.797998608350417
 20
5.296084497199181
 30
0.0
 11
1.718543128577466
 21
4.966331036174679
 31
0.0
  0
LINE
  5
C8
330
A58
100
AcDbEntity
  8
IMAGE
100
AcDbLine
 10
1.324932905702195
 20
5.208150240925979
 30
0.0
 11
1.520421594989746
 21
4.966331036174679
 31
0.0
  0
LINE
  5
C9
330
A58
100
AcDbEntity
  8
IMAGE
100
AcDbLine
 10
1.467952769293518
 20
5.307076279233324
 30
0.0
 11
1.467952769293518
 21
4.966331036174679
 31
0.0
  0
LINE
  5
CA
330
A58
100
AcDbEntity
  8
IMAGE
100
AcDbLine
 10
1.632975688821972
 20
5.252117369062577
 30
0.0
 11
1.701376493148255
 21
4.96633103617469
 31
0.0
  0
LINE
  5
CB
330
A58
100
AcDbEntity
  8
IMAGE
100
AcDbLine
 10
1.749906214659263
 20
5.249738487609297
 30
0.0
 11
1.776475663231258
 21
4.966331036174679
 31
0.0
  0
LINE
  5
CC
330
A58
100
AcDbEntity
  8
IMAGE
100
AcDbLine
 10
1.173641988607643
 20
5.254352842768671
 30
0.0
 11
1.247471671157826
 21
4.972877178046136
 31
0.0
  0
LINE
  5
CD
330
A58
100
AcDbEntity
  8
IMAGE
100
AcDbLine
 10
1.32591570886738
 20
5.249738487609297
 30
0.0
 11
1.352485157439374
 21
4.966331036174679
 31
0.0
  0
LINE
  5
CE
330
A58
100
AcDbEntity
  8
IMAGE
100
AcDbLine
 10
1.204496559618907
 20
5.274100933130874
 30
0.0
 11
1.178826327692262
 21
4.96633103617469
 31
0.0
  0
LINE
  5
CF
330
A58
100
AcDbEntity
  8
IMAGE
100
AcDbLine
 10
1.094481279933278
 20
5.307076279233324
 30
0.0
 11
1.094481279933278
 21
4.966331036174679
 31
0.0
  0
LINE
  5
D0
330
A58
100
AcDbEntity
  8
IMAGE
100
AcDbLine
 10
1.259504199461731
 20
5.252117369062577
 30
0.0
 11
1.327905003788016
 21
4.96633103617469
 31
0.0
  0
LINE
  5
D1
330
A58
100
AcDbEntity
  8
IMAGE
100
AcDbLine
 10
1.556545454612943
 20
5.285092715165033
 30
0.0
 11
1.404619592189916
 21
4.966331036174679
 31
0.0
  0
LINE
  5
D2
330
A58
100
AcDbEntity
  8
IMAGE
100
AcDbLine
 10
1.259760901780991
 20
5.245124132449907
 30
0.0
 11
1.233388581863068
 21
4.966331036174679
 31
0.0
  0
LINE
  5
D3
330
A58
100
AcDbEntity
  8
IMAGE
100
AcDbLine
 10
0.9736708818990567
 20
5.254352842768671
 30
0.0
 11
1.047500564449239
 21
4.972877178046136
 31
0.0
  0
LINE
  5
D4
330
A58
100
AcDbEntity
  8
IMAGE
100
AcDbLine
 10
1.059533092753144
 20
5.252117369062577
 30
0.0
 11
1.127933897079429
 21
4.96633103617469
 31
0.0
  0
LINE
  5
D5
330
A58
100
AcDbEntity
  8
IMAGE
100
AcDbLine
 10
1.356574347904357
 20
5.285092715165033
 30
0.0
 11
1.204648485481329
 21
4.966331036174679
 31
0.0
  0
LINE
  5
D6
330
A58
100
AcDbEntity
  8
IMAGE
100
AcDbLine
 10
1.077208881022629
 20
5.296084497199181
 30
0.0
 11
0.9977534012496786
 21
4.966331036174679
 31
0.0
  0
LINE
  5
D7
330
A58
100
AcDbEntity
  8
IMAGE
100
AcDbLine
 10
1.209227216645397
 20
5.285092715165033
 30
0.0
 11
1.05730135422237
 21
4.966331036174679
 31
0.0
  0
LINE
  5
D8
330
A58
100
AcDbEntity
  8
IMAGE
100
AcDbLine
 10
3.720894940689325
 20
5.268195908246836
 30
0.0
 11
3.754541861840623
 21
4.966606576296678
 31
0.0
  0
LINE
  5
D9
330
A58
100
AcDbEntity
  8
IMAGE
100
AcDbLine
 10
1.150288364141814
 20
5.285092715165033
 30
0.0
 11
0.9983625017187861
 21
4.966331036174679
 31
0.0
  0
LINE
  5
DA
330
A58
100
AcDbEntity
  8
IMAGE
100
AcDbLine
 10
1.684962623413987
 20
5.245124132449907
 30
0.0
 11
1.658590303496064
 21
4.966331036174679
 31
0.0
  0
LINE
  5
DB
330
A58
100
AcDbEntity
  8
IMAGE
100
AcDbLine
 10
1.398872603532051
 20
5.254352842768671
 30
0.0
 11
1.472702286082234
 21
4.972877178046136
 31
0.0
  0
LINE
  5
DC
330
A58
100
AcDbEntity
  8
IMAGE
100
AcDbLine
 10
1.649757733914584
 20
5.296084497199181
 30
0.0
 11
1.570302254141632
 21
4.966331036174679
 31
0.0
  0
LINE
  5
DD
330
A58
100
AcDbEntity
  8
IMAGE
100
AcDbLine
 10
1.319711894857686
 20
5.307076279233324
 30
0.0
 11
1.319711894857686
 21
4.966331036174679
 31
0.0
  0
LINE
  5
DE
330
A58
100
AcDbEntity
  8
IMAGE
100
AcDbLine
 10
1.48473481438614
 20
5.252117369062577
 30
0.0
 11
1.553135618712424
 21
4.96633103617469
 31
0.0
  0
LINE
  5
DF
330
A58
100
AcDbEntity
  8
IMAGE
100
AcDbLine
 10
1.781776069537352
 20
5.285092715165033
 30
0.0
 11
1.629850207114324
 21
4.966331036174679
 31
0.0
  0
LINE
  5
E0
330
A58
100
AcDbEntity
  8
IMAGE
100
AcDbLine
 10
2.296376460697552
 20
4.920102901879253
 30
0.0
 11
2.296376460697552
 21
4.7861977743401
 31
0.0
  0
LINE
  5
E1
330
A58
100
AcDbEntity
  8
IMAGE
100
AcDbLine
 10
2.257903537658121
 20
4.920102901879253
 30
0.0
 11
2.257903537658121
 21
4.7861977743401
 31
0.0
  0
LINE
  5
E2
330
A58
100
AcDbEntity
  8
IMAGE
100
AcDbLine
 10
2.085776320487704
 20
4.920102901879253
 30
0.0
 11
2.085776320487704
 21
4.7861977743401
 31
0.0
  0
LINE
  5
E3
330
A58
100
AcDbEntity
  8
IMAGE
100
AcDbLine
 10
2.048595309778182
 20
4.920102901879253
 30
0.0
 11
2.048595309778182
 21
4.7861977743401
 31
0.0
  0
LINE
  5
E4
330
A58
100
AcDbEntity
  8
IMAGE
100
AcDbLine
 10
1.963652002148848
 20
4.7861977743401
 30
0.0
 11
2.375629787207785
 21
4.7861977743401
 31
0.0
  0
LINE
  5
E5
330
A58
100
AcDbEntity
  8
IMAGE
100
AcDbLine
 10
1.890576014262707
 20
4.920102901879253
 30
0.0
 11
2.448705775093923
 21
4.920102901879253
 31
0.0
  0
LINE
  5
E6
330
A58
100
AcDbEntity
  8
IMAGE
100
AcDbLine
 10
1.816213992843661
 20
4.966606576296678
 30
0.0
 11
2.523067796512971
 21
4.966606576296678
 31
0.0
  0
LINE
  5
E7
330
A58
100
AcDbEntity
  8
IMAGE
100
AcDbLine
 10
2.375629787207785
 20
4.7861977743401
 30
0.0
 11
2.448705775093923
 21
4.7861977743401
 31
0.0
  0
LINE
  5
E8
330
A58
100
AcDbEntity
  8
IMAGE
100
AcDbLine
 10
2.448705775093923
 20
4.7861977743401
 30
0.0
 11
2.448705775093923
 21
4.920102901879253
 31
0.0
  0
LINE
  5
E9
330
A58
100
AcDbEntity
  8
IMAGE
100
AcDbLine
 10
2.448705775093923
 20
4.920102901879253
 30
0.0
 11
2.523067796512971
 21
4.920102901879253
 31
0.0
  0
LINE
  5
EA
330
A58
100
AcDbEntity
  8
IMAGE
100
AcDbLine
 10
2.523067796512971
 20
4.920102901879253
 30
0.0
 11
2.523067796512971
 21
4.966606576296678
 31
0.0
  0
LINE
  5
EB
330
A58
100
AcDbEntity
  8
IMAGE
100
AcDbLine
 10
2.523067796512971
 20
4.920102901879243
 30
0.0
 11
2.448705775093923
 21
4.7861977743401
 31
0.0
  0
LINE
  5
EC
330
A58
100
AcDbEntity
  8
IMAGE
100
AcDbLine
 10
1.81621399284366
 20
4.920102901879243
 30
0.0
 11
1.890576014262707
 21
4.7861977743401
 31
0.0
  0
LINE
  5
ED
330
A58
100
AcDbEntity
  8
IMAGE
100
AcDbLine
 10
1.816213992843661
 20
4.920102901879253
 30
0.0
 11
1.816213992843661
 21
4.966606576296678
 31
0.0
  0
LINE
  5
EE
330
A58
100
AcDbEntity
  8
IMAGE
100
AcDbLine
 10
1.890576014262707
 20
4.920102901879253
 30
0.0
 11
1.816213992843661
 21
4.920102901879253
 31
0.0
  0
LINE
  5
EF
330
A58
100
AcDbEntity
  8
IMAGE
100
AcDbLine
 10
1.890576014262707
 20
4.7861977743401
 30
0.0
 11
1.890576014262707
 21
4.920102901879253
 31
0.0
  0
LINE
  5
F0
330
A58
100
AcDbEntity
  8
IMAGE
100
AcDbLine
 10
1.963652002148848
 20
4.7861977743401
 30
0.0
 11
1.890576014262707
 21
4.7861977743401
 31
0.0
  0
LINE
  5
F1
330
A58
100
AcDbEntity
  8
IMAGE
100
AcDbLine
 10
2.375629787207785
 20
4.7861977743401
 30
0.0
 11
2.375629787207785
 21
4.353628427986064
 31
0.0
  0
LINE
  5
F2
330
A58
100
AcDbEntity
  8
IMAGE
100
AcDbLine
 10
2.375629787207785
 20
4.353628427986064
 30
0.0
 11
2.375629787207785
 21
3.799651593023508
 31
0.0
  0
LINE
  5
F3
330
A58
100
AcDbEntity
  8
IMAGE
100
AcDbLine
 10
1.963652002148848
 20
3.799651593023508
 30
0.0
 11
2.055391690499266
 21
3.676092023570584
 31
0.0
  0
LINE
  5
F4
330
A58
100
AcDbEntity
  8
IMAGE
100
AcDbLine
 10
2.055391690499266
 20
3.676092023570584
 30
0.0
 11
2.169640894678317
 21
3.676092023570584
 31
0.0
  0
LINE
  5
F5
330
A58
100
AcDbEntity
  8
IMAGE
100
AcDbLine
 10
1.963652002148848
 20
3.799651593023508
 30
0.0
 11
2.375629787207785
 21
3.799651593023508
 31
0.0
  0
LINE
  5
F6
330
A58
100
AcDbEntity
  8
IMAGE
100
AcDbLine
 10
1.963652002148848
 20
4.353628427986064
 30
0.0
 11
1.963652002148848
 21
3.799651593023508
 31
0.0
  0
LINE
  5
F7
330
A58
100
AcDbEntity
  8
IMAGE
100
AcDbLine
 10
1.963652002148848
 20
4.7861977743401
 30
0.0
 11
1.963652002148848
 21
4.353628427986064
 31
0.0
  0
LINE
  5
F8
330
A58
100
AcDbEntity
  8
IMAGE
100
AcDbLine
 10
2.059250069300832
 20
3.676092023570584
 30
0.0
 11
2.059250069300832
 21
3.799651593023508
 31
0.0
  0
LINE
  5
F9
330
A58
100
AcDbEntity
  8
IMAGE
100
AcDbLine
 10
2.161265630423961
 20
3.799651593023508
 30
0.0
 11
2.161265630423961
 21
3.676092023570584
 31
0.0
  0
LINE
  5
FA
330
A58
100
AcDbEntity
  8
IMAGE
100
AcDbLine
 10
1.963652002148848
 20
4.753072999342451
 30
0.0
 11
2.375629787207785
 21
4.753072999342451
 31
0.0
  0
LINE
  5
FB
330
A58
100
AcDbEntity
  8
IMAGE
100
AcDbLine
 10
2.375629787207785
 20
4.734716465086828
 30
0.0
 11
1.963652002148848
 21
4.734716465086828
 31
0.0
  0
LINE
  5
FC
330
A58
100
AcDbEntity
  8
IMAGE
100
AcDbLine
 10
2.283890098857367
 20
3.676092023570584
 30
0.0
 11
2.169640894678317
 21
3.676092023570584
 31
0.0
  0
LINE
  5
FD
330
A58
100
AcDbEntity
  8
IMAGE
100
AcDbLine
 10
2.280031720055801
 20
3.676092023570584
 30
0.0
 11
2.280031720055801
 21
3.799651593023508
 31
0.0
  0
LINE
  5
FE
330
A58
100
AcDbEntity
  8
IMAGE
100
AcDbLine
 10
2.178016158932672
 20
3.799651593023508
 30
0.0
 11
2.178016158932672
 21
3.676092023570584
 31
0.0
  0
LINE
  5
FF
330
A58
100
AcDbEntity
  8
IMAGE
100
AcDbLine
 10
2.375629787207785
 20
3.799651593023508
 30
0.0
 11
2.283890098857367
 21
3.676092023570584
 31
0.0
  0
CIRCLE
  5
103
330
A58
100
AcDbEntity
  8
TEXT_BUBBLES
100
AcDbCircle
 10
4.920178211733269
 20
5.582244859114489
 30
0.0
 40
0.15625
  0
TEXT
  5
104
330
A58
100
AcDbEntity
  8
TEXT_BUBBLES
100
AcDbText
 10
4.86958297363803
 20
5.519744859114489
 30
0.0
 40
0.125
  1
1
  7
ROMANS
 72
     4
 11
4.920178211733269
 21
5.582244859114489
 31
0.0
100
AcDbText
  0
CIRCLE
  5
105
330
A58
100
AcDbEntity
  8
TEXT_BUBBLES
100
AcDbCircle
 10
4.920178211733269
 20
5.232244698506026
 30
0.0
 40
0.15625
  0
TEXT
  5
106
330
A58
100
AcDbEntity
  8
TEXT_BUBBLES
100
AcDbText
 10
4.860654402209459
 20
5.169744698506026
 30
0.0
 40
0.125
  1
2
  7
ROMANS
 72
     4
 11
4.920178211733269
 21
5.232244698506026
 31
0.0
100
AcDbText
  0
TEXT
  5
10A
330
A58
100
AcDbEntity
  8
TEXT_BUBBLES
100
AcDbText
 10
0.3855836663737967
 20
4.560489136422054
 30
0.0
 40
0.125
  1
2
  7
ROMANS
 72
     4
 11
0.4451074758976063
 21
4.622989136422054
 31
0.0
100
AcDbText
  0
CIRCLE
  5
10B
330
A58
100
AcDbEntity
  8
TEXT_BUBBLES
100
AcDbCircle
 10
0.4451074758976063
 20
4.622989136422054
 30
0.0
 40
0.15625
  0
CIRCLE
  5
10C
330
A58
100
AcDbEntity
  8
TEXT_BUBBLES
100
AcDbCircle
 10
0.4451074758976063
 20
5.122934448713702
 30
0.0
 40
0.15625
  0
TEXT
  5
10D
330
A58
100
AcDbEntity
  8
TEXT_BUBBLES
100
AcDbText
 10
0.3945122378023682
 20
5.060434448713702
 30
0.0
 40
0.125
  1
1
  7
ROMANS
 72
     4
 11
0.4451074758976063
 21
5.122934448713702
 31
0.0
100
AcDbText
  0
TEXT
  5
110
330
A58
100
AcDbEntity
  8
TEXT_LEADERS
100
AcDbText
 10
5.127988280243508
 20
5.512676159999999
 30
0.0
 40
0.125
  1
FINISH GRADE/TOP OF MULCH
  7
ROMANS
100
AcDbText
  0
TEXT
  5
111
330
A58
100
AcDbEntity
  8
TEXT_LEADERS
100
AcDbText
 10
5.12798827566424
 20
4.98767616
 30
0.0
 40
0.125
  1
  RAIN BIRD 1802
  7
ROMANS
100
AcDbText
  0
TEXT
  5
112
330
A58
100
AcDbEntity
  8
TEXT_LEADERS
100
AcDbText
 10
5.12798827566424
 20
5.16267616
 30
0.0
 40
0.125
  1
POP-UP SPRAY SPRINKLER:
  7
ROMANS
100
AcDbText
  0
TEXT
  5
11B
330
A58
100
AcDbEntity
  8
TEXT_BUBBLES
100
AcDbText
 10
5.127988280243508
 20
5.512676159999999
 30
0.0
 40
0.125
  1
FINISH GRADE/TOP OF MULCH
  7
ROMANS
100
AcDbText
  0
TEXT
  5
11C
330
A58
100
AcDbEntity
  8
TEXT_BUBBLES
100
AcDbText
 10
5.127988280243508
 20
4.98767616
 30
0.0
 40
0.125
  1
  RAIN BIRD 1802
  7
ROMANS
100
AcDbText
  0
TEXT
  5
120
330
A58
100
AcDbEntity
  8
OPTION-NOZ-VAN
100
AcDbText
 10
5.12798828
 20
4.823770679999999
 30
0.0
 40
0.125
  1
  WITH VAN NOZZLE
  7
ROMANS
100
AcDbText
  0
TEXT
  5
121
330
A58
100
AcDbEntity
  8
OPTION-NOZ-PLASTIC
100
AcDbText
 10
5.127988280243508
 20
4.815449794320438
 30
0.0
 40
0.125
  1
  WITH PLASTIC MPR NOZZLE
  7
ROMANS
100
AcDbText
  0
LWPOLYLINE
  5
134
330
A58
100
AcDbEntity
  8
INSTRUCT-CALLOUT
100
AcDbPolyline
 90
        4
 70
     1
 43
0.0
 10
10.88199122347806
 20
10.13460032981899
 10
10.88199122347806
 20
8.703114308476747
 10
16.38148851004051
 20
8.703114308476747
 10
16.38148851004051
 20
10.13460032981899
  0
TEXT
  5
13A
330
A58
100
AcDbEntity
  8
INSTRUCT-CALLOUT
100
AcDbText
 10
11.3796395294815
 20
10.19171582053619
 30
0.0
 40
0.125
  1
CHOOSING EQUIPMENT CALLOUT METHOD
  7
ROMANS
100
AcDbText
  0
TEXT
  5
13B
330
A58
100
AcDbEntity
  8
INSTRUCT-CALLOUT
100
AcDbText
 10
10.98668448189482
 20
9.817604756877802
 30
0.0
 40
0.125
  1
CHOOSE EITHER LEADERS OR BUBBLE CALLOUTS
  7
ROMANS
100
AcDbText
  0
TEXT
  5
13C
330
A58
100
AcDbEntity
  8
INSTRUCT-CALLOUT
100
AcDbText
 10
10.98668448189482
 20
9.642604756877803
 30
0.0
 40
0.125
  1
BY TURNING ON THE APPROPRIATE LAYER:
  7
ROMANS
100
AcDbText
  0
TEXT
  5
13D
330
A58
100
AcDbEntity
  8
INSTRUCT-CALLOUT
100
AcDbText
 10
11.5832334926976
 20
9.318687419099131
 30
0.0
 40
0.125
  1
TEXT_LEADERS         TEXT_BUBBLES
  7
ROMANS
100
AcDbText
  0
LINE
  5
13E
330
A58
100
AcDbEntity
  8
INSTRUCT-CALLOUT
100
AcDbLine
 10
11.8903581446544
 20
9.066216165397516
 30
0.0
 11
12.02662669051302
 21
9.066216165397515
 31
0.0
  0
LINE
  5
13F
330
A58
100
AcDbEntity
  8
INSTRUCT-CALLOUT
100
AcDbLine
 10
11.60258773017607
 20
8.946464463591233
 30
0.0
 11
11.8903581446544
 21
9.066216165397516
 31
0.0
  0
SOLID
  5
140
330
A58
100
AcDbEntity
  8
INSTRUCT-CALLOUT
100
AcDbTrace
 10
11.6879737277164
 20
8.949502789453122
 30
0.0
 11
11.66492184282467
 21
9.004897830773968
 31
0.0
 12
11.51026266130799
 22
8.908044655438345
 32
0.0
 13
11.51026266130799
 23
8.908044655438345
 33
0.0
  0
TEXT
  5
141
330
A58
100
AcDbEntity
  8
INSTRUCT-CALLOUT
100
AcDbText
 10
12.05260142753015
 20
9.001465556003616
 30
0.0
 40
0.125
  1
ITEM 1
  7
ROMANS
100
AcDbText
  0
SOLID
  5
142
330
A58
100
AcDbEntity
  8
INSTRUCT-CALLOUT
100
AcDbTrace
 10
14.44074011613731
 20
8.962928824004521
 30
0.0
 11
14.45654240979165
 21
8.905047155790292
 31
0.0
 12
14.27499625832179
 22
8.88658110893439
 32
0.0
 13
14.27499625832179
 23
8.88658110893439
 33
0.0
  0
LINE
  5
143
330
A58
100
AcDbEntity
  8
INSTRUCT-CALLOUT
100
AcDbLine
 10
14.37146570534551
 20
8.912918265024956
 30
0.0
 11
14.62734712227036
 21
8.982776536489573
 31
0.0
  0
TEXT
  5
144
330
A58
100
AcDbEntity
  8
INSTRUCT-CALLOUT
100
AcDbText
 10
14.72748539514967
 20
8.961428342881079
 30
0.0
 40
0.125
  1
1
  7
ROMANS
 72
     4
 11
14.77808063324491
 21
9.023928342881079
 31
0.0
100
AcDbText
  0
CIRCLE
  5
145
330
A58
100
AcDbEntity
  8
INSTRUCT-CALLOUT
100
AcDbCircle
 10
14.77808063324491
 20
9.023928342881079
 30
0.0
 40
0.15625
  0
TEXT
  5
146
330
A58
100
AcDbEntity
  8
INSTRUCT-CALLOUT
100
AcDbText
 10
10.98668448189482
 20
8.328364177439073
 30
0.0
 40
0.125
  1
LAYER "INSTRUCT-CALLOUT".
  7
ROMANS
100
AcDbText
  0
TEXT
  5
147
330
A58
100
AcDbEntity
  8
INSTRUCT-CALLOUT
100
AcDbText
 10
10.98668448189482
 20
8.503364177439074
 30
0.0
 40
0.125
  1
TO TURN OFF THIS INSTRUCTION BOX, TURN OFF
  7
ROMANS
100
AcDbText
  0
LINE
  5
148
330
A58
100
AcDbEntity
  8
IMAGE
100
AcDbLine
 10
3.754541861840623
 20
4.966606576296678
 30
0.0
 11
2.52306779651297
 21
4.966606576296678
 31
0.0
  0
LINE
  5
149
330
A58
100
AcDbEntity
  8
IMAGE
100
AcDbLine
 10
3.300867140589402
 20
5.268195908246836
 30
0.0
 11
3.337679929866497
 21
4.966331036174679
 31
0.0
  0
LINE
  5
14A
330
A58
100
AcDbEntity
  8
IMAGE
100
AcDbLine
 10
3.485441346964843
 20
5.254352842768671
 30
0.0
 11
3.559271029515025
 21
4.972877178046136
 31
0.0
  0
LINE
  5
14B
330
A58
100
AcDbEntity
  8
IMAGE
100
AcDbLine
 10
3.63771506722458
 20
5.249738487609297
 30
0.0
 11
3.664284515796575
 21
4.966331036174679
 31
0.0
  0
LINE
  5
14C
330
A58
100
AcDbEntity
  8
IMAGE
100
AcDbLine
 10
3.736326477347375
 20
5.296084497199181
 30
0.0
 11
3.656870997574425
 21
4.966331036174679
 31
0.0
  0
LINE
  5
14D
330
A58
100
AcDbEntity
  8
IMAGE
100
AcDbLine
 10
3.263260774699154
 20
5.208150240925979
 30
0.0
 11
3.458749463986705
 21
4.966331036174679
 31
0.0
  0
LINE
  5
14E
330
A58
100
AcDbEntity
  8
IMAGE
100
AcDbLine
 10
3.406280638290477
 20
5.307076279233324
 30
0.0
 11
3.406280638290477
 21
4.966331036174679
 31
0.0
  0
LINE
  5
14F
330
A58
100
AcDbEntity
  8
IMAGE
100
AcDbLine
 10
3.57130355781893
 20
5.252117369062577
 30
0.0
 11
3.639704362145214
 21
4.96633103617469
 31
0.0
  0
LINE
  5
150
330
A58
100
AcDbEntity
  8
IMAGE
100
AcDbLine
 10
3.688234083656221
 20
5.249738487609297
 30
0.0
 11
3.714803532228216
 21
4.966331036174679
 31
0.0
  0
LINE
  5
151
330
A58
100
AcDbEntity
  8
IMAGE
100
AcDbLine
 10
3.111969857604601
 20
5.254352842768671
 30
0.0
 11
3.185799540154785
 21
4.972877178046136
 31
0.0
  0
LINE
  5
152
330
A58
100
AcDbEntity
  8
IMAGE
100
AcDbLine
 10
3.264243577864339
 20
5.249738487609297
 30
0.0
 11
3.290813026436333
 21
4.966331036174679
 31
0.0
  0
LINE
  5
153
330
A58
100
AcDbEntity
  8
IMAGE
100
AcDbLine
 10
3.142824428615865
 20
5.274100933130874
 30
0.0
 11
3.11715419668922
 21
4.96633103617469
 31
0.0
  0
LINE
  5
154
330
A58
100
AcDbEntity
  8
IMAGE
100
AcDbLine
 10
3.032809148930237
 20
5.307076279233324
 30
0.0
 11
3.032809148930237
 21
4.966331036174679
 31
0.0
  0
LINE
  5
155
330
A58
100
AcDbEntity
  8
IMAGE
100
AcDbLine
 10
3.19783206845869
 20
5.252117369062577
 30
0.0
 11
3.266232872784974
 21
4.96633103617469
 31
0.0
  0
LINE
  5
156
330
A58
100
AcDbEntity
  8
IMAGE
100
AcDbLine
 10
3.494873323609901
 20
5.285092715165033
 30
0.0
 11
3.342947461186875
 21
4.966331036174679
 31
0.0
  0
LINE
  5
157
330
A58
100
AcDbEntity
  8
IMAGE
100
AcDbLine
 10
3.19808877077795
 20
5.245124132449907
 30
0.0
 11
3.171716450860027
 21
4.966331036174679
 31
0.0
  0
LINE
  5
158
330
A58
100
AcDbEntity
  8
IMAGE
100
AcDbLine
 10
2.911998750896015
 20
5.254352842768671
 30
0.0
 11
2.985828433446198
 21
4.972877178046136
 31
0.0
  0
LINE
  5
159
330
A58
100
AcDbEntity
  8
IMAGE
100
AcDbLine
 10
2.83283804222165
 20
5.307076279233324
 30
0.0
 11
2.83283804222165
 21
4.966331036174679
 31
0.0
  0
LINE
  5
15A
330
A58
100
AcDbEntity
  8
IMAGE
100
AcDbLine
 10
2.997860961750103
 20
5.252117369062577
 30
0.0
 11
3.066261766076388
 21
4.96633103617469
 31
0.0
  0
LINE
  5
15B
330
A58
100
AcDbEntity
  8
IMAGE
100
AcDbLine
 10
3.294902216901316
 20
5.285092715165033
 30
0.0
 11
3.142976354478288
 21
4.966331036174679
 31
0.0
  0
LINE
  5
15C
330
A58
100
AcDbEntity
  8
IMAGE
100
AcDbLine
 10
2.580077413261616
 20
5.268195908246836
 30
0.0
 11
2.61689020253871
 21
4.966331036174679
 31
0.0
  0
LINE
  5
15D
330
A58
100
AcDbEntity
  8
IMAGE
100
AcDbLine
 10
2.764651619637056
 20
5.254352842768671
 30
0.0
 11
2.838481302187239
 21
4.972877178046136
 31
0.0
  0
LINE
  5
15E
330
A58
100
AcDbEntity
  8
IMAGE
100
AcDbLine
 10
3.015536750019588
 20
5.296084497199181
 30
0.0
 11
2.936081270246637
 21
4.966331036174679
 31
0.0
  0
LINE
  5
15F
330
A58
100
AcDbEntity
  8
IMAGE
100
AcDbLine
 10
2.79550619064832
 20
5.274100933130874
 30
0.0
 11
2.769835958721675
 21
4.96633103617469
 31
0.0
  0
LINE
  5
160
330
A58
100
AcDbEntity
  8
IMAGE
100
AcDbLine
 10
2.542471047371368
 20
5.208150240925979
 30
0.0
 11
2.737959736658918
 21
4.966331036174679
 31
0.0
  0
LINE
  5
161
330
A58
100
AcDbEntity
  8
IMAGE
100
AcDbLine
 10
2.685490910962691
 20
5.307076279233324
 30
0.0
 11
2.685490910962691
 21
4.966331036174679
 31
0.0
  0
LINE
  5
162
330
A58
100
AcDbEntity
  8
IMAGE
100
AcDbLine
 10
2.850513830491144
 20
5.252117369062577
 30
0.0
 11
2.918914634817429
 21
4.96633103617469
 31
0.0
  0
LINE
  5
163
330
A58
100
AcDbEntity
  8
IMAGE
100
AcDbLine
 10
3.147555085642356
 20
5.285092715165033
 30
0.0
 11
2.995629223219329
 21
4.966331036174679
 31
0.0
  0
LINE
  5
164
330
A58
100
AcDbEntity
  8
IMAGE
100
AcDbLine
 10
2.65495486038023
 20
5.226666711812363
 30
0.0
 11
2.726337223055079
 21
4.966331036174679
 31
0.0
  0
LINE
  5
165
330
A58
100
AcDbEntity
  8
IMAGE
100
AcDbLine
 10
2.521138560758034
 20
5.268195908246836
 30
0.0
 11
2.557951350035127
 21
4.966331036174679
 31
0.0
  0
LINE
  5
166
330
A58
100
AcDbEntity
  8
IMAGE
100
AcDbLine
 10
2.85798648739321
 20
5.249738487609297
 30
0.0
 11
2.884555935965204
 21
4.966331036174679
 31
0.0
  0
LINE
  5
167
330
A58
100
AcDbEntity
  8
IMAGE
100
AcDbLine
 10
2.956597897516006
 20
5.296084497199181
 30
0.0
 11
2.877142417743054
 21
4.966331036174679
 31
0.0
  0
LINE
  5
168
330
A58
100
AcDbEntity
  8
IMAGE
100
AcDbLine
 10
2.736567338144737
 20
5.274100933130874
 30
0.0
 11
2.710897106218092
 21
4.96633103617469
 31
0.0
  0
LINE
  5
169
330
A58
100
AcDbEntity
  8
IMAGE
100
AcDbLine
 10
2.626552058459107
 20
5.307076279233324
 30
0.0
 11
2.626552058459107
 21
4.966331036174679
 31
0.0
  0
LINE
  5
16A
330
A58
100
AcDbEntity
  8
IMAGE
100
AcDbLine
 10
3.088616233138773
 20
5.285092715165033
 30
0.0
 11
2.936690370715744
 21
4.966331036174679
 31
0.0
  0
LINE
  5
16B
330
A58
100
AcDbEntity
  8
IMAGE
100
AcDbLine
 10
3.623290492410945
 20
5.245124132449907
 30
0.0
 11
3.596918172493023
 21
4.966331036174679
 31
0.0
  0
LINE
  5
16C
330
A58
100
AcDbEntity
  8
IMAGE
100
AcDbLine
 10
3.337200472529009
 20
5.254352842768671
 30
0.0
 11
3.411030155079193
 21
4.972877178046136
 31
0.0
  0
LINE
  5
16D
330
A58
100
AcDbEntity
  8
IMAGE
100
AcDbLine
 10
3.588085602911543
 20
5.296084497199181
 30
0.0
 11
3.508630123138591
 21
4.966331036174679
 31
0.0
  0
LINE
  5
16E
330
A58
100
AcDbEntity
  8
IMAGE
100
AcDbLine
 10
3.258039763854645
 20
5.307076279233324
 30
0.0
 11
3.258039763854645
 21
4.966331036174679
 31
0.0
  0
LINE
  5
16F
330
A58
100
AcDbEntity
  8
IMAGE
100
AcDbLine
 10
3.423062683383099
 20
5.252117369062577
 30
0.0
 11
3.491463487709382
 21
4.96633103617469
 31
0.0
  0
LINE
  5
170
330
A58
100
AcDbEntity
  8
IMAGE
100
AcDbLine
 10
3.720103938534311
 20
5.285092715165033
 30
0.0
 11
3.568178076111283
 21
4.966331036174679
 31
0.0
  0
TEXT
  5
178
330
A58
100
AcDbEntity
  8
TEXT-SA-BUBBLES
100
AcDbText
 10
5.12798828
 20
3.27373335
 30
0.0
 40
0.125
  1
1/2-INCH MALE NPT x .490 INCH
  7
SIMPLEX
100
AcDbText
  0
TEXT
  5
179
330
A58
100
AcDbEntity
  8
TEXT-SA-BUBBLES
100
AcDbText
 10
5.12798828
 20
2.92928061
 30
0.0
 40
0.125
  1
  MODEL SBE-050
  7
SIMPLEX
100
AcDbText
  0
TEXT
  5
17C
330
A58
100
AcDbEntity
  8
TEXT-SA-LEADERS
100
AcDbText
 10
5.131471270243508
 20
2.282097869999999
 30
0.0
 40
0.125
  1
  BARB ELBOW:  RAIN BIRD
  7
SIMPLEX
100
AcDbText
  0
TEXT
  5
17D
330
A58
100
AcDbEntity
  8
TEXT-SA-LEADERS
100
AcDbText
 10
5.131471270243508
 20
2.45709787
 30
0.0
 40
0.125
  1
1/2-INCH MALE NPT x .490 INCH
  7
SIMPLEX
100
AcDbText
  0
TEXT
  5
17E
330
A58
100
AcDbEntity
  8
TEXT-SA-LEADERS
100
AcDbText
 10
5.127988280243508
 20
4.56256032
 30
0.0
 40
0.125
  1
1/2-INCH MALE NPT x .490 INCH
  7
SIMPLEX
100
AcDbText
  0
TEXT
  5
17F
330
A58
100
AcDbEntity
  8
TEXT-SA-LEADERS
100
AcDbText
 10
5.127988280243508
 20
4.38756032
 30
0.0
 40
0.125
  1
  BARB ELBOW:  RAIN BIRD
  7
SIMPLEX
100
AcDbText
  0
TEXT
  5
180
330
A58
100
AcDbEntity
  8
TEXT-SA-LEADERS
100
AcDbText
 10
5.127988280243508
 20
3.583593721236955
 30
0.0
 40
0.125
  1
  RAIN BIRD MODEL SP-100
  7
ROMANS
100
AcDbText
  0
TEXT
  5
181
330
A58
100
AcDbEntity
  8
TEXT-SA-LEADERS
100
AcDbText
 10
5.127988280243508
 20
3.758593721236954
 30
0.0
 40
0.125
  1
SWING PIPE, 12-INCH LENGTH:
  7
ROMANS
100
AcDbText
  0
TEXT
  5
185
330
A58
100
AcDbEntity
  8
TEXT_LEADERS
100
AcDbText
 10
5.131471270243508
 20
1.582097869999999
 30
0.0
 40
0.125
  1
PVC LATERAL PIPE
  7
ROMANS
100
AcDbText
  0
ARC
  5
187
330
A58
100
AcDbEntity
  8
OPTION-SA
100
AcDbCircle
 10
4.041351172125823
 20
3.010346197633574
 30
0.0
 40
0.0842950537430408
100
AcDbArc
 50
234.4756814862676
 51
62.64469113840124
  0
LINE
  5
188
330
A58
100
AcDbEntity
  8
OPTION-SA
100
AcDbLine
 10
4.342280652607428
 20
3.154739269408481
 30
0.0
 11
3.973248646924517
 21
3.154739269408476
 31
0.0
  0
CIRCLE
  5
189
330
A58
100
AcDbEntity
  8
TEXT-SA-BUBBLES
100
AcDbCircle
 10
3.732887117725833
 20
2.351450959892848
 30
0.0
 40
0.15625
  0
TEXT
  5
18A
330
A58
100
AcDbEntity
  8
TEXT-SA-BUBBLES
100
AcDbText
 10
3.670387117725833
 20
2.288950959892848
 30
0.0
 40
0.125
  1
6
  7
ROMANS
 72
     4
 11
3.732887117725833
 21
2.351450959892848
 31
0.0
100
AcDbText
  0
CIRCLE
  5
18B
330
A58
100
AcDbEntity
  8
TEXT-SA-BUBBLES
100
AcDbCircle
 10
4.920178211733269
 20
3.355583133350389
 30
0.0
 40
0.15625
  0
CIRCLE
  5
18C
330
A58
100
AcDbEntity
  8
TEXT-SA-BUBBLES
100
AcDbCircle
 10
4.920178211733269
 20
3.802863076999271
 30
0.0
 40
0.15625
  0
LINE
  5
190
330
A58
100
AcDbEntity
  8
OPTION-SA
100
AcDbLine
 10
4.085051192351178
 20
3.08273015876107
 30
0.0
 11
3.968545328183964
 21
3.146315003058756
 31
0.0
  0
LINE
  5
191
330
A58
100
AcDbEntity
  8
OPTION-SA
100
AcDbLine
 10
4.041351172125823
 20
3.010346197633574
 30
0.0
 11
3.984010734387737
 21
2.984346121448916
 31
0.0
  0
LINE
  5
192
330
A58
100
AcDbEntity
  8
OPTION-SA
100
AcDbLine
 10
4.03165844325837
 20
3.075653313893016
 30
0.0
 11
4.041351172125823
 21
3.010346197633574
 31
0.0
  0
TEXT
  5
193
330
A58
100
AcDbEntity
  8
TEXT-SA-LEADERS
100
AcDbText
 10
5.131471270243508
 20
2.10709787
 30
0.0
 40
0.125
  1
  MODEL SBE-050
  7
SIMPLEX
100
AcDbText
  0
LINE
  5
197
330
A58
100
AcDbEntity
  8
OPTION-SA
100
AcDbLine
 10
4.342280652607428
 20
2.906645090219917
 30
0.0
 11
4.679377172141302
 21
2.906645090219917
 31
0.0
  0
LINE
  5
198
330
A58
100
AcDbEntity
  8
OPTION-SA
100
AcDbLine
 10
4.342280652607428
 20
3.110265172353908
 30
0.0
 11
4.679377172141302
 21
3.110265172353908
 31
0.0
  0
LINE
  5
199
330
A58
100
AcDbEntity
  8
OPTION-SA
100
AcDbLine
 10
4.342280652607428
 20
2.865573229526271
 30
0.0
 11
4.342280652607428
 21
3.154739269408481
 31
0.0
  0
LWPOLYLINE
  5
19B
330
A58
100
AcDbEntity
  8
OPTION-SA
100
AcDbPolyline
 90
        4
 70
     0
 43
0.0
 10
4.679377172141302
 20
3.110265172353908
 42
-0.5107053858875276
 10
4.679377172141313
 20
3.007004892892846
 42
0.5107053858875159
 10
4.679377172141302
 20
2.906645090219917
 42
0.5397302473450178
 10
4.681303341656118
 20
3.00845513128691
 42
0.5397302473450178
  0
TEXT
  5
1A2
330
A58
100
AcDbEntity
  8
TEXT-SA-LEADERS
100
AcDbText
 10
5.132777390243508
 20
4.212560319999999
 30
0.0
 40
0.125
  1
  MODEL SBE-050
  7
SIMPLEX
100
AcDbText
  0
TEXT
  5
1A4
330
A58
100
AcDbEntity
  8
TEXT-SA-BUBBLES
100
AcDbText
 10
4.857678211733269
 20
3.293083133350389
 30
0.0
 40
0.125
  1
6
  7
ROMANS
 72
     4
 11
4.920178211733269
 21
3.355583133350389
 31
0.0
100
AcDbText
  0
TEXT
  5
1A6
330
A58
100
AcDbEntity
  8
TEXT-SA-BUBBLES
100
AcDbText
 10
4.860654402209459
 20
3.740363076999271
 30
0.0
 40
0.125
  1
5
  7
ROMANS
 72
     4
 11
4.920178211733269
 21
3.802863076999271
 31
0.0
100
AcDbText
  0
LWPOLYLINE
  5
1A9
330
A58
100
AcDbEntity
  8
OPTION-SA
100
AcDbPolyline
 90
        4
 70
     0
 43
0.0
 10
1.520097850765711
 20
3.110265172353908
 42
0.5107053858875276
 10
1.520097850765703
 20
3.007004892892846
 42
-0.5107053858875159
 10
1.520097850765711
 20
2.906645090219917
 42
-0.5397302473450178
 10
1.518171681250896
 20
3.00845513128691
 42
-0.5397302473450178
  0
CIRCLE
  5
1AF
330
A58
100
AcDbEntity
  8
TEXT-SA-BUBBLES
100
AcDbCircle
 10
0.4667504639112365
 20
3.900439745067329
 30
0.0
 40
0.15625
  0
TEXT
  5
1B0
330
A58
100
AcDbEntity
  8
TEXT-SA-BUBBLES
100
AcDbText
 10
0.4042504639112366
 20
3.837939745067329
 30
0.0
 40
0.125
  1
6
  7
ROMANS
 72
     4
 11
0.4667504639112365
 21
3.900439745067329
 31
0.0
100
AcDbText
  0
LINE
  5
1B1
330
A58
100
AcDbEntity
  8
OPTION-SA
100
AcDbLine
 10
2.377796673322357
 20
3.364863787265054
 30
0.0
 11
2.136161182250265
 21
3.364863787265054
 31
0.0
  0
ARC
  5
1B3
330
A58
100
AcDbEntity
  8
OPTION-SA
100
AcDbCircle
 10
2.4616135608934
 20
0.3764301632604852
 30
0.0
 40
2.969722185911746
100
AcDbArc
 50
61.49072909609822
 51
91.61727251044187
  0
ARC
  5
1B4
330
A58
100
AcDbEntity
  8
OPTION-SA
100
AcDbCircle
 10
2.465008718102016
 20
0.3989311392396511
 30
0.0
 40
3.150132956469122
100
AcDbArc
 50
61.30701558492705
 51
91.57178904497754
  0
LINE
  5
1B6
330
A58
100
AcDbEntity
  8
OPTION-SA
100
AcDbLine
 10
2.377799144822258
 20
3.34496936717124
 30
0.0
 11
2.37860229335348
 21
3.547878832230924
 31
0.0
  0
LINE
  5
1B7
330
A58
100
AcDbEntity
  8
OPTION-SA
100
AcDbLine
 10
2.378532538769825
 20
3.530255858764763
 30
0.0
 11
2.302994332498203
 21
3.530255858764759
 31
0.0
  0
LINE
  5
1B8
330
A58
100
AcDbEntity
  8
OPTION-SA
100
AcDbLine
 10
3.73746193787781
 20
2.906645090219917
 30
0.0
 11
1.520097850765711
 21
2.906645090219917
 31
0.0
  0
LINE
  5
1B9
330
A58
100
AcDbEntity
  8
OPTION-SA
100
AcDbLine
 10
3.621525628488011
 20
3.110265172353908
 30
0.0
 11
1.520097850765711
 21
3.110265172353908
 31
0.0
  0
ARC
  5
1BA
330
A58
100
AcDbEntity
  8
OPTION-SA
100
AcDbCircle
 10
4.041351172125823
 20
3.010346197633574
 30
0.0
 40
0.1089292628087137
100
AcDbArc
 50
202.3302578892511
 51
100.5273986155575
  0
LINE
  5
1BB
330
A58
100
AcDbEntity
  8
OPTION-SA
100
AcDbLine
 10
3.73746193787781
 20
2.865573229526271
 30
0.0
 11
4.342280652607428
 21
2.865573229526271
 31
0.0
  0
LINE
  5
1BF
330
A58
100
AcDbEntity
  8
OPTION-SA
100
AcDbLine
 10
4.000377393684681
 20
2.936792681167699
 30
0.0
 11
3.886507999835234
 21
2.998056558527633
 31
0.0
  0
LINE
  5
1C0
330
A58
100
AcDbEntity
  8
OPTION-SA
100
AcDbLine
 10
3.73746193787781
 20
3.058120074574373
 30
0.0
 11
3.73746193787781
 21
2.865573229526271
 31
0.0
  0
LINE
  5
1C1
330
A58
100
AcDbEntity
  8
OPTION-SA
100
AcDbLine
 10
3.879064791782441
 20
2.986043519592719
 30
0.0
 11
3.977438241284509
 21
3.162243387401062
 31
0.0
  0
TEXT
  5
1C5
330
A58
100
AcDbEntity
  8
TEXT-SA-BUBBLES
100
AcDbText
 10
3.234867394146451
 20
2.288950959892848
 30
0.0
 40
0.125
  1
5
  7
ROMANS
 72
     4
 11
3.294391203670261
 21
2.351450959892848
 31
0.0
100
AcDbText
  0
CIRCLE
  5
1C6
330
A58
100
AcDbEntity
  8
TEXT-SA-BUBBLES
100
AcDbCircle
 10
3.294391203670261
 20
2.351450959892848
 30
0.0
 40
0.15625
  0
LINE
  5
1C9
330
A58
100
AcDbEntity
  8
OPTION-SA
100
AcDbLine
 10
2.089239358743032
 20
3.630162360176801
 30
0.0
 11
2.256072508990968
 21
3.630162360176801
 31
0.0
  0
LWPOLYLINE
  5
1CA
330
A58
100
AcDbEntity
  8
OPTION-SA
100
AcDbPolyline
 90
        3
 70
     0
 43
0.0
 10
2.138301748309393
 20
3.368862722740554
 42
0.3551655385017884
 10
2.230088662465474
 20
3.448369219057665
 42
-0.3351985284943452
 10
2.296614599312039
 20
3.527325769254009
 42
-0.5949761929811071
  0
ARC
  5
1CF
330
A58
100
AcDbEntity
  8
OPTION-SA
100
AcDbCircle
 10
2.136161182250265
 20
3.411785610772284
 30
0.0
 40
0.0469218235072326
100
AcDbArc
 50
180.0
 51
270.0
  0
ARC
  5
1D0
330
A58
100
AcDbEntity
  8
OPTION-SA
100
AcDbCircle
 10
2.302994332498203
 20
3.57717768227199
 30
0.0
 40
0.0469218235072326
100
AcDbArc
 50
180.0
 51
270.0
  0
LINE
  5
1D1
330
A58
100
AcDbEntity
  8
OPTION-SA
100
AcDbLine
 10
2.089239358743032
 20
3.676092023570584
 30
0.0
 11
2.089239358743032
 21
3.411785610772284
 31
0.0
  0
LINE
  5
1D2
330
A58
100
AcDbEntity
  8
OPTION-SA
100
AcDbLine
 10
2.256072508990968
 20
3.676092023570584
 30
0.0
 11
2.256072508990968
 21
3.57717768227199
 31
0.0
  0
LINE
  5
1D3
330
A58
100
AcDbEntity
  8
OPTION-SA
100
AcDbLine
 10
2.10532822187007
 20
3.655221563714385
 30
0.0
 11
2.240342993724878
 21
3.655221563714385
 31
0.0
  0
TEXT
  5
1DE
330
A58
100
AcDbEntity
  8
TEXT_LEADERS
100
AcDbText
 10
5.127988280243508
 20
3.237346634675779
 30
0.0
 40
0.125
  1
PVC SCH 40 TEE OR ELL
  7
ROMANS
100
AcDbText
  0
TEXT
  5
1E0
330
A58
100
AcDbEntity
  8
OPTION-NOZ-U-SERIES
100
AcDbText
 10
5.12798828
 20
4.823770679999999
 30
0.0
 40
0.125
  1
  WITH U-SERIES NOZZLE
  7
ROMANS
100
AcDbText
  0
INSERT
  5
1E9
330
A58
100
AcDbEntity
  8
IMAGE
  6
Continuous
100
AcDbBlockReference
  2
*X0
 10
0.0
 20
0.0
 30
0.0
1001
ACAD
1000
HATCH
1002
{
1070
    19
1000
EARTH
1040
0.65
1040
0.7853981633974483
1000
R14_HATCH_DATA
1000
1E9
1011
1.0
1021
0.0
1031
0.0
1011
0.0
1021
1.0
1031
0.0
1011
0.0
1021
0.0
1031
1.0
1040
0.0
1010
0.0
1020
0.0
1030
1.0
1000
EARTH
1070
     0
1070
     0
1071
        2
1071
        7
1070
     0
1070
     1
1071
       14
1040
1.816213992843662
1040
4.92010290187925
1040
1.816213992843665
1040
4.966606576296677
1040
1.128271169392896
1040
4.966606576296679
1040
1.161042507191931
1040
4.881735316950991
1040
1.209559436254469
1040
4.757753213913311
1040
1.257856695080471
1040
4.636344845254429
1040
1.323368250925744
1040
4.588719316109851
1040
1.512661363967474
1040
4.38203263168712
1040
1.54311623358686
1040
4.355918958811576
1040
1.725825886558569
1040
4.312354441803599
1040
1.871549316075127
1040
4.288372243835381
1040
1.963652002148847
1040
4.281092804822479
1040
1.963652002148847
1040
4.784157305632566
1040
1.890576014262706
1040
4.784157305632567
1071
        0
1071
        7
1070
     0
1070
     1
1071
       15
1040
3.061376926397291
1040
4.756386528961495
1040
3.114736933592916
1040
4.810535442526031
1040
3.156778172408619
1040
4.905093972751331
1040
3.176181816645152
1040
4.966606576296677
1040
2.523067796512973
1040
4.966606576296678
1040
2.523067796512973
1040
4.92010290187925
1040
2.448705775093927
1040
4.784157305632565
1040
2.375629787207782
1040
4.784157305632567
1040
2.375629787207786
1040
4.283335832513724
1040
2.612667646200115
1040
4.51231237418044
1040
2.670070091324046
1040
4.556762969298513
1040
2.720196177086681
1040
4.564844888899273
1040
2.792959857428513
1040
4.582625126946507
1040
2.877850793735916
1040
4.607679103828588
1040
3.020952662752908
1040
4.686881975618271
1071
        0
1070
     0
1070
     1
1040
0.7853981633974483
1040
0.65
1070
     0
1070
     6
1040
0.7853981633974483
1040
0.2263763208933804
1040
-1.159343338158749
1040
0.0
1040
0.2298097038856279
1070
     2
1040
0.1625
1040
-0.1625
1040
0.7853981633974483
1040
0.1832870014148252
1040
-1.116254018680194
1040
0.0
1040
0.2298097038856279
1070
     2
1040
0.1625
1040
-0.1625
1040
0.7853981633974483
1040
0.14019768193627
1040
-1.073164699201639
1040
0.0
1040
0.2298097038856279
1070
     2
1040
0.1625
1040
-0.1625
1040
2.356194490192344
1040
0.14019768193627
1040
-1.044438486215935
1040
-0.2298097038856279
1040
0.0
1070
     2
1040
0.1625
1040
-0.1625
1040
2.356194490192344
1040
0.1832870014148252
1040
-1.00134916673738
1040
-0.2298097038856279
1040
0.0
1070
     2
1040
0.1625
1040
-0.1625
1040
2.356194490192344
1040
0.2263763208933805
1040
-0.9582598472588252
1040
-0.2298097038856279
1040
0.0
1070
     2
1040
0.1625
1040
-0.1625
1040
0.0017236619931563
1071
        2
1040
1.632666239030794
1040
4.786579519085438
1040
0.0
1040
2.718966417917742
1040
4.738316977946513
1040
0.0
1002
}
  0
CIRCLE
  5
266
330
A58
100
AcDbEntity
  8
OPTION-VPC
100
AcDbCircle
 10
2.17155894466423
 20
4.851494968088781
 30
0.0
 40
0.0139560404963533
  0
TEXT
  5
267
330
A58
100
AcDbEntity
  8
OPTION-NP
100
AcDbText
 10
5.12798827566424
 20
4.98767616
 30
0.0
 40
0.125
  1
                WITH 1800 NP COVER
  7
ROMANS
100
AcDbText
  0
TEXT
  5
268
330
A58
100
AcDbEntity
  8
OPTION-VPC
100
AcDbText
 10
6.84440581486277
 20
4.98767616
 30
0.0
 40
0.125
  1
  WITH 1800 VPC
  7
ROMANS
100
AcDbText
  0
ARC
  5
2C6
330
A58
100
AcDbEntity
  8
OPTION-RB-SA
100
AcDbCircle
 10
2.168917867306618
 20
3.450150205070783
 30
0.0
 40
0.0932784099256874
100
AcDbArc
 50
200.8304993914681
 51
339.6213013705943
  0
LINE
  5
2C7
330
A58
100
AcDbEntity
  8
OPTION-RB-SA
100
AcDbLine
 10
2.081736459304002
 20
3.620140089703756
 30
0.0
 11
2.256358123011658
 21
3.620140089703756
 31
0.0
  0
ARC
  5
2C8
330
A58
100
AcDbEntity
  8
OPTION-RB-SA
100
AcDbCircle
 10
2.16904729115783
 20
3.438622306491782
 30
0.0
 40
0.1448741092016656
100
AcDbArc
 50
127.0611407962445
 51
52.93885920375984
  0
LINE
  5
2C9
330
A58
100
AcDbEntity
  8
OPTION-RB-SA
100
AcDbLine
 10
3.651945656386204
 20
2.907445737643693
 30
0.0
 11
1.517490593982778
 21
2.907445737643693
 31
0.0
  0
LINE
  5
2CA
330
A58
100
AcDbEntity
  8
OPTION-RB-SA
100
AcDbLine
 10
3.051318299033658
 20
3.111065819777685
 30
0.0
 11
1.517490593982778
 21
3.111065819777685
 31
0.0
  0
LWPOLYLINE
  5
2CB
330
A58
100
AcDbEntity
  8
OPTION-RB-SA
100
AcDbPolyline
 90
        4
 70
     0
 43
0.0
 10
1.517490593982778
 20
3.111065819777685
 42
0.5107053858875276
 10
1.517490593982769
 20
3.007805540316622
 42
-0.5107053858875159
 10
1.517490593982778
 20
2.907445737643693
 42
-0.5397302473450178
 10
1.515564424467962
 20
3.009255778710687
 42
-0.5397302473450178
  0
LINE
  5
2CC
330
A58
100
AcDbEntity
  8
OPTION-RB-SA
100
AcDbLine
 10
2.081736459304002
 20
3.416979979612612
 30
0.0
 11
2.081736459304002
 21
3.676092023570584
 31
0.0
  0
LINE
  5
2CF
330
A58
100
AcDbEntity
  8
OPTION-RB-SA
100
AcDbLine
 10
3.651945656386204
 20
2.866373876950047
 30
0.0
 11
4.256764371115821
 21
2.866373876950047
 31
0.0
  0
LINE
  5
2D0
330
A58
100
AcDbEntity
  8
OPTION-RB-SA
100
AcDbLine
 10
4.256764371115821
 20
3.155539916832257
 30
0.0
 11
3.846123219270807
 21
3.155539916832252
 31
0.0
  0
LINE
  5
2D2
330
A58
100
AcDbEntity
  8
OPTION-RB-SA
100
AcDbLine
 10
2.286890087733947
 20
3.269900806949517
 30
0.0
 11
3.821278675929235
 21
2.951081344088208
 31
0.0
  0
LINE
  5
2D3
330
A58
100
AcDbEntity
  8
OPTION-RB-SA
100
AcDbLine
 10
3.879615849569603
 20
3.145423897200106
 30
0.0
 11
2.346046815548858
 21
3.4639970882284
 31
0.0
  0
ARC
  5
2DD
330
A58
100
AcDbEntity
  8
OPTION-RB-SA
100
AcDbCircle
 10
3.955834890634217
 20
3.011146845057349
 30
0.0
 40
0.0967755580523473
100
AcDbArc
 50
222.910381779526
 51
103.8358420178157
  0
LINE
  5
2DE
330
A58
100
AcDbEntity
  8
OPTION-RB-SA
100
AcDbLine
 10
3.932691895150039
 20
3.105114447965812
 30
0.0
 11
3.872877633011891
 21
3.122976422844909
 31
0.0
  0
ARC
  5
2DF
330
A58
100
AcDbEntity
  8
OPTION-RB-SA
100
AcDbCircle
 10
3.955834890634217
 20
3.011146845057349
 30
0.0
 40
0.1267079420559205
100
AcDbArc
 50
204.54630708977
 51
122.199916707569
  0
LINE
  5
2E0
330
A58
100
AcDbEntity
  8
OPTION-RB-SA
100
AcDbLine
 10
3.879615849569603
 20
3.145423897200106
 30
0.0
 11
3.821278675929235
 21
2.951081344088208
 31
0.0
  0
LINE
  5
2E1
330
A58
100
AcDbEntity
  8
OPTION-RB-SA
100
AcDbLine
 10
3.651945656386203
 20
2.986265822616487
 30
0.0
 11
3.651945656386204
 21
2.866373876950047
 31
0.0
  0
LINE
  5
2E2
330
A58
100
AcDbEntity
  8
OPTION-RB-SA
100
AcDbLine
 10
3.884954580660583
 20
2.94525685875909
 30
0.0
 11
3.824912477663376
 21
2.963186872389406
 31
0.0
  0
LINE
  5
2E4
330
A58
100
AcDbEntity
  8
OPTION-RB-SA
100
AcDbLine
 10
2.286890079683398
 20
3.269900780535249
 30
0.0
 11
2.346046815548858
 21
3.463997088228401
 31
0.0
  0
LINE
  5
2E5
330
A58
100
AcDbEntity
  8
OPTION-RB-SA
100
AcDbLine
 10
2.292630536788029
 20
3.28873551697192
 30
0.0
 11
2.232549379361397
 21
3.308407129531635
 31
0.0
  0
LINE
  5
2E6
330
A58
100
AcDbEntity
  8
OPTION-RB-SA
100
AcDbLine
 10
2.256358123011658
 20
3.676092023570584
 30
0.0
 11
2.256358123011658
 21
3.417668464961886
 31
0.0
  0
LINE
  5
2E7
330
A58
100
AcDbEntity
  8
OPTION-RB-SA
100
AcDbLine
 10
2.341267105185239
 20
3.44831461150198
 30
0.0
 11
2.312686511007614
 21
3.457497741266152
 31
0.0
  0
LWPOLYLINE
  5
2ED
330
A58
100
AcDbEntity
  8
OPTION-RB-SA
100
AcDbPolyline
 90
        4
 70
     0
 43
0.0
 10
4.593860890649695
 20
3.111065819777685
 42
-0.5107053858875276
 10
4.593860890649706
 20
3.007805540316622
 42
0.5107053858875159
 10
4.593860890649695
 20
2.907445737643693
 42
0.5397302473450178
 10
4.595787060164511
 20
3.009255778710687
 42
0.5397302473450178
  0
LINE
  5
2EF
330
A58
100
AcDbEntity
  8
OPTION-RB-SA
100
AcDbLine
 10
4.256764371115821
 20
2.907445737643693
 30
0.0
 11
4.593860890649695
 21
2.907445737643693
 31
0.0
  0
LINE
  5
2F0
330
A58
100
AcDbEntity
  8
OPTION-RB-SA
100
AcDbLine
 10
4.256764371115821
 20
3.111065819777685
 30
0.0
 11
4.593860890649695
 21
3.111065819777685
 31
0.0
  0
LINE
  5
2F1
330
A58
100
AcDbEntity
  8
OPTION-RB-SA
100
AcDbLine
 10
4.256764371115821
 20
2.866373876950047
 30
0.0
 11
4.256764371115821
 21
3.155539916832257
 31
0.0
  0
CIRCLE
  5
2F9
330
A58
100
AcDbEntity
  8
TEXT-RB-SA-BUBBLES
100
AcDbCircle
 10
4.920178211733269
 20
3.824143010087593
 30
0.0
 40
0.15625
  0
TEXT
  5
2FA
330
A58
100
AcDbEntity
  8
TEXT-RB-SA-BUBBLES
100
AcDbText
 10
4.860654402209459
 20
3.761643010087593
 30
0.0
 40
0.125
  1
5
  7
ROMANS
 72
     4
 11
4.920178211733269
 21
3.824143010087593
 31
0.0
100
AcDbText
  0
LINE
  5
2FF
330
A58
100
AcDbEntity
  8
OPTION-RB-SA
100
AcDbLine
 10
2.102133508750913
 20
3.645199293241339
 30
0.0
 11
2.23714828060572
 21
3.645199293241339
 31
0.0
  0
CIRCLE
  5
354
330
A58
100
AcDbEntity
  8
TEXT-RB-SA-BUBBLES
100
AcDbCircle
 10
3.37613604524579
 20
3.90790812559442
 30
0.0
 40
0.15625
  0
TEXT
  5
355
330
A58
100
AcDbEntity
  8
TEXT-RB-SA-BUBBLES
100
AcDbText
 10
3.316612235721981
 20
3.84540812559442
 30
0.0
 40
0.125
  1
5
  7
ROMANS
 72
     4
 11
3.37613604524579
 21
3.90790812559442
 31
0.0
100
AcDbText
  0
INSERT
  5
A9B
330
A58
100
AcDbEntity
  8
TITLE
100
AcDbBlockReference
 66
     1
  2
titleblock
 10
0.0
 20
0.0
 30
0.0
  0
ATTRIB
  5
A9D
330
A9B
100
AcDbEntity
  8
TITLE
100
AcDbText
 10
0.5055556038023421
 20
0.7842270964783673
 30
0.0
 40
0.2
  1
D
  7
L200
 72
     4
 11
0.6064423705144839
 21
0.8842270964783672
 31
0.0
100
AcDbAttribute
  2
D
 70
     0
  0
ATTRIB
  5
A9E
330
A9B
100
AcDbEntity
  8
TITLE
100
AcDbText
 10
1.231442370514484
 20
1.34371230274675
 30
0.0
 40
0.2
  1

  7
L200
100
AcDbAttribute
  2
TITLE1
 70
     0
  0
ATTRIB
  5
A9F
330
A9B
100
AcDbEntity
  8
TITLE
100
AcDbText
 10
1.231442370514484
 20
0.9842270964783674
 30
0.0
 40
0.2
  1
POP-UP SPRAY SPRINKLER
  7
L200
100
AcDbAttribute
  2
TITLE2
 70
     0
  0
ATTRIB
  5
AA0
330
A9B
100
AcDbEntity
  8
TITLE
100
AcDbText
 10
2.713645751168312
 20
0.5927927664583189
 30
0.0
 40
0.2
  1
1802 WITH SWING PIPE
  7
L200
100
AcDbAttribute
  2
TITLE3
 70
     0
  0
ATTRIB
  5
AA1
330
A9B
100
AcDbEntity
  8
TITLE
100
AcDbText
 10
2.713645751168312
 20
0.2692560808167741
 30
0.0
 40
0.2
  1

  7
L200
100
AcDbAttribute
  2
TITLE4
 70
     0
  0
ATTRIB
  5
AA2
330
A9B
100
AcDbEntity
  8
TITLE
 62
     7
100
AcDbText
 10
7.689595782347332
 20
0.9696027915446398
 30
0.0
 40
0.08
  1
4-13-04
  7
L80
 72
     2
 11
8.261024353775903
 21
0.9696027915446398
 31
0.0
100
AcDbAttribute
  2
REVISED
 70
     0
  0
ATTRIB
  5
AA3
330
A9B
100
AcDbEntity
  8
TITLE
 62
     7
100
AcDbText
 10
0.2639423705144838
 20
0.0847116480207214
 30
0.0
 40
0.08
  1
S-1802-SP.DWG
  7
L80
100
AcDbAttribute
  2
DWG-NAME
 70
     0
  0
ATTRIB
  5
AA4
330
A9B
100
AcDbEntity
  8
TITLE
 62
     7
100
AcDbText
 10
1.231442370514484
 20
0.7005637793954894
 30
0.0
 40
0.1
  1
N.T.S.
  7
L100
100
AcDbAttribute
  2
SCALE
 70
     0
  0
SEQEND
  5
A9C
330
A9B
100
AcDbEntity
  8
0
  0
TEXT
  5
AB3
330
A58
100
AcDbEntity
  8
TEXT_BUBBLES
100
AcDbText
 10
5.127988280243508
 20
5.16267616
 30
0.0
 40
0.125
  1
POP-UP SPRAY SPRINKLER:
  7
ROMANS
100
AcDbText
  0
TEXT
  5
AB5
330
A58
100
AcDbEntity
  8
TEXT-RB-SA-BUBBLES
100
AcDbText
 10
5.12798828
 20
3.60431794
 30
0.0
 40
0.125
  1
  RAIN BIRD MODEL SA6050
  7
ROMANS
100
AcDbText
  0
LEADER
  5
ABD
330
A58
100
AcDbEntity
  8
TEXT_BUBBLES
100
AcDbLeader
  3
STANDARD
 76
     2
 10
0.9672171643034058
 20
4.966606576296678
 30
0.0
 10
0.5917911614771194
 20
5.069101755256932
 30
0.0
1001
ACAD
1000
DSTYLE
1002
{
1070
   147
1040
0.09
1070
    77
1070
     0
1002
}
  0
LEADER
  5
ABE
330
A58
100
AcDbEntity
  8
TEXT_BUBBLES
100
AcDbLeader
  3
STANDARD
 76
     2
 10
1.963652002148848
 20
4.228785417014858
 30
0.0
 10
0.5998202654960108
 20
4.601125576906737
 30
0.0
1001
ACAD
1000
DSTYLE
1002
{
1070
   147
1040
0.09
1070
    77
1070
     0
1002
}
  0
LEADER
  5
AC1
330
A58
100
AcDbEntity
  8
TEXT-RB-SA-BUBBLES
100
AcDbLeader
  3
STANDARD
 76
     2
 10
2.957151108412241
 20
3.337050442652128
 30
0.0
 10
3.310409728940634
 20
3.766154417195117
 30
0.0
1001
ACAD
1000
DSTYLE
1002
{
1070
   147
1040
0.09
1070
    77
1070
     0
1002
}
  0
TEXT
  5
B0A
330
A58
100
AcDbEntity
  8
TEXT-RB-SA-LEADERS
100
AcDbText
 10
5.127988280243508
 20
3.739954529999999
 30
0.0
 40
0.125
  1
SWING ASSEMBLY:
  7
ROMANS
100
AcDbText
  0
TEXT
  5
B0B
330
A58
100
AcDbEntity
  8
TEXT-RB-SA-LEADERS
100
AcDbText
 10
5.127988280243508
 20
3.564954529999999
 30
0.0
 40
0.125
  1
  RAIN BIRD MODEL SA6050
  7
ROMANS
100
AcDbText
  0
LEADER
  5
B18
330
A58
100
AcDbEntity
  8
TEXT-SA-BUBBLES
100
AcDbLeader
  3
STANDARD
 76
     2
 10
2.089239358743032
 20
3.473768636856264
 30
0.0
 10
0.6209787413025429
 20
3.875385784244532
 30
0.0
1001
ACAD
1000
DSTYLE
1002
{
1070
   147
1040
0.09
1070
    77
1070
     0
1002
}
  0
LEADER
  5
B19
330
A58
100
AcDbEntity
  8
TEXT-SA-BUBBLES
100
AcDbLeader
  3
STANDARD
 76
     2
 10
3.026817639123689
 20
3.291870818024066
 30
0.0
 10
3.226549934647645
 20
2.492204733261099
 30
0.0
1001
ACAD
1000
DSTYLE
1002
{
1070
   147
1040
0.09
1070
    77
1070
     0
1002
}
  0
LEADER
  5
B25
330
A58
100
AcDbEntity
  8
TEXT-RB-SA-LEADERS
100
AcDbLeader
  3
STANDARD
 76
     3
 10
3.05842954844414
 20
3.312437698075157
 30
0.0
 10
4.701970058894351
 20
3.789688825502063
 30
0.0
 10
5.074417451835666
 20
3.789688825502063
 30
0.0
1001
ACAD
1000
DSTYLE
1002
{
1070
   147
1040
0.09
1070
    77
1070
     0
1002
}
  0
LEADER
  5
B26
330
A58
100
AcDbEntity
  8
TEXT_LEADERS
100
AcDbLeader
  3
STANDARD
 76
     3
 10
4.256764371115821
 20
3.155539916832256
 30
0.0
 10
4.701970058894351
 20
3.297522179673735
 30
0.0
 10
5.074417451835666
 20
3.297522179673735
 30
0.0
1001
ACAD
1000
DSTYLE
1002
{
1070
   147
1040
0.09
1070
    77
1070
     0
1002
}
  0
LEADER
  5
B2A
330
A58
100
AcDbEntity
  8
TEXT-SA-LEADERS
100
AcDbLeader
  3
STANDARD
 76
     3
 10
2.256072508990968
 20
3.612694478092436
 30
0.0
 10
4.701970058894351
 20
4.62021739696239
 30
0.0
 10
5.074417451835666
 20
4.62021739696239
 30
0.0
1001
ACAD
1000
DSTYLE
1002
{
1070
   147
1040
0.09
1070
    77
1070
     0
1002
}
  0
LEADER
  5
B2B
330
A58
100
AcDbEntity
  8
TEXT-SA-LEADERS
100
AcDbLeader
  3
STANDARD
 76
     3
 10
3.421108851932148
 20
3.407390706656591
 30
0.0
 10
4.701970058894351
 20
3.829680857059547
 30
0.0
 10
5.074417451835666
 20
3.829680857059547
 30
0.0
1001
ACAD
1000
DSTYLE
1002
{
1070
   147
1040
0.09
1070
    77
1070
     0
1002
}
  0
LEADER
  5
B2D
330
A58
100
AcDbEntity
  8
TEXT-SA-LEADERS
100
AcDbLeader
  3
STANDARD
 76
     3
 10
4.058480547165669
 20
2.924776047858163
 30
0.0
 10
4.701970058894351
 20
2.491096122193765
 30
0.0
 10
5.074417451835666
 20
2.491096122193765
 30
0.0
1001
ACAD
1000
DSTYLE
1002
{
1070
   147
1040
0.09
1070
    77
1070
     0
1002
}
  0
LEADER
  5
B2E
330
A58
100
AcDbEntity
  8
TEXT_LEADERS
100
AcDbLeader
  3
STANDARD
 76
     3
 10
3.325172430333016
 20
2.906645090219917
 30
0.0
 10
4.701970058894351
 20
1.646291273871686
 30
0.0
 10
5.074417451835666
 20
1.646291273871686
 30
0.0
  0
LEADER
  5
B2F
330
A58
100
AcDbEntity
  8
TEXT_LEADERS
100
AcDbLeader
  3
STANDARD
 76
     3
 10
2.375458242436042
 20
3.945867834580825
 30
0.0
 10
4.701970058894351
 20
5.224492032324596
 30
0.0
 10
5.074417451835666
 20
5.224492032324596
 30
0.0
1001
ACAD
1000
DSTYLE
1002
{
1070
   147
1040
0.09
1070
    77
1070
     0
1002
}
  0
LEADER
  5
B30
330
A58
100
AcDbEntity
  8
TEXT_LEADERS
100
AcDbLeader
  3
STANDARD
 76
     3
 10
3.754541861840623
 20
4.966606576296678
 30
0.0
 10
4.701970058894351
 20
5.579369871553548
 30
0.0
 10
5.074417451835666
 20
5.579369871553548
 30
0.0
1001
ACAD
1000
DSTYLE
1002
{
1070
   147
1040
0.09
1070
    77
1070
     0
1002
}
  0
TEXT
  5
B4B
330
A58
100
AcDbEntity
  8
TEXT_BUBBLES
100
AcDbText
 10
5.12798828
 20
4.13486519999999
 30
0.0
 40
0.125
  1
PVC SCH 40 TEE OR ELL
  7
ROMANS
100
AcDbText
  0
TEXT
  5
B4F
330
A58
100
AcDbEntity
  8
TEXT_BUBBLES
100
AcDbText
 10
4.857678211733269
 20
4.118093154075107
 30
0.0
 40
0.125
  1
4
  7
ROMANS
 72
     4
 11
4.920178211733269
 21
4.180593154075107
 31
0.0
100
AcDbText
  0
CIRCLE
  5
B50
330
A58
100
AcDbEntity
  8
TEXT_BUBBLES
100
AcDbCircle
 10
4.920178211733269
 20
4.180593154075107
 30
0.0
 40
0.15625
  0
TEXT
  5
B51
330
A58
100
AcDbEntity
  8
TEXT_BUBBLES
100
AcDbText
 10
4.860654402209459
 20
4.481357048686885
 30
0.0
 40
0.125
  1
3
  7
ROMANS
 72
     4
 11
4.920178211733269
 21
4.543857048686885
 31
0.0
100
AcDbText
  0
CIRCLE
  5
B52
330
A58
100
AcDbEntity
  8
TEXT_BUBBLES
100
AcDbCircle
 10
4.920178211733269
 20
4.543857048686885
 30
0.0
 40
0.15625
  0
TEXT
  5
B53
330
A58
100
AcDbEntity
  8
TEXT_BUBBLES
100
AcDbText
 10
1.761666562400547
 20
2.288950959892848
 30
0.0
 40
0.125
  1
3
  7
ROMANS
 72
     4
 11
1.821190371924356
 21
2.351450959892848
 31
0.0
100
AcDbText
  0
CIRCLE
  5
B54
330
A58
100
AcDbEntity
  8
TEXT_BUBBLES
100
AcDbCircle
 10
1.821190371924356
 20
2.351450959892848
 30
0.0
 40
0.15625
  0
LEADER
  5
B55
330
A58
100
AcDbEntity
  8
TEXT_BUBBLES
100
AcDbLeader
  3
STANDARD
 76
     2
 10
2.01164294744617
 20
2.906645090219917
 30
0.0
 10
1.862340797262857
 20
2.502184847902348
 30
0.0
1001
ACAD
1000
DSTYLE
1002
{
1070
   147
1040
0.09
1070
    77
1070
     0
1002
}
  0
CIRCLE
  5
B56
330
A58
100
AcDbEntity
  8
TEXT_BUBBLES
100
AcDbCircle
 10
4.074507738520951
 20
2.351450959892848
 30
0.0
 40
0.15625
  0
TEXT
  5
B57
330
A58
100
AcDbEntity
  8
TEXT_BUBBLES
100
AcDbText
 10
4.012007738520951
 20
2.288950959892848
 30
0.0
 40
0.125
  1
4
  7
ROMANS
 72
     4
 11
4.074507738520951
 21
2.351450959892848
 31
0.0
100
AcDbText
  0
LEADER
  5
B58
330
A58
100
AcDbEntity
  8
TEXT_BUBBLES
100
AcDbLeader
  3
STANDARD
 76
     2
 10
4.249184298166139
 20
2.865573229526271
 30
0.0
 10
4.115658163859452
 20
2.502184847902348
 30
0.0
1001
ACAD
1000
DSTYLE
1002
{
1070
   147
1040
0.09
1070
    77
1070
     0
1002
}
  0
LEADER
  5
B5A
330
A58
100
AcDbEntity
  8
TEXT-SA-BUBBLES
100
AcDbLeader
  3
STANDARD
 76
     2
 10
3.940590602024451
 20
2.96895910050299
 30
0.0
 10
3.766993868486492
 20
2.502184847902348
 30
0.0
  0
TEXT
  5
B5D
330
A58
100
AcDbEntity
  8
TEXT-SA-BUBBLES
100
AcDbText
 10
5.12798828
 20
3.734811433849551
 30
0.0
 40
0.125
  1
SWING PIPE, 12-INCH LENGTH:
  7
SIMPLEX
100
AcDbText
  0
TEXT
  5
B5E
330
A58
100
AcDbEntity
  8
TEXT-SA-BUBBLES
100
AcDbText
 10
5.12798828
 20
3.562585063849551
 30
0.0
 40
0.125
  1
  RAIN BIRD MODEL SP-100
  7
SIMPLEX
100
AcDbText
  0
TEXT
  5
B5F
330
A58
100
AcDbEntity
  8
TEXT-SA-BUBBLES
100
AcDbText
 10
5.12798828
 20
3.101506979999999
 30
0.0
 40
0.125
  1
  BARB ELBOW:  RAIN BIRD
  7
SIMPLEX
100
AcDbText
  0
TEXT
  5
B65
330
A58
100
AcDbEntity
  8
TEXT_BUBBLES
100
AcDbText
 10
5.12798828
 20
4.479317939999999
 30
0.0
 40
0.125
  1
PVC LATERAL PIPE
  7
ROMANS
100
AcDbText
  0
TEXT
  5
B66
330
A58
100
AcDbEntity
  8
TEXT-RB-SA-BUBBLES
100
AcDbText
 10
5.12798828
 20
3.779317939999999
 30
0.0
 40
0.125
  1
SWING ASSEMBLY:
  7
ROMANS
100
AcDbText
  0
TEXT
  5
BB8
330
A58
100
AcDbEntity
  8
INSTRUCT-OPTION
100
AcDbText
 10
11.03238912310344
 20
5.872053492003541
 30
0.0
 40
0.125
  1
%%uVAN NOZZLE%%u
  7
ROMANS
100
AcDbText
  0
TEXT
  5
BB9
330
A58
100
AcDbEntity
  8
INSTRUCT-OPTION
100
AcDbText
 10
11.03238912310344
 20
6.490562377923705
 30
0.0
 40
0.125
  1
%%uU-SERIES NOZZLE%%u
  7
ROMANS
100
AcDbText
  0
TEXT
  5
BBA
330
A58
100
AcDbEntity
  8
INSTRUCT-OPTION
100
AcDbText
 10
11.03238912310344
 20
4.527621111641503
 30
0.0
 40
0.125
  1
BY TURNING ON THE APPROPRIATE LAYER:
  7
ROMANS
100
AcDbText
  0
TEXT
  5
BBB
330
A58
100
AcDbEntity
  8
INSTRUCT-OPTION
100
AcDbText
 10
11.03238912310344
 20
4.702621111641504
 30
0.0
 40
0.125
  1
CHOOSE ONE OF THE FOLLOWING CAPS 
  7
ROMANS
100
AcDbText
  0
LINE
  5
BBC
330
A58
100
AcDbEntity
  8
INSTRUCT-OPTION
100
AcDbLine
 10
10.82724372224561
 20
0.7989348958314447
 30
0.0
 11
10.82724372224561
 21
7.897234388594839
 31
0.0
  0
LINE
  5
BBD
330
A58
100
AcDbEntity
  8
INSTRUCT-OPTION
100
AcDbLine
 10
16.39623919921722
 20
0.7989348958314447
 30
0.0
 11
10.82724372224561
 21
0.7989348958314447
 31
0.0
  0
LINE
  5
BBE
330
A58
100
AcDbEntity
  8
INSTRUCT-OPTION
100
AcDbLine
 10
16.39623919921722
 20
7.897234388594839
 30
0.0
 11
16.39623919921722
 21
0.7989348958314447
 31
0.0
  0
LINE
  5
BBF
330
A58
100
AcDbEntity
  8
INSTRUCT-OPTION
100
AcDbLine
 10
10.82724372224561
 20
7.897234388594839
 30
0.0
 11
16.39623919921722
 21
7.897234388594839
 31
0.0
  0
TEXT
  5
BC0
330
A58
100
AcDbEntity
  8
INSTRUCT-OPTION
100
AcDbText
 10
11.00329809130281
 20
3.018761521265219
 30
0.0
 40
0.1250000018625002
  1
TURNING ON THE APPROPRIATE LAYER:
  7
ROMANS
100
AcDbText
  0
TEXT
  5
BC1
330
A58
100
AcDbEntity
  8
INSTRUCT-OPTION
100
AcDbText
 10
11.00329809130281
 20
3.194034535041931
 30
0.0
 40
0.1250000018625002
  1
SELECT THE DESIRED SWING ASSEMBLY BY
  7
ROMANS
100
AcDbText
  0
TEXT
  5
BC2
330
A58
100
AcDbEntity
  8
INSTRUCT-OPTION
100
AcDbText
 10
11.05951639303429
 20
1.136984698854782
 30
0.0
 40
0.125
  1
  %%uOR%%u TEXT-RB-SA-BUBBLES
  7
ROMANS
100
AcDbText
  0
TEXT
  5
BC3
330
A58
100
AcDbEntity
  8
INSTRUCT-OPTION
100
AcDbText
 10
11.05951639303429
 20
1.346033053890734
 30
0.0
 40
0.125
  1
  %%uAND EITHER%%u TEXT-RB-SA-LEADERS
  7
ROMANS
100
AcDbText
  0
TEXT
  5
BC4
330
A58
100
AcDbEntity
  8
INSTRUCT-OPTION
100
AcDbText
 10
11.05951639303429
 20
1.521033053890735
 30
0.0
 40
0.125
  1
  OPTION-RB-SA
  7
ROMANS
100
AcDbText
  0
TEXT
  5
BC5
330
A58
100
AcDbEntity
  8
INSTRUCT-OPTION
100
AcDbText
 10
11.05951639303429
 20
2.084282906010479
 30
0.0
 40
0.125
  1
  %%uOR%%u TEXT-SA-BUBBLES
  7
ROMANS
100
AcDbText
  0
TEXT
  5
BC6
330
A58
100
AcDbEntity
  8
INSTRUCT-OPTION
100
AcDbText
 10
11.05951639303429
 20
2.288046199986084
 30
0.0
 40
0.125
  1
  %%uAND EITHER%%u TEXT-SA-LEADERS
  7
ROMANS
100
AcDbText
  0
TEXT
  5
BC7
330
A58
100
AcDbEntity
  8
INSTRUCT-OPTION
100
AcDbText
 10
11.03238912310344
 20
3.445728836128537
 30
0.0
 40
0.125
  1
  OPTION-NP
  7
ROMANS
100
AcDbText
  0
TEXT
  5
BC8
330
A58
100
AcDbEntity
  8
INSTRUCT-OPTION
100
AcDbText
 10
11.03238912310344
 20
3.970728836128538
 30
0.0
 40
0.125
  1
  OPTION-VPC
  7
ROMANS
100
AcDbText
  0
TEXT
  5
BC9
330
A58
100
AcDbEntity
  8
INSTRUCT-OPTION
100
AcDbText
 10
11.03238912310344
 20
4.225822531445786
 30
0.0
 40
0.125
  1
%%uVANDAL-PROOF CAP%%u
  7
ROMANS
100
AcDbText
  0
TEXT
  5
BCA
330
A58
100
AcDbEntity
  8
INSTRUCT-OPTION
100
AcDbText
 10
11.03238912310344
 20
7.09618570363434
 30
0.0
 40
0.125
  1
%%uPLASTIC MPR NOZZLE%%u
  7
ROMANS
100
AcDbText
  0
TEXT
  5
BCB
330
A58
100
AcDbEntity
  8
INSTRUCT-OPTION
100
AcDbText
 10
11.05951639303429
 20
2.463046199986083
 30
0.0
 40
0.125
  1
  OPTION-SA
  7
ROMANS
100
AcDbText
  0
TEXT
  5
BCC
330
A58
100
AcDbEntity
  8
INSTRUCT-OPTION
100
AcDbText
 10
11.03238912310344
 20
3.702077062015044
 30
0.0
 40
0.125
  1
%%uNON-POTABLE CAP%%u
  7
ROMANS
100
AcDbText
  0
TEXT
  5
BCD
330
A58
100
AcDbEntity
  8
INSTRUCT-OPTION
100
AcDbText
 10
11.03238912310344
 20
7.675417833651097
 30
0.0
 40
0.125
  1
CHOOSE A DIFFERENT SPRINKLER NOZZLE 
  7
ROMANS
100
AcDbText
  0
TEXT
  5
BCE
330
A58
100
AcDbEntity
  8
INSTRUCT-OPTION
100
AcDbText
 10
11.05951639303429
 20
1.750742713481837
 30
0.0
 40
0.125
  1
%%uRAIN BIRD SWING ASSEMBLY%%u
  7
ROMANS
100
AcDbText
  0
TEXT
  5
BCF
330
A58
100
AcDbEntity
  8
INSTRUCT-OPTION
100
AcDbText
 10
11.05951639303429
 20
2.731697943238207
 30
0.0
 40
0.125
  1
%%uCONTRACTOR ASSEMBLED SWING ASSEMBLY%%u
  7
ROMANS
100
AcDbText
  0
TEXT
  5
BD0
330
A58
100
AcDbEntity
  8
INSTRUCT-OPTION
100
AcDbText
 10
11.03238912310344
 20
5.664396089927953
 30
0.0
 40
0.125
  1
  OPTION-NOZ-VAN
  7
ROMANS
100
AcDbText
  0
TEXT
  5
BD1
330
A58
100
AcDbEntity
  8
INSTRUCT-OPTION
100
AcDbText
 10
11.03238912310344
 20
6.200192959781156
 30
0.0
 40
0.125
  1
  OPTION-NOZ-U-SERIES
  7
ROMANS
100
AcDbText
  0
TEXT
  5
BD2
330
A58
100
AcDbEntity
  8
INSTRUCT-OPTION
100
AcDbText
 10
11.05951639705372
 20
0.390109839935989
 30
0.0
 40
0.125
  1
LAYER "INSTRUCT-OPTION".
  7
ROMANS
100
AcDbText
  0
TEXT
  5
BD3
330
A58
100
AcDbEntity
  8
INSTRUCT-OPTION
100
AcDbText
 10
11.05951639705372
 20
0.6025105542199905
 30
0.0
 40
0.125
  1
TO TURN OFF THIS INSTRUCTION BOX, TURN OFF
  7
ROMANS
100
AcDbText
  0
TEXT
  5
BD4
330
A58
100
AcDbEntity
  8
INSTRUCT-OPTION
100
AcDbText
 10
11.42973452175173
 20
7.941132671811864
 30
0.0
 40
0.125
  1
CHOOSING NOZZLES AND OPTIONAL FEATURES
  7
ROMANS
100
AcDbText
  0
TEXT
  5
BD5
330
A58
100
AcDbEntity
  8
INSTRUCT-OPTION
100
AcDbText
 10
11.03238912310344
 20
6.870324531503452
 30
0.0
 40
0.125
  1
  OPTION-NOZ-PLASTIC
  7
ROMANS
100
AcDbText
  0
TEXT
  5
BD6
330
A58
100
AcDbEntity
  8
INSTRUCT-OPTION
100
AcDbText
 10
11.03238912310344
 20
7.500417833651098
 30
0.0
 40
0.125
  1
BY TURNING ON THE APPROPRIATE LAYER:
  7
ROMANS
100
AcDbText
  0
TEXT
  5
BE8
330
A58
100
AcDbEntity
  8
OPTION-NOZ-VAN
100
AcDbText
 10
5.12798828
 20
4.823770679999999
 30
0.0
 40
0.125
  1
  WITH VAN NOZZLE
  7
ROMANS
100
AcDbText
  0
TEXT
  5
BEB
330
A58
100
AcDbEntity
  8
OPTION-NOZ-ROTARY
100
AcDbText
 10
5.12798828
 20
4.823770679999999
 30
0.0
 40
0.125
  1
  WITH RAIN BIRD ROTARY NOZZLE
  7
ROMANS
100
AcDbText
  0
TEXT
  5
BED
330
A58
100
AcDbEntity
  8
INSTRUCT-OPTION
100
AcDbText
 10
11.07307311064133
 20
5.28915750743379
 30
0.0
 40
0.125
  1
%%uROTARY NOZZLE%%u
  7
ROMANS
100
AcDbText
  0
TEXT
  5
BEE
330
A58
100
AcDbEntity
  8
INSTRUCT-OPTION
100
AcDbText
 10
11.07307311064133
 20
5.081500105358203
 30
0.0
 40
0.125
  1
  OPTION-NOZ-ROTARY
  7
ROMANS
100
AcDbText
  0
ENDSEC
  0
SECTION
  2
OBJECTS
  0
DICTIONARY
  5
A46
330
0
100
AcDbDictionary
281
     1
  3
ACAD_GROUP
350
A47
  3
ACAD_LAYOUT
350
A53
  3
ACAD_MLINESTYLE
350
A50
  3
ACAD_PLOTSETTINGS
350
A52
  3
ACAD_PLOTSTYLENAME
350
A48
  3
AcadDim
350
B24
  3
AcDbVariableDictionary
350
A80
  0
DICTIONARY
  5
B93
330
A3C
100
AcDbDictionary
280
     1
281
     1
  3
ACAD_LAYERFILTERS
360
BEC
  3
ACAD_LAYERSTATES
360
B94
  0
DICTIONARY
  5
A47
102
{ACAD_REACTORS
330
A46
102
}
330
A46
100
AcDbDictionary
281
     1
  0
DICTIONARY
  5
A53
102
{ACAD_REACTORS
330
A46
102
}
330
A46
100
AcDbDictionary
281
     1
  3
Layout1
350
A57
  3
Model
350
A5B
  0
DICTIONARY
  5
A50
102
{ACAD_REACTORS
330
A46
102
}
330
A46
100
AcDbDictionary
281
     1
  3
Standard
350
A51
  0
DICTIONARY
  5
A52
102
{ACAD_REACTORS
330
A46
102
}
330
A46
100
AcDbDictionary
281
     1
  3
1055 B&W Full Shaded Draft
350
AC3
  3
1055 B&W Full Shaded Final
350
AC4
  3
1055 Color Full Shaded Draft
350
AC5
  3
1055 Color Full Shaded Final
350
AC6
  3
1055 PLUS B&W Full Shaded Draft
350
AC7
  3
1055 PLUS B&W Full Shaded Final
350
AC8
  3
1055 PLUS Color Full Shaded Draft
350
AC9
  3
1055 PLUS Color Full Shaded Final
350
ACA
  3
1055-B&W-Shaded-Draft
350
ACB
  3
1055-B&W-Shaded-Final
350
ACC
  3
1055-Color-Shaded-Draft
350
ACD
  3
1055-Color-Shaded-Final
350
ACE
  3
1055-PLUS-B&W-Shaded-Draft
350
ACF
  3
1055-PLUS-B&W-Shaded-Final
350
AD0
  3
1055-PLUS-Color-Shaded-Draft
350
AD1
  3
1055-PLUS-Color-Shaded-Final
350
AD2
  3
2200 Color Inkjet
350
AD3
  3
2200-Color-Inkjet
350
AD4
  3
24x36 PDF
350
AD5
  3
8500 B&W Shaded 11x17
350
AD6
  3
8500 B&W Shaded 8.5x11
350
AD7
  3
8500 Color Shaded 11x17
350
AD8
  3
8500 Color Shaded 8.5x11
350
AD9
  3
8500-B&W-Shaded-11x17
350
ADA
  3
8500-B&W-Shaded-8.5x11
350
ADB
  3
8500-Color-Shaded-11x17
350
ADC
  3
8500-Color-Shaded-8.5x11
350
ADD
  3
Laser Jet 5 Shaded 11x17
350
ADE
  3
Laser Jet 5 Shaded 8.5x11
350
ADF
  3
LaserJet5-Shaded-11x17
350
AE0
  3
LaserJet5-Shaded-8.5x11
350
AE1
  3
Oki Doki B&W Shaded 11x17
350
AE2
  3
Oki Doki B&W Shaded 8.5x11
350
AE3
  3
Oki Doki Color Laser
350
AE4
  3
Oki Doki Color Shaded 11x17
350
AE5
  3
Oki Doki Color Shaded 8.5x11
350
AE6
  3
Oki-Doki-B&W-Shaded-11x17
350
AE7
  3
Oki-Doki-B&W-Shaded-8.5x11
350
AE8
  3
Oki-Doki-Color-Laser
350
AE9
  3
Oki-Doki-Color-Shaded-11x17
350
AEA
  3
Oki-Doki-Color-Shaded-8.5x11
350
AEB
  0
ACDBDICTIONARYWDFLT
  5
A48
102
{ACAD_REACTORS
330
A46
102
}
330
A46
100
AcDbDictionary
281
     1
  3
Normal
350
A49
100
AcDbDictionaryWithDefault
340
A49
  0
XRECORD
  5
B24
102
{ACAD_REACTORS
330
A46
102
}
330
A46
100
AcDbXrecord
280
     1
 90
   990106
  3

 60
     4
 61
     0
 62
     1
 63
     3
 64
     0
 65
     0
 66
     0
 67
     3
 68
     1
 69
     0
 70
     0
 71
     0
 72
     0
 40
0.0
170
     0
  0
DICTIONARY
  5
A80
102
{ACAD_REACTORS
330
A46
102
}
330
A46
100
AcDbDictionary
281
     1
  3
DIMASSOC
350
A83
  3
HIDETEXT
350
A82
  3
SORTENTS
350
A81
  0
DICTIONARY
  5
BEC
102
{ACAD_REACTORS
330
B93
102
}
330
B93
100
AcDbDictionary
280
     1
281
     1
  0
DICTIONARY
  5
B94
102
{ACAD_REACTORS
330
B93
102
}
330
B93
100
AcDbDictionary
281
     1
  0
LAYOUT
  5
A57
102
{ACAD_REACTORS
330
A53
102
}
330
A53
100
AcDbPlotSettings
  1

  2
S:\AutoCAD 2002\Plotters\1055B&WDraftShaded.pc3
  4

  6

 40
0.0
 41
0.0
 42
0.0
 43
0.0
 44
0.0
 45
0.0
 46
0.0
 47
0.0
 48
0.0
 49
0.0
140
0.0
141
0.0
142
1.0
143
1.0
 70
   688
 72
     0
 73
     0
 74
     5
  7

 75
    16
147
1.0
148
0.0
149
0.0
100
AcDbLayout
  1
Layout1
 70
     1
 71
     1
 10
0.0
 20
0.0
 11
12.0
 21
9.0
 12
0.0
 22
0.0
 32
0.0
 14
1.000000000000000E+20
 24
1.000000000000000E+20
 34
1.000000000000000E+20
 15
-1.000000000000000E+20
 25
-1.000000000000000E+20
 35
-1.000000000000000E+20
146
0.0
 13
0.0
 23
0.0
 33
0.0
 16
1.0
 26
0.0
 36
0.0
 17
0.0
 27
1.0
 37
0.0
 76
     0
330
A54
  0
LAYOUT
  5
A5B
102
{ACAD_REACTORS
330
A53
102
}
330
A53
100
AcDbPlotSettings
  1

  2
OKI DOKI Color Laser.pc3
  4
Tabloid
  6

 40
5.027083396911621
 41
5.027085304260253
 42
5.027099609375
 43
5.027069091796875
 44
279.3999938964843
 45
431.7999877929687
 46
1.27
 47
0.0
 48
0.0
 49
0.0000000000000001
140
16.48999999999999
141
10.44
142
1.0
143
0.9931242156595709
 70
 11956
 72
     0
 73
     1
 74
     4
  7
OKIColorShaded.ctb
 75
     0
147
1.006923388063659
148
0.0
149
-0.0000000000000028
100
AcDbLayout
  1
Model
 70
     1
 71
     0
 10
0.0
 20
0.0
 11
12.0
 21
9.0
 12
0.0
 22
0.0
 32
0.0
 14
0.0
 24
0.0
 34
0.0
 15
0.0
 25
0.0
 35
0.0
146
0.0
 13
0.0
 23
0.0
 33
0.0
 16
1.0
 26
0.0
 36
0.0
 17
0.0
 27
1.0
 37
0.0
 76
     0
330
A58
  0
MLINESTYLE
  5
A51
102
{ACAD_REACTORS
330
A50
102
}
330
A50
100
AcDbMlineStyle
  2
STANDARD
 70
     0
  3

 62
   256
 51
90.0
 52
90.0
 71
     2
 49
0.5
 62
   256
  6
BYLAYER
 49
-0.5
 62
   256
  6
BYLAYER
  0
PLOTSETTINGS
  5
AC3
102
{ACAD_REACTORS
330
A52
102
}
330
A52
100
AcDbPlotSettings
  1
1055 B&W Full Shaded Draft
  2
1055B&WDraftShaded.pc3
  4
User607
  6
ps1
 40
0.0
 41
0.0
 42
0.0
 43
0.0
 44
901.7000122070312
 45
1155.700073242187
 46
0.0
 47
0.0
 48
180377.877572
 49
80019.819395
140
180380.8390819999
141
80022.26069
142
1.0
143
1.0
 70
   688
 72
     0
 73
     2
 74
     3
  7
1055B&WFullDraftShaded.ctb
 75
    16
147
1.0
148
-4581603.303200401
149
-2032962.095032944
  0
PLOTSETTINGS
  5
AC4
102
{ACAD_REACTORS
330
A52
102
}
330
A52
100
AcDbPlotSettings
  1
1055 B&W Full Shaded Final
  2
1055B&WFinalShaded.pc3
  4
User257
  6
PS1
 40
4.995333194732666
 41
8.297271728515625
 42
4.99530029296875
 43
8.29736328125
 44
911.6906738281249
 45
1172.294677734375
 46
0.0
 47
0.0
 48
180377.877572
 49
80019.819395
140
180380.8390819999
141
80022.26069
142
1.0
143
1.0
 70
   688
 72
     0
 73
     3
 74
     3
  7
1055B&WFullFinalShaded.ctb
 75
    16
147
1.0
148
-4581603.303200401
149
-2032962.095032944
  0
PLOTSETTINGS
  5
AC5
102
{ACAD_REACTORS
330
A52
102
}
330
A52
100
AcDbPlotSettings
  1
1055 Color Full Shaded Draft
  2
1055ColorDraftShaded.pc3
  4
User607
  6
PS1
 40
0.0
 41
0.0
 42
0.0
 43
0.0
 44
901.7000122070312
 45
1155.700073242187
 46
0.0
 47
0.0
 48
180377.877572
 49
80019.819395
140
180380.8390819999
141
80022.26069
142
1.0
143
1.0
 70
   688
 72
     0
 73
     2
 74
     3
  7
1055ColorFullDraftShaded.ctb
 75
    16
147
1.0
148
-4581603.303200401
149
-2032962.095032944
  0
PLOTSETTINGS
  5
AC6
102
{ACAD_REACTORS
330
A52
102
}
330
A52
100
AcDbPlotSettings
  1
1055 Color Full Shaded Final
  2
1055ColorFinalShaded.pc3
  4
User607
  6
PS1
 40
0.0
 41
0.0
 42
0.0
 43
0.0
 44
901.7000122070312
 45
1155.700073242187
 46
0.0
 47
0.0
 48
180377.877572
 49
80019.819395
140
180380.8390819999
141
80022.26069
142
1.0
143
1.0
 70
   688
 72
     0
 73
     2
 74
     3
  7
1055ColorFullFinalShaded.ctb
 75
    16
147
1.0
148
-4581603.303200401
149
-2032962.095032944
  0
PLOTSETTINGS
  5
AC7
102
{ACAD_REACTORS
330
A52
102
}
330
A52
100
AcDbPlotSettings
  1
1055 PLUS B&W Full Shaded Draft
  2
1055_PLUS_B&WDraftShaded.pc3
  4
User257
  6
ps1
 40
4.995333194732666
 41
8.297393798828125
 42
4.99530029296875
 43
8.29736328125
 44
901.6152954101562
 45
1155.615356445312
 46
0.0
 47
0.0
 48
180377.877572
 49
80019.819395
140
180380.8390819999
141
80022.26069
142
1.0
143
1.0
 70
   688
 72
     0
 73
     3
 74
     5
  7
1055B&WFullDraftShaded.ctb
 75
    16
147
1.0
148
-4581603.303200401
149
-2032962.095032944
  0
PLOTSETTINGS
  5
AC8
102
{ACAD_REACTORS
330
A52
102
}
330
A52
100
AcDbPlotSettings
  1
1055 PLUS B&W Full Shaded Final
  2
1055_PLUS_B&WFinalShaded.pc3
  4
User257
  6
PS1
 40
4.995333194732666
 41
8.297271728515625
 42
4.99530029296875
 43
8.29736328125
 44
901.6576538085937
 45
1155.657592773437
 46
0.0
 47
0.0
 48
180377.877572
 49
80019.819395
140
180380.8390819999
141
80022.26069
142
1.0
143
1.0
 70
   688
 72
     0
 73
     3
 74
     5
  7
1055B&WFullFinalShaded.ctb
 75
    16
147
1.0
148
-4581603.303200401
149
-2032962.095032944
  0
PLOTSETTINGS
  5
AC9
102
{ACAD_REACTORS
330
A52
102
}
330
A52
100
AcDbPlotSettings
  1
1055 PLUS Color Full Shaded Draft
  2
1055_PLUS_ColorDraftShaded.pc3
  4
User257
  6
PS1
 40
4.995333194732666
 41
8.297393798828125
 42
4.99530029296875
 43
8.29736328125
 44
901.6152954101562
 45
1155.615356445312
 46
0.0
 47
0.0
 48
180377.877572
 49
80019.819395
140
180380.8390819999
141
80022.26069
142
1.0
143
1.0
 70
   688
 72
     0
 73
     3
 74
     5
  7
1055ColorFullDraftShaded.ctb
 75
    16
147
1.0
148
-4581603.303200401
149
-2032962.095032944
  0
PLOTSETTINGS
  5
ACA
102
{ACAD_REACTORS
330
A52
102
}
330
A52
100
AcDbPlotSettings
  1
1055 PLUS Color Full Shaded Final
  2
1055_PLUS_ColorFinalShaded.pc3
  4
User257
  6
PS1
 40
4.995333194732666
 41
8.297271728515625
 42
4.99530029296875
 43
8.29736328125
 44
901.6576538085937
 45
1155.657592773437
 46
0.0
 47
0.0
 48
180377.877572
 49
80019.819395
140
180380.8390819999
141
80022.26069
142
1.0
143
1.0
 70
   688
 72
     0
 73
     3
 74
     5
  7
1055ColorFullFinalShaded.ctb
 75
    16
147
1.0
148
-4581603.303200401
149
-2032962.095032944
  0
PLOTSETTINGS
  5
ACB
102
{ACAD_REACTORS
330
A52
102
}
330
A52
100
AcDbPlotSettings
  1
1055-B&W-Shaded-Draft
  2
1055B&WDraftShaded.pc3
  4
User257
  6

 40
4.995333194732666
 41
8.297393798828125
 42
4.99530029296875
 43
8.29736328125
 44
901.6152954101562
 45
1155.615356445312
 46
0.0
 47
0.0
 48
180360.0524337165
 49
80033.77936194791
140
180369.1574725906
141
80037.61796031875
142
1.0
143
30.0
 70
  1696
 72
     0
 73
     1
 74
     1
  7
1055B&WFullDraftShaded.ctb
 75
     0
147
0.0333333333333333
148
-190.0773302744904
149
-129.2444057835751
  0
PLOTSETTINGS
  5
ACC
102
{ACAD_REACTORS
330
A52
102
}
330
A52
100
AcDbPlotSettings
  1
1055-B&W-Shaded-Final
  2
1055B&WFinalShaded.pc3
  4
User607
  6

 40
0.0
 41
0.0
 42
0.0
 43
0.0
 44
901.7000122070312
 45
1155.700073242187
 46
0.0
 47
0.0
 48
180360.0524337165
 49
80033.77936194791
140
180369.1574725906
141
80037.61796031875
142
1.0
143
30.0
 70
  1696
 72
     0
 73
     1
 74
     1
  7
1055B&WFullFinalShaded.ctb
 75
     0
147
0.0333333333333333
148
-190.0773302744904
149
-129.2444057835751
  0
PLOTSETTINGS
  5
ACD
102
{ACAD_REACTORS
330
A52
102
}
330
A52
100
AcDbPlotSettings
  1
1055-Color-Shaded-Draft
  2
1055ColorDraftShaded.pc3
  4
User257
  6

 40
4.995333194732666
 41
8.297393798828125
 42
4.99530029296875
 43
8.29736328125
 44
901.6152954101562
 45
1155.615356445312
 46
0.0
 47
0.0
 48
180360.0524337165
 49
80033.77936194791
140
180369.1574725906
141
80037.61796031875
142
1.0
143
30.0
 70
  1696
 72
     0
 73
     1
 74
     1
  7
1055ColorFullDraftShaded.ctb
 75
     0
147
0.0333333333333333
148
-190.0773302744904
149
-129.2444057835751
  0
PLOTSETTINGS
  5
ACE
102
{ACAD_REACTORS
330
A52
102
}
330
A52
100
AcDbPlotSettings
  1
1055-Color-Shaded-Final
  2
1055ColorDraftShaded.pc3
  4
User257
  6

 40
4.995333194732666
 41
8.297393798828125
 42
4.99530029296875
 43
8.29736328125
 44
901.6152954101562
 45
1155.615356445312
 46
0.0
 47
0.0
 48
180360.0524337165
 49
80033.77936194791
140
180369.1574725906
141
80037.61796031875
142
1.0
143
30.0
 70
  1696
 72
     0
 73
     1
 74
     1
  7
1055ColorFullFinalShaded.ctb
 75
     0
147
0.0333333333333333
148
-190.0773302744904
149
-129.2444057835751
  0
PLOTSETTINGS
  5
ACF
102
{ACAD_REACTORS
330
A52
102
}
330
A52
100
AcDbPlotSettings
  1
1055-PLUS-B&W-Shaded-Draft
  2
1055_PLUS_B&WDraftShaded.pc3
  4
User257
  6

 40
4.995333194732666
 41
8.297393798828125
 42
4.99530029296875
 43
8.29736328125
 44
901.6152954101562
 45
1155.615356445312
 46
0.0
 47
0.0
 48
180360.0524337165
 49
80033.77936194791
140
180369.1574725906
141
80037.61796031875
142
1.0
143
30.0
 70
  1696
 72
     0
 73
     1
 74
     0
  7
1055B&WFullDraftShaded.ctb
 75
     0
147
0.0333333333333333
148
0.9506237099442845
149
8.593888772447144
  0
PLOTSETTINGS
  5
AD0
102
{ACAD_REACTORS
330
A52
102
}
330
A52
100
AcDbPlotSettings
  1
1055-PLUS-B&W-Shaded-Final
  2
1055_PLUS_B&WFinalShaded.pc3
  4
User257
  6

 40
4.995333194732666
 41
8.297271728515625
 42
4.99530029296875
 43
8.29736328125
 44
901.6576538085937
 45
1155.657592773437
 46
0.0
 47
0.0
 48
180360.0524337165
 49
80033.77936194791
140
180369.1574725906
141
80037.61796031875
142
1.0
143
30.0
 70
  1696
 72
     0
 73
     1
 74
     0
  7
1055B&WFullFinalShaded.ctb
 75
     0
147
0.0333333333333333
148
0.9506237099442845
149
8.593888772447144
  0
PLOTSETTINGS
  5
AD1
102
{ACAD_REACTORS
330
A52
102
}
330
A52
100
AcDbPlotSettings
  1
1055-PLUS-Color-Shaded-Draft
  2
1055_PLUS_ColorDraftShaded.pc3
  4
User257
  6

 40
4.995333194732666
 41
8.297393798828125
 42
4.99530029296875
 43
8.29736328125
 44
901.6152954101562
 45
1155.615356445312
 46
0.0
 47
0.0
 48
180360.0524337165
 49
80033.77936194791
140
180369.1574725906
141
80037.61796031875
142
1.0
143
30.0
 70
  1696
 72
     0
 73
     1
 74
     0
  7
1055ColorFullDraftShaded.ctb
 75
     0
147
0.0333333333333333
148
0.9506237099442845
149
8.593888772447144
  0
PLOTSETTINGS
  5
AD2
102
{ACAD_REACTORS
330
A52
102
}
330
A52
100
AcDbPlotSettings
  1
1055-PLUS-Color-Shaded-Final
  2
1055_PLUS_ColorFinalShaded.pc3
  4
User257
  6

 40
4.995333194732666
 41
8.297271728515625
 42
4.99530029296875
 43
8.29736328125
 44
901.6576538085937
 45
1155.657592773437
 46
0.0
 47
0.0
 48
180360.0524337165
 49
80033.77936194791
140
180369.1574725906
141
80037.61796031875
142
1.0
143
30.0
 70
  1696
 72
     0
 73
     1
 74
     0
  7
1055ColorFullFinalShaded.ctb
 75
     0
147
0.0333333333333333
148
0.9506237099442845
149
8.593888772447144
  0
PLOTSETTINGS
  5
AD3
102
{ACAD_REACTORS
330
A52
102
}
330
A52
100
AcDbPlotSettings
  1
2200 Color Inkjet
  2
HP  2200 Color Inkjet.pc3
  4
Letter
  6
PS1
 40
7.143749713897705
 41
12.47775650024414
 42
7.14373779296875
 43
3.17498779296875
 44
215.8999938964843
 45
279.3999938964843
 46
0.0
 47
0.0
 48
180377.877572
 49
80019.819395
140
180380.8390819999
141
80022.26069
142
1.0
143
0.3486331030131726
 70
   688
 72
     0
 73
     1
 74
     3
  7
Color.ctb
 75
     0
147
2.868344948764708
148
-4581603.303200401
149
-2032962.095032944
  0
PLOTSETTINGS
  5
AD4
102
{ACAD_REACTORS
330
A52
102
}
330
A52
100
AcDbPlotSettings
  1
2200-Color-Inkjet
  2
HP  2200 Color Inkjet.pc3
  4
Letter
  6

 40
7.143749713897705
 41
12.47775650024414
 42
7.14373779296875
 43
3.17498779296875
 44
215.8999938964843
 45
279.3999938964843
 46
0.0
 47
0.0
 48
180360.0524337165
 49
80033.77936194791
140
180369.1574725906
141
80037.61796031875
142
1.0
143
0.069393053089765
 70
  1712
 72
     0
 73
     1
 74
     1
  7
Color.ctb
 75
     0
147
14.41066440334347
148
-190.0773302744904
149
-129.2444057835751
  0
PLOTSETTINGS
  5
AD5
102
{ACAD_REACTORS
330
A52
102
}
330
A52
100
AcDbPlotSettings
  1
24x36 PDF
  2
Bluebeam PDF Printer.pc3
  4
User128
  6
PS1
 40
3.174999952316284
 41
3.174999952316284
 42
3.17498779296875
 43
3.17498779296875
 44
609.5999755859375
 45
914.3999633789062
 46
270.5099999999999
 47
416.3059999999999
 48
180377.877572
 49
80019.819395
140
180380.8390819999
141
80022.26069
142
1.0
143
1.0
 70
   692
 72
     0
 73
     1
 74
     4
  7
1055B&WFullDraftShaded.ctb
 75
    16
147
1.0
148
-4581598.0903288
149
-2032503.412632999
  0
PLOTSETTINGS
  5
AD6
102
{ACAD_REACTORS
330
A52
102
}
330
A52
100
AcDbPlotSettings
  1
8500 B&W Shaded 11x17
  2
8500B&WShaded.pc3
  4
11x17
  6
PS1
 40
5.027083396911621
 41
5.027085304260253
 42
5.027099609375
 43
5.027069091796875
 44
279.3999938964843
 45
431.7999877929687
 46
0.0
 47
92.964
 48
180377.877572
 49
80019.819395
140
180380.8390819999
141
80022.26069
142
1.0
143
0.0116192543742624
 70
   692
 72
     0
 73
     1
 74
     3
  7
8500B&WShaded.ctb
 75
     0
147
86.06404230335863
148
-4581651.879813895
149
-2032998.63613423
  0
PLOTSETTINGS
  5
AD7
102
{ACAD_REACTORS
330
A52
102
}
330
A52
100
AcDbPlotSettings
  1
8500 B&W Shaded 8.5x11
  2
8500B&WShaded.pc3
  4
Letter
  6
PS1
 40
5.027083396911621
 41
5.027085304260253
 42
5.027084350585937
 43
5.027069091796875
 44
215.8999938964843
 45
279.3999938964843
 46
0.0
 47
44.44999999999999
 48
180377.877572
 49
80019.819395
140
180380.8390819999
141
80022.26069
142
1.0
143
0.0152035994604527
 70
   692
 72
     0
 73
     1
 74
     3
  7
8500B&WShaded.ctb
 75
     0
147
65.77389799048455
148
-4581651.879813895
149
-2032998.63613423
  0
PLOTSETTINGS
  5
AD8
102
{ACAD_REACTORS
330
A52
102
}
330
A52
100
AcDbPlotSettings
  1
8500 Color Shaded 11x17
  2
8500ColorShaded.pc3
  4
11x17
  6
PS1
 40
5.027083396911621
 41
5.027085304260253
 42
5.027099609375
 43
5.027069091796875
 44
279.3999938964843
 45
431.7999877929687
 46
0.0
 47
92.964
 48
180377.877572
 49
80019.819395
140
180380.8390819999
141
80022.26069
142
1.0
143
0.0116192543742624
 70
   692
 72
     0
 73
     1
 74
     3
  7
8500ColorShaded.ctb
 75
     0
147
86.06404230335863
148
-4581651.879813895
149
-2032998.63613423
  0
PLOTSETTINGS
  5
AD9
102
{ACAD_REACTORS
330
A52
102
}
330
A52
100
AcDbPlotSettings
  1
8500 Color Shaded 8.5x11
  2
8500ColorShaded.pc3
  4
Letter
  6
PS1
 40
5.027083396911621
 41
5.027085304260253
 42
5.027084350585937
 43
5.027069091796875
 44
215.8999938964843
 45
279.3999938964843
 46
0.0
 47
44.44999999999999
 48
180377.877572
 49
80019.819395
140
180380.8390819999
141
80022.26069
142
1.0
143
0.0152035994604527
 70
   692
 72
     0
 73
     1
 74
     3
  7
8500ColorShaded.ctb
 75
     0
147
65.77389799048455
148
-4581651.879813895
149
-2032998.63613423
  0
PLOTSETTINGS
  5
ADA
102
{ACAD_REACTORS
330
A52
102
}
330
A52
100
AcDbPlotSettings
  1
8500-B&W-Shaded-11x17
  2
8500B&WShaded.pc3
  4
11x17
  6

 40
5.027083396911621
 41
5.027085304260253
 42
5.027099609375
 43
5.027069091796875
 44
279.3999938964843
 45
431.7999877929687
 46
0.0
 47
0.0
 48
180360.0524337165
 49
80033.77936194791
140
180369.1574725906
141
80037.61796031875
142
1.0
143
0.0519425466957002
 70
  1712
 72
     0
 73
     1
 74
     1
  7
8500B&WShaded.ctb
 75
     0
147
19.252040256293
148
-190.0773302744904
149
-129.2444057835751
  0
PLOTSETTINGS
  5
ADB
102
{ACAD_REACTORS
330
A52
102
}
330
A52
100
AcDbPlotSettings
  1
8500-B&W-Shaded-8.5x11
  2
8500B&WShaded.pc3
  4
Letter
  6

 40
5.027083396911621
 41
5.027085304260253
 42
5.027084350585937
 43
5.027069091796875
 44
215.8999938964843
 45
279.3999938964843
 46
0.0
 47
0.0
 48
180360.0524337165
 49
80033.77936194791
140
180369.1574725906
141
80037.61796031875
142
1.0
143
0.0679659511256221
 70
  1712
 72
     0
 73
     1
 74
     1
  7
8500B&WShaded.ctb
 75
     0
147
14.71324955273106
148
-190.0773302744904
149
-129.2444057835751
  0
PLOTSETTINGS
  5
ADC
102
{ACAD_REACTORS
330
A52
102
}
330
A52
100
AcDbPlotSettings
  1
8500-Color-Shaded-11x17
  2
8500ColorShaded.pc3
  4
11x17
  6

 40
5.027083396911621
 41
5.027085304260253
 42
5.027099609375
 43
5.027069091796875
 44
279.3999938964843
 45
431.7999877929687
 46
0.0
 47
0.0
 48
180360.0524337165
 49
80033.77936194791
140
180369.1574725906
141
80037.61796031875
142
1.0
143
0.0519425466957002
 70
  1712
 72
     0
 73
     1
 74
     1
  7
8500ColorShaded.ctb
 75
     0
147
19.252040256293
148
-190.0773302744904
149
-129.2444057835751
  0
PLOTSETTINGS
  5
ADD
102
{ACAD_REACTORS
330
A52
102
}
330
A52
100
AcDbPlotSettings
  1
8500-Color-Shaded-8.5x11
  2
8500ColorShaded.pc3
  4
Letter
  6

 40
5.027083396911621
 41
5.027085304260253
 42
5.027084350585937
 43
5.027069091796875
 44
215.8999938964843
 45
279.3999938964843
 46
0.0
 47
0.0
 48
180360.0524337165
 49
80033.77936194791
140
180369.1574725906
141
80037.61796031875
142
1.0
143
0.0679659511256221
 70
  1712
 72
     0
 73
     1
 74
     1
  7
8500ColorShaded.ctb
 75
     0
147
14.71324955273106
148
-190.0773302744904
149
-129.2444057835751
  0
PLOTSETTINGS
  5
ADE
102
{ACAD_REACTORS
330
A52
102
}
330
A52
100
AcDbPlotSettings
  1
Laser Jet 5 Shaded 11x17
  2
LaserJet5Shaded.pc3
  4
11x17
  6
PS1
 40
7.143749713897705
 41
5.873736858367919
 42
7.143768310546875
 43
7.14373779296875
 44
279.3999938964843
 45
431.7999877929687
 46
0.0
 47
29.71799999999999
 48
180377.877572
 49
80019.819395
140
180380.8390819999
141
80022.26069
142
1.0
143
0.2557442899420743
 70
   692
 72
     0
 73
     1
 74
     3
  7
LaserJet5Shaded.ctb
 75
     0
147
3.910155727138614
148
-4581603.303200401
149
-2032962.095032944
  0
PLOTSETTINGS
  5
ADF
102
{ACAD_REACTORS
330
A52
102
}
330
A52
100
AcDbPlotSettings
  1
Laser Jet 5 Shaded 8.5x11
  2
LaserJet5Shaded.pc3
  4
Letter
  6
PS1
 40
7.143749713897705
 41
6.974400997161865
 42
7.14373779296875
 43
6.297088623046875
 44
215.8999938964843
 45
279.3999938964843
 46
2.794
 47
0.0
 48
180377.877572
 49
80019.819395
140
180380.8390819999
141
80022.26069
142
1.0
143
0.345513616778612
 70
   692
 72
     0
 73
     1
 74
     3
  7
LaserJet5Shaded.ctb
 75
     0
147
2.894241938489939
148
-4581603.303200401
149
-2032962.095032944
  0
PLOTSETTINGS
  5
AE0
102
{ACAD_REACTORS
330
A52
102
}
330
A52
100
AcDbPlotSettings
  1
LaserJet5-Shaded-11x17
  2
LaserJet5Shaded.pc3
  4
11x17
  6

 40
7.143749713897705
 41
5.873736858367919
 42
7.143768310546875
 43
7.14373779296875
 44
279.3999938964843
 45
431.7999877929687
 46
0.0
 47
0.0
 48
180360.0524337165
 49
80033.77936194791
140
180369.1574725906
141
80037.61796031875
142
1.0
143
0.0527719690046124
 70
  1712
 72
     0
 73
     1
 74
     1
  7
LaserJet5Shaded.ctb
 75
     0
147
18.9494540162524
148
-190.0773302744904
149
-129.2444057835751
  0
PLOTSETTINGS
  5
AE1
102
{ACAD_REACTORS
330
A52
102
}
330
A52
100
AcDbPlotSettings
  1
LaserJet5-Shaded-8.5x11
  2
LaserJet5Shaded.pc3
  4
Letter
  6

 40
7.143749713897705
 41
6.974400997161865
 42
7.14373779296875
 43
6.297088623046875
 44
215.8999938964843
 45
279.3999938964843
 46
0.0
 47
0.0
 48
180360.0524337165
 49
80033.77936194791
140
180369.1574725906
141
80037.61796031875
142
1.0
143
0.069393053089765
 70
  1712
 72
     0
 73
     1
 74
     1
  7
LaserJet5Shaded.ctb
 75
     0
147
14.41066440334347
148
-190.0773302744904
149
-129.2444057835751
  0
PLOTSETTINGS
  5
AE2
102
{ACAD_REACTORS
330
A52
102
}
330
A52
100
AcDbPlotSettings
  1
Oki Doki B&W Shaded 11x17
  2
OKI DOKI Color Laser.pc3
  4
Tabloid
  6
PS1
 40
5.027083396911621
 41
5.027085304260253
 42
5.027099609375
 43
5.027069091796875
 44
279.3999938964843
 45
431.7999877929687
 46
0.0
 47
47.49799999999999
 48
180377.877572
 49
80019.819395
140
180380.8390819999
141
80022.26069
142
1.0
143
0.2302203728173071
 70
   692
 72
     0
 73
     1
 74
     4
  7
OKIB&WShaded.ctb
 75
     0
147
4.343664236846477
148
-4581598.0903288
149
-2032503.412632999
  0
PLOTSETTINGS
  5
AE3
102
{ACAD_REACTORS
330
A52
102
}
330
A52
100
AcDbPlotSettings
  1
Oki Doki B&W Shaded 8.5x11
  2
OKI DOKI Color Laser.pc3
  4
Letter
  6
PS1
 40
5.027083396911621
 41
5.027085304260253
 42
5.027084350585937
 43
5.027069091796875
 44
215.8999938964843
 45
279.3999938964843
 46
0.0
 47
9.906
 48
180377.877572
 49
80019.819395
140
180380.8390819999
141
80022.26069
142
1.0
143
0.3012394963745367
 70
   692
 72
     0
 73
     1
 74
     4
  7
OKIB&WShaded.ctb
 75
     0
147
3.319617819161008
148
-4581598.0903288
149
-2032503.412632999
  0
PLOTSETTINGS
  5
AE4
102
{ACAD_REACTORS
330
A52
102
}
330
A52
100
AcDbPlotSettings
  1
Oki Doki Color Laser
  2
OKI DOKI Color Laser.pc3
  4
Letter
  6
PS1
 40
5.027083396911621
 41
5.027085304260253
 42
5.027084350585937
 43
5.027069091796875
 44
215.8999938964843
 45
279.3999938964843
 46
71.88199999999999
 47
97.02799999999999
 48
180377.877572
 49
80019.819395
140
180380.8390819999
141
80022.26069
142
1.0
143
1.0
 70
   692
 72
     0
 73
     1
 74
     4
  7
Color.ctb
 75
    16
147
1.0
148
-4581598.0903288
149
-2032503.412632999
  0
PLOTSETTINGS
  5
AE5
102
{ACAD_REACTORS
330
A52
102
}
330
A52
100
AcDbPlotSettings
  1
Oki Doki Color Shaded 11x17
  2
OKI DOKI Color Laser.pc3
  4
Tabloid
  6
PS1
 40
5.027083396911621
 41
5.027085304260253
 42
5.027099609375
 43
5.027069091796875
 44
279.3999938964843
 45
431.7999877929687
 46
0.0
 47
47.49799999999999
 48
180377.877572
 49
80019.819395
140
180380.8390819999
141
80022.26069
142
1.0
143
0.2302203728173071
 70
   692
 72
     0
 73
     1
 74
     4
  7
OKIColorShaded.ctb
 75
     0
147
4.343664236846477
148
-4581598.0903288
149
-2032503.412632999
  0
PLOTSETTINGS
  5
AE6
102
{ACAD_REACTORS
330
A52
102
}
330
A52
100
AcDbPlotSettings
  1
Oki Doki Color Shaded 8.5x11
  2
OKI DOKI Color Laser.pc3
  4
Letter
  6
PS1
 40
5.027083396911621
 41
5.027085304260253
 42
5.027084350585937
 43
5.027069091796875
 44
215.8999938964843
 45
279.3999938964843
 46
0.0
 47
9.906
 48
180377.877572
 49
80019.819395
140
180380.8390819999
141
80022.26069
142
1.0
143
0.3012394963745367
 70
   692
 72
     0
 73
     1
 74
     4
  7
OKIColorShaded.ctb
 75
     0
147
3.319617819161008
148
-4581598.0903288
149
-2032503.412632999
  0
PLOTSETTINGS
  5
AE7
102
{ACAD_REACTORS
330
A52
102
}
330
A52
100
AcDbPlotSettings
  1
Oki-Doki-B&W-Shaded-11x17
  2
OKI DOKI Color Laser.pc3
  4
Tabloid
  6

 40
5.027083396911621
 41
5.027085304260253
 42
5.027099609375
 43
5.027069091796875
 44
279.3999938964843
 45
431.7999877929687
 46
45.72
 47
0.0
 48
180360.0524337165
 49
80033.77936194791
140
180369.1574725906
141
80037.61796031875
142
1.0
143
0.5483586774064594
 70
  1716
 72
     0
 73
     1
 74
     4
  7
OKIB&WShaded.ctb
 75
     0
147
1.823623918435361
148
-4581145.331816398
149
-2032857.995793476
  0
PLOTSETTINGS
  5
AE8
102
{ACAD_REACTORS
330
A52
102
}
330
A52
100
AcDbPlotSettings
  1
Oki-Doki-B&W-Shaded-8.5x11
  2
OKI DOKI Color Laser.pc3
  4
Letter
  6

 40
5.027083396911621
 41
5.027085304260253
 42
5.027084350585937
 43
5.027069091796875
 44
215.8999938964843
 45
279.3999938964843
 46
46.228
 47
0.0
 48
180360.0524337165
 49
80033.77936194791
140
180369.1574725906
141
80037.61796031875
142
1.0
143
0.8586284006917006
 70
  1716
 72
     0
 73
     1
 74
     4
  7
OKIB&WShaded.ctb
 75
     0
147
1.16464817515285
148
-4581145.331816398
149
-2032857.995793476
  0
PLOTSETTINGS
  5
AE9
102
{ACAD_REACTORS
330
A52
102
}
330
A52
100
AcDbPlotSettings
  1
Oki-Doki-Color-Laser
  2
OKI DOKI Color Laser.pc3
  4
Letter
  6

 40
5.027083396911621
 41
5.027085304260253
 42
5.027084350585937
 43
5.027069091796875
 44
215.8999938964843
 45
279.3999938964843
 46
17.018
 47
0.0
 48
180360.0524337165
 49
80033.77936194791
140
180369.1574725906
141
80037.61796031875
142
1.0
143
1.429088128819241
 70
  1716
 72
     0
 73
     1
 74
     0
  7
Color.ctb
 75
     0
147
0.6997469084193093
148
0.9506237099442977
149
8.593888772447144
  0
PLOTSETTINGS
  5
AEA
102
{ACAD_REACTORS
330
A52
102
}
330
A52
100
AcDbPlotSettings
  1
Oki-Doki-Color-Shaded-11x17
  2
OKI DOKI Color Laser.pc3
  4
Tabloid
  6

 40
5.027083396911621
 41
5.027085304260253
 42
5.027099609375
 43
5.027069091796875
 44
279.3999938964843
 45
431.7999877929687
 46
45.72
 47
0.0
 48
180360.0524337165
 49
80033.77936194791
140
180369.1574725906
141
80037.61796031875
142
1.0
143
0.5483586774064594
 70
  1716
 72
     0
 73
     1
 74
     4
  7
OKIColorShaded.ctb
 75
     0
147
1.823623918435361
148
-4581145.331816398
149
-2032857.995793476
  0
PLOTSETTINGS
  5
AEB
102
{ACAD_REACTORS
330
A52
102
}
330
A52
100
AcDbPlotSettings
  1
Oki-Doki-Color-Shaded-8.5x11
  2
OKI DOKI Color Laser.pc3
  4
Letter
  6

 40
5.027083396911621
 41
5.027085304260253
 42
5.027084350585937
 43
5.027069091796875
 44
215.8999938964843
 45
279.3999938964843
 46
46.228
 47
0.0
 48
180360.0524337165
 49
80033.77936194791
140
180369.1574725906
141
80037.61796031875
142
1.0
143
0.8586284006917006
 70
  1716
 72
     0
 73
     1
 74
     4
  7
OKIColorShaded.ctb
 75
     0
147
1.16464817515285
148
-4581145.331816398
149
-2032857.995793476
  0
ACDBPLACEHOLDER
  5
A49
102
{ACAD_REACTORS
330
A48
102
}
330
A48
  0
DICTIONARYVAR
  5
A83
102
{ACAD_REACTORS
330
A80
102
}
330
A80
100
DictionaryVariables
280
     0
  1
1
  0
DICTIONARYVAR
  5
A82
102
{ACAD_REACTORS
330
A80
102
}
330
A80
100
DictionaryVariables
280
     0
  1
1
  0
DICTIONARYVAR
  5
A81
102
{ACAD_REACTORS
330
A80
102
}
330
A80
100
DictionaryVariables
280
     0
  1
1
  0
ENDSEC
  0
EOF
