  0
SECTION
  2
HEADER
  9
$ACADVER
  1
AC1015
  9
$ACADMAINTVER
 70
    13
  9
$DWGCODEPAGE
  3
ANSI_1252
  9
$INSBASE
 10
0.0
 20
0.0
 30
0.0
  9
$EXTMIN
 10
0.0
 20
0.0
 30
0.0
  9
$EXTMAX
 10
16.48999999999999
 20
10.44
 30
0.03
  9
$LIMMIN
 10
0.0
 20
0.0
  9
$LIMMAX
 10
24.0
 20
36.0
  9
$ORTHOMODE
 70
     1
  9
$REGENMODE
 70
     1
  9
$FILLMODE
 70
     1
  9
$QTEXTMODE
 70
     0
  9
$MIRRTEXT
 70
     0
  9
$LTSCALE
 40
1.0
  9
$ATTMODE
 70
     1
  9
$TEXTSIZE
 40
0.15
  9
$TRACEWID
 40
0.05
  9
$TEXTSTYLE
  7
ROMANS
  9
$CLAYER
  8
0
  9
$CELTYPE
  6
ByLayer
  9
$CECOLOR
 62
   256
  9
$CELTSCALE
 40
1.0
  9
$DISPSILH
 70
     0
  9
$DIMSCALE
 40
1.0
  9
$DIMASZ
 40
0.18
  9
$DIMEXO
 40
0.0625
  9
$DIMDLI
 40
0.38
  9
$DIMRND
 40
0.0
  9
$DIMDLE
 40
0.0
  9
$DIMEXE
 40
0.18
  9
$DIMTP
 40
0.0
  9
$DIMTM
 40
0.0
  9
$DIMTXT
 40
0.18
  9
$DIMCEN
 40
0.09
  9
$DIMTSZ
 40
0.0
  9
$DIMTOL
 70
     0
  9
$DIMLIM
 70
     0
  9
$DIMTIH
 70
     1
  9
$DIMTOH
 70
     1
  9
$DIMSE1
 70
     0
  9
$DIMSE2
 70
     0
  9
$DIMTAD
 70
     0
  9
$DIMZIN
 70
     0
  9
$DIMBLK
  1

  9
$DIMASO
 70
     1
  9
$DIMSHO
 70
     1
  9
$DIMPOST
  1

  9
$DIMAPOST
  1

  9
$DIMALT
 70
     0
  9
$DIMALTD
 70
     2
  9
$DIMALTF
 40
25.4
  9
$DIMLFAC
 40
1.0
  9
$DIMTOFL
 70
     0
  9
$DIMTVP
 40
0.0
  9
$DIMTIX
 70
     0
  9
$DIMSOXD
 70
     0
  9
$DIMSAH
 70
     0
  9
$DIMBLK1
  1

  9
$DIMBLK2
  1

  9
$DIMSTYLE
  2
Standard
  9
$DIMCLRD
 70
     0
  9
$DIMCLRE
 70
     0
  9
$DIMCLRT
 70
     0
  9
$DIMTFAC
 40
1.0
  9
$DIMGAP
 40
0.09
  9
$DIMJUST
 70
     0
  9
$DIMSD1
 70
     0
  9
$DIMSD2
 70
     0
  9
$DIMTOLJ
 70
     1
  9
$DIMTZIN
 70
     0
  9
$DIMALTZ
 70
     0
  9
$DIMALTTZ
 70
     0
  9
$DIMUPT
 70
     0
  9
$DIMDEC
 70
     4
  9
$DIMTDEC
 70
     4
  9
$DIMALTU
 70
     2
  9
$DIMALTTD
 70
     2
  9
$DIMTXSTY
  7
Standard
  9
$DIMAUNIT
 70
     0
  9
$DIMADEC
 70
     0
  9
$DIMALTRND
 40
0.0
  9
$DIMAZIN
 70
     0
  9
$DIMDSEP
 70
    46
  9
$DIMATFIT
 70
     3
  9
$DIMFRAC
 70
     0
  9
$DIMLDRBLK
  1

  9
$DIMLUNIT
 70
     2
  9
$DIMLWD
 70
    -2
  9
$DIMLWE
 70
    -2
  9
$DIMTMOVE
 70
     0
  9
$LUNITS
 70
     2
  9
$LUPREC
 70
     4
  9
$SKETCHINC
 40
0.1
  9
$FILLETRAD
 40
0.0
  9
$AUNITS
 70
     0
  9
$AUPREC
 70
     0
  9
$MENU
  1
.
  9
$ELEVATION
 40
0.0
  9
$PELEVATION
 40
0.0
  9
$THICKNESS
 40
0.0
  9
$LIMCHECK
 70
     0
  9
$CHAMFERA
 40
0.5
  9
$CHAMFERB
 40
0.5
  9
$CHAMFERC
 40
1.0
  9
$CHAMFERD
 40
0.0
  9
$SKPOLY
 70
     0
  9
$TDCREATE
 40
2452864.289149051
  9
$TDUCREATE
 40
2452864.580815717
  9
$TDUPDATE
 40
2453025.662625104
  9
$TDUUPDATE
 40
2453025.954291770
  9
$TDINDWG
 40
2.1108253241
  9
$TDUSRTIMER
 40
2.1108248611
  9
$USRTIMER
 70
     1
  9
$ANGBASE
 50
0.0
  9
$ANGDIR
 70
     0
  9
$PDMODE
 70
     0
  9
$PDSIZE
 40
0.0
  9
$PLINEWID
 40
0.0
  9
$SPLFRAME
 70
     0
  9
$SPLINETYPE
 70
     6
  9
$SPLINESEGS
 70
     8
  9
$HANDSEED
  5
1920
  9
$SURFTAB1
 70
     6
  9
$SURFTAB2
 70
     6
  9
$SURFTYPE
 70
     6
  9
$SURFU
 70
     6
  9
$SURFV
 70
     6
  9
$UCSBASE
  2

  9
$UCSNAME
  2

  9
$UCSORG
 10
0.0
 20
0.0
 30
0.0
  9
$UCSXDIR
 10
1.0
 20
0.0
 30
0.0
  9
$UCSYDIR
 10
0.0
 20
1.0
 30
0.0
  9
$UCSORTHOREF
  2

  9
$UCSORTHOVIEW
 70
     0
  9
$UCSORGTOP
 10
0.0
 20
0.0
 30
0.0
  9
$UCSORGBOTTOM
 10
0.0
 20
0.0
 30
0.0
  9
$UCSORGLEFT
 10
0.0
 20
0.0
 30
0.0
  9
$UCSORGRIGHT
 10
0.0
 20
0.0
 30
0.0
  9
$UCSORGFRONT
 10
0.0
 20
0.0
 30
0.0
  9
$UCSORGBACK
 10
0.0
 20
0.0
 30
0.0
  9
$PUCSBASE
  2

  9
$PUCSNAME
  2

  9
$PUCSORG
 10
0.0
 20
0.0
 30
0.0
  9
$PUCSXDIR
 10
1.0
 20
0.0
 30
0.0
  9
$PUCSYDIR
 10
0.0
 20
1.0
 30
0.0
  9
$PUCSORTHOREF
  2

  9
$PUCSORTHOVIEW
 70
     0
  9
$PUCSORGTOP
 10
0.0
 20
0.0
 30
0.0
  9
$PUCSORGBOTTOM
 10
0.0
 20
0.0
 30
0.0
  9
$PUCSORGLEFT
 10
0.0
 20
0.0
 30
0.0
  9
$PUCSORGRIGHT
 10
0.0
 20
0.0
 30
0.0
  9
$PUCSORGFRONT
 10
0.0
 20
0.0
 30
0.0
  9
$PUCSORGBACK
 10
0.0
 20
0.0
 30
0.0
  9
$USERI1
 70
     0
  9
$USERI2
 70
     0
  9
$USERI3
 70
     0
  9
$USERI4
 70
     0
  9
$USERI5
 70
     0
  9
$USERR1
 40
0.0
  9
$USERR2
 40
0.0
  9
$USERR3
 40
0.0
  9
$USERR4
 40
0.0
  9
$USERR5
 40
0.0
  9
$WORLDVIEW
 70
     1
  9
$SHADEDGE
 70
     3
  9
$SHADEDIF
 70
    70
  9
$TILEMODE
 70
     1
  9
$MAXACTVP
 70
    64
  9
$PINSBASE
 10
0.0
 20
0.0
 30
0.0
  9
$PLIMCHECK
 70
     0
  9
$PEXTMIN
 10
1.000000000000000E+20
 20
1.000000000000000E+20
 30
1.000000000000000E+20
  9
$PEXTMAX
 10
-1.000000000000000E+20
 20
-1.000000000000000E+20
 30
-1.000000000000000E+20
  9
$PLIMMIN
 10
0.0
 20
0.0
  9
$PLIMMAX
 10
12.0
 20
9.0
  9
$UNITMODE
 70
     0
  9
$VISRETAIN
 70
     1
  9
$PLINEGEN
 70
     1
  9
$PSLTSCALE
 70
     1
  9
$TREEDEPTH
 70
 -3020
  9
$CMLSTYLE
  2
Standard
  9
$CMLJUST
 70
     0
  9
$CMLSCALE
 40
1.0
  9
$PROXYGRAPHICS
 70
     1
  9
$MEASUREMENT
 70
     0
  9
$CELWEIGHT
370
    -1
  9
$ENDCAPS
280
     0
  9
$JOINSTYLE
280
     0
  9
$LWDISPLAY
290
     0
  9
$INSUNITS
 70
     1
  9
$HYPERLINKBASE
  1

  9
$STYLESHEET
  1
OKIColorShaded.ctb
  9
$XEDIT
290
     1
  9
$CEPSNTYPE
380
     0
  9
$PSTYLEMODE
290
     1
  9
$FINGERPRINTGUID
  2
{BC79C50D-B291-418F-A1E8-0DB444652ED4}
  9
$VERSIONGUID
  2
{A648F0CF-DDD1-47FA-8147-867434EF855E}
  9
$EXTNAMES
290
     1
  9
$PSVPSCALE
 40
0.0
  9
$OLESTARTUP
290
     0
  0
ENDSEC
  0
SECTION
  2
CLASSES
  0
CLASS
  1
ACDBDICTIONARYWDFLT
  2
AcDbDictionaryWithDefault
  3
AutoCAD 2000
 90
        0
280
     0
281
     0
  0
CLASS
  1
ACDBPLACEHOLDER
  2
AcDbPlaceHolder
  3
AutoCAD 2000
 90
        0
280
     0
281
     0
  0
CLASS
  1
LAYOUT
  2
AcDbLayout
  3
AutoCAD 2000
 90
        0
280
     0
281
     0
  0
CLASS
  1
DICTIONARYVAR
  2
AcDbDictionaryVar
  3
AutoCAD 2000
 90
        0
280
     0
281
     0
  0
CLASS
  1
DIMASSOC
  2
AcDbDimAssoc
  3
"AcDbDimAssoc|Product Desc:     AcDim ARX App For Dimension|Company:          Autodesk, Inc.|WEB Address:      www.autodesk.com"
 90
        0
280
     0
281
     0
  0
ENDSEC
  0
SECTION
  2
TABLES
  0
TABLE
  2
VPORT
  5
8
330
0
100
AcDbSymbolTable
 70
     2
  0
VPORT
  5
191F
330
8
100
AcDbSymbolTableRecord
100
AcDbViewportTableRecord
  2
*Active
 70
     0
 10
0.0
 20
0.0
 11
1.0
 21
1.0
 12
8.2454224147897
 22
5.220153877535086
 13
0.0
 23
0.0
 14
0.5
 24
0.5
 15
0.5
 25
0.5
 16
0.0
 26
0.0
 36
1.0
 17
0.0
 27
0.0
 37
0.0
 40
10.53129791753739
 41
1.609655172413793
 42
50.0
 43
0.0
 44
0.0
 50
0.0
 51
0.0
 71
     0
 72
 20000
 73
     1
 74
     1
 75
     0
 76
     0
 77
     0
 78
     0
281
     0
 65
     1
110
0.0
120
0.0
130
0.0
111
1.0
121
0.0
131
0.0
112
0.0
122
1.0
132
0.0
 79
     0
146
0.0
  0
ENDTAB
  0
TABLE
  2
LTYPE
  5
5
330
0
100
AcDbSymbolTable
 70
     1
  0
LTYPE
  5
14
330
5
100
AcDbSymbolTableRecord
100
AcDbLinetypeTableRecord
  2
ByBlock
 70
     0
  3

 72
    65
 73
     0
 40
0.0
  0
LTYPE
  5
15
330
5
100
AcDbSymbolTableRecord
100
AcDbLinetypeTableRecord
  2
ByLayer
 70
     0
  3

 72
    65
 73
     0
 40
0.0
  0
LTYPE
  5
16
330
5
100
AcDbSymbolTableRecord
100
AcDbLinetypeTableRecord
  2
Continuous
 70
     0
  3
Solid line
 72
    65
 73
     0
 40
0.0
  0
ENDTAB
  0
TABLE
  2
LAYER
  5
2
102
{ACAD_XDICTIONARY
360
183B
102
}
330
0
100
AcDbSymbolTable
 70
     4
  0
LAYER
  5
10
330
2
100
AcDbSymbolTableRecord
100
AcDbLayerTableRecord
  2
0
 70
     0
 62
     7
  6
Continuous
370
    -3
390
F
  0
LAYER
  5
2F
330
2
100
AcDbSymbolTableRecord
100
AcDbLayerTableRecord
  2
image
 70
     0
 62
     7
  6
Continuous
370
    -3
390
F
  0
LAYER
  5
AF9
330
2
100
AcDbSymbolTableRecord
100
AcDbLayerTableRecord
  2
TEXT_BUBBLES
 70
     0
 62
     6
  6
Continuous
370
    -3
390
F
  0
LAYER
  5
18E5
330
2
100
AcDbSymbolTableRecord
100
AcDbLayerTableRecord
  2
TITLE
 70
     0
 62
     4
  6
Continuous
370
    -3
390
F
  0
ENDTAB
  0
TABLE
  2
STYLE
  5
3
330
0
100
AcDbSymbolTable
 70
     6
  0
STYLE
  5
11
330
3
100
AcDbSymbolTableRecord
100
AcDbTextStyleTableRecord
  2
Standard
 70
     0
 40
0.0
 41
1.0
 50
0.0
 71
     0
 42
0.2
  3
txt
  4

  0
STYLE
  5
925
330
3
100
AcDbSymbolTableRecord
100
AcDbTextStyleTableRecord
  2
ROMANS
 70
     0
 40
0.0
 41
1.0
 50
0.0
 71
     0
 42
0.15
  3
ROMANS.SHX
  4

  0
STYLE
  5
EAB
330
3
100
AcDbSymbolTableRecord
100
AcDbTextStyleTableRecord
  2
ARIALN
 70
     0
 40
0.0
 41
1.0
 50
0.0
 71
     0
 42
0.07
  3
ARIALN.TTF
  4

1001
ACAD
1000
Arial Narrow
1071
       34
  0
STYLE
  5
18E6
330
3
100
AcDbSymbolTableRecord
100
AcDbTextStyleTableRecord
  2
L100
 70
     0
 40
0.1
 41
1.0
 50
0.0
 71
     0
 42
0.1
  3
romans.shx
  4

  0
STYLE
  5
18E7
330
3
100
AcDbSymbolTableRecord
100
AcDbTextStyleTableRecord
  2
L200
 70
     0
 40
0.2
 41
1.0
 50
0.0
 71
     0
 42
0.081
  3
ARIAL.TTF
  4

1001
ACAD
1000
Arial
1071
       34
  0
STYLE
  5
18E8
330
3
100
AcDbSymbolTableRecord
100
AcDbTextStyleTableRecord
  2
L80
 70
     0
 40
0.08
 41
1.0
 50
0.0
 71
     0
 42
0.08
  3
ROMANS
  4

  0
ENDTAB
  0
TABLE
  2
VIEW
  5
6
330
0
100
AcDbSymbolTable
 70
     0
  0
ENDTAB
  0
TABLE
  2
UCS
  5
7
330
0
100
AcDbSymbolTable
 70
     0
  0
ENDTAB
  0
TABLE
  2
APPID
  5
9
330
0
100
AcDbSymbolTable
 70
     3
  0
APPID
  5
12
330
9
100
AcDbSymbolTableRecord
100
AcDbRegAppTableRecord
  2
ACAD
 70
     0
  0
APPID
  5
926
330
9
100
AcDbSymbolTableRecord
100
AcDbRegAppTableRecord
  2
RAK
 70
     0
  0
APPID
  5
18E9
330
9
100
AcDbSymbolTableRecord
100
AcDbRegAppTableRecord
  2
DCO15
 70
     0
  0
ENDTAB
  0
TABLE
  2
DIMSTYLE
  5
A
330
0
100
AcDbSymbolTable
 70
     1
100
AcDbDimStyleTable
 71
     0
  0
DIMSTYLE
105
27
330
A
100
AcDbSymbolTableRecord
100
AcDbDimStyleTableRecord
  2
Standard
 70
     0
340
11
  0
ENDTAB
  0
TABLE
  2
BLOCK_RECORD
  5
1
330
0
100
AcDbSymbolTable
 70
     4
  0
BLOCK_RECORD
  5
1F
330
1
100
AcDbSymbolTableRecord
100
AcDbBlockTableRecord
  2
*Model_Space
340
22
  0
BLOCK_RECORD
  5
1B
330
1
100
AcDbSymbolTableRecord
100
AcDbBlockTableRecord
  2
*Paper_Space
340
1E
  0
BLOCK_RECORD
  5
23
330
1
100
AcDbSymbolTableRecord
100
AcDbBlockTableRecord
  2
*Paper_Space0
340
26
  0
BLOCK_RECORD
  5
16C3
330
1
100
AcDbSymbolTableRecord
100
AcDbBlockTableRecord
  2
bubble
340
0
310
2800000020000000200000000100080000000000000400000000000000000000000000000000000000000000000080000080000000808000800000008000800080800000C0C0C000C0DCC000F0CAA6000020400000206000002080000020A0000020C0000020E00000400000004020000040400000406000004080000040A0
310
000040C0000040E00000600000006020000060400000606000006080000060A0000060C0000060E00000800000008020000080400000806000008080000080A0000080C0000080E00000A0000000A0200000A0400000A0600000A0800000A0A00000A0C00000A0E00000C0000000C0200000C0400000C0600000C0800000C0
310
A00000C0C00000C0E00000E0000000E0200000E0400000E0600000E0800000E0A00000E0C00000E0E00040000000400020004000400040006000400080004000A0004000C0004000E00040200000402020004020400040206000402080004020A0004020C0004020E000404000004040200040404000404060004040800040
310
40A0004040C0004040E00040600000406020004060400040606000406080004060A0004060C0004060E00040800000408020004080400040806000408080004080A0004080C0004080E00040A0000040A0200040A0400040A0600040A0800040A0A00040A0C00040A0E00040C0000040C0200040C0400040C0600040C08000
310
40C0A00040C0C00040C0E00040E0000040E0200040E0400040E0600040E0800040E0A00040E0C00040E0E00080000000800020008000400080006000800080008000A0008000C0008000E00080200000802020008020400080206000802080008020A0008020C0008020E00080400000804020008040400080406000804080
310
008040A0008040C0008040E00080600000806020008060400080606000806080008060A0008060C0008060E00080800000808020008080400080806000808080008080A0008080C0008080E00080A0000080A0200080A0400080A0600080A0800080A0A00080A0C00080A0E00080C0000080C0200080C0400080C0600080C0
310
800080C0A00080C0C00080C0E00080E0000080E0200080E0400080E0600080E0800080E0A00080E0C00080E0E000C0000000C0002000C0004000C0006000C0008000C000A000C000C000C000E000C0200000C0202000C0204000C0206000C0208000C020A000C020C000C020E000C0400000C0402000C0404000C0406000C0
310
408000C040A000C040C000C040E000C0600000C0602000C0604000C0606000C0608000C060A000C060C000C060E000C0800000C0802000C0804000C0806000C0808000C080A000C080C000C080E000C0A00000C0A02000C0A04000C0A06000C0A08000C0A0A000C0A0C000C0A0E000C0C00000C0C02000C0C04000C0C06000
310
C0C08000C0C0A000F0FBFF00A4A0A000808080000000FF0000FF000000FFFF00FF000000FF00FF00FFFF0000FFFFFF0008080808080808080808080808080808080808080808080808080808080808080808080808080808080808080808080808080808080808080808080808080808080808080808080808080808FDFDFD
310
08080808080808080808080808080808080808080808080808080808FD080808FDFDFDFDFDFD0808080808080808080808080808080808080808FDFD08080808080808080808FDFDFDFD080808080808080808080808080808FD08080808080808080808080808080808FD08080808080808080808080808FD080808080808
310
0808080808080808080808FD0808080808080808080808FDFD08080808080808080808080808080808080808FD080808080808080808FD080808080808080808080808080808080808080808FD0808080808080808FD08FD0808080808080808FD0808FD0808080808080808FDFD08080808080808FD0808FD080808080808
310
FD08080808FD080808080808FD08FD08080808080808FD0808FD080808080808FD08080808FD080808080808FD0808FD080808080808FD080808FD08080808FD080808080808FD08080808FD080808FD080808080808FD08080808FD0808FD0808080808080808FD0808FD0808080808FD0808080808FD08080808FD0808FD
310
0808080808080808FD0808FD0808080808FD0808080808FD0808080808FDFD08080808080808080808FDFD08080808080808FD08080808FD0808080808FDFD08080808080808080808FDFD08080808080808FD08080808FD08080808FD0808FD0808080808080808FD0808FD0808080808FD0808080808FD08080808FD0808
310
FD0808080808080808FD0808FD0808080808FD0808080808FD080808FD08080808FD080808080808FD08080808FD080808FD080808080808FD0808FD080808080808FD08080808FD080808080808FD0808FD080808080808FD0808FD080808080808FD08080808FD080808080808FD08FD08080808080808FD08FD08080808
310
08080808FD0808FD0808080808080808FDFD0808080808080808FD080808080808080808080808080808080808080808FD08080808080808080808FDFD08080808080808080808080808080808080808FD080808080808080808080808FD0808080808080808080808080808080808FD0808080808080808080808080808FD
310
08080808080808080808080808080808FD080808080808080808080808080808FDFD0808080808080808080808FDFDFD080808080808080808080808080808080808FD08080808FDFDFDFDFDFD08080808080808080808080808080808080808080808FDFDFDFD080808080808080808080808080808080808080808080808
310
0808080808080808080808080808080808080808080808080808080808080808080808080808080808080808080808080808080808080808
102
{BLKREFS
331
16D3
331
16D6
331
16D9
331
16DC
331
16DF
331
16E2
331
16E5
331
16E8
331
16FF
331
1702
331
18A0
331
18A4
331
18A7
331
18AF
102
}
  0
BLOCK_RECORD
  5
1725
330
1
100
AcDbSymbolTableRecord
100
AcDbBlockTableRecord
  2
RBLOGOFILLED
340
0
102
{BLKREFS
331
1832
102
}
  0
BLOCK_RECORD
  5
18EA
330
1
100
AcDbSymbolTableRecord
100
AcDbBlockTableRecord
  2
titleblock
340
0
102
{BLKREFS
331
18F9
102
}
  0
ENDTAB
  0
ENDSEC
  0
SECTION
  2
BLOCKS
  0
BLOCK
  5
20
330
1F
100
AcDbEntity
  8
0
100
AcDbBlockBegin
  2
*Model_Space
 70
     0
 10
0.0
 20
0.0
 30
0.0
  3
*Model_Space
  1

  0
ENDBLK
  5
21
330
1F
100
AcDbEntity
  8
0
100
AcDbBlockEnd
  0
BLOCK
  5
1C
330
1B
100
AcDbEntity
 67
     1
  8
0
100
AcDbBlockBegin
  2
*Paper_Space
 70
     0
 10
0.0
 20
0.0
 30
0.0
  3
*Paper_Space
  1

  0
ENDBLK
  5
1D
330
1B
100
AcDbEntity
 67
     1
  8
0
100
AcDbBlockEnd
  0
BLOCK
  5
24
330
23
100
AcDbEntity
  8
0
100
AcDbBlockBegin
  2
*Paper_Space0
 70
     0
 10
0.0
 20
0.0
 30
0.0
  3
*Paper_Space0
  1

  0
ENDBLK
  5
25
330
23
100
AcDbEntity
  8
0
100
AcDbBlockEnd
  0
BLOCK
  5
16C6
330
16C3
100
AcDbEntity
  8
0
100
AcDbBlockBegin
  2
bubble
 70
     2
 10
0.0
 20
0.0
 30
0.0
  3
bubble
  1

  0
CIRCLE
  5
16C4
330
16C3
100
AcDbEntity
  8
TEXT_BUBBLES
100
AcDbCircle
 10
0.0
 20
0.0
 30
0.0
 40
0.1398891854377198
  0
ATTDEF
  5
16C5
330
16C3
100
AcDbEntity
  8
TEXT_BUBBLES
100
AcDbText
 10
0.0
 20
0.0
 30
0.0
 40
0.125
  1

  7
ROMANS
 72
     4
 11
0.0
 21
0.0
 31
0.0
100
AcDbAttributeDefinition
  3
Number
  2
XX
 70
     0
  0
ENDBLK
  5
16C7
330
16C3
100
AcDbEntity
  8
0
100
AcDbBlockEnd
  0
BLOCK
  5
1830
330
1725
100
AcDbEntity
  8
0
100
AcDbBlockBegin
  2
RBLOGOFILLED
 70
     0
 10
0.0
 20
0.0
 30
0.0
  3
RBLOGOFILLED
  1

  0
LINE
  5
1726
102
{ACAD_REACTORS
330
182A
102
}
330
1725
100
AcDbEntity
  8
0
  6
Continuous
 62
     7
100
AcDbLine
 10
37.92920047872421
 20
1.127144547772751
 30
0.0
 11
42.89779917989046
 21
1.127144547772751
 31
0.0
  0
LINE
  5
1727
102
{ACAD_REACTORS
330
182A
102
}
330
1725
100
AcDbEntity
  8
0
  6
Continuous
 62
     7
100
AcDbLine
 10
42.08147334787933
 20
9.855551803380429
 30
0.0
 11
37.92920047872421
 21
1.127144547772751
 31
0.0
  0
LINE
  5
1728
102
{ACAD_REACTORS
330
1825
102
}
330
1725
100
AcDbEntity
  8
0
  6
Continuous
 62
     7
100
AcDbLine
 10
4.703168134317834
 20
9.855551803380439
 30
0.0
 11
0.5587445655098797
 21
1.127144547772762
 31
0.0
  0
LINE
  5
1729
102
{ACAD_REACTORS
330
1825
102
}
330
1725
100
AcDbEntity
  8
0
  6
Continuous
 62
     7
100
AcDbLine
 10
0.5587445655098797
 20
1.127144547772762
 30
0.0
 11
2.866434920578474
 21
1.127144547772762
 31
0.0
  0
LINE
  5
172A
102
{ACAD_REACTORS
330
1829
102
}
330
1725
100
AcDbEntity
  8
0
  6
Continuous
 62
     7
100
AcDbLine
 10
32.97630028743421
 20
2.045511108635897
 30
0.0
 11
34.04380329199927
 21
3.811600705288836
 31
0.0
  0
LINE
  5
172B
102
{ACAD_REACTORS
330
1828
102
}
330
1725
100
AcDbEntity
  8
0
  6
Continuous
 62
     7
100
AcDbLine
 10
22.04224331598682
 20
4.455242283374604
 30
0.0
 11
22.56029626178907
 21
1.127144547772751
 31
0.0
  0
LINE
  5
172C
102
{ACAD_REACTORS
330
1828
102
}
330
1725
100
AcDbEntity
  8
0
  6
Continuous
 62
     7
100
AcDbLine
 10
20.48808447738508
 20
1.127144547772751
 30
0.0
 11
22.04224331598682
 21
4.455242283374604
 31
0.0
  0
LINE
  5
172D
102
{ACAD_REACTORS
330
1828
102
}
330
1725
100
AcDbEntity
  8
0
  6
Continuous
 62
     7
100
AcDbLine
 10
24.63250804619305
 20
1.127144547772751
 30
0.0
 11
27.63878508416762
 21
7.524313546075333
 31
0.0
  0
LINE
  5
172E
102
{ACAD_REACTORS
330
1829
102
}
330
1725
100
AcDbEntity
  8
0
  6
Continuous
 62
     7
100
AcDbLine
 10
26.59482989102095
 20
4.219763621891893
 30
0.0
 11
31.58697649442374
 21
1.802183237624106
 31
0.0
  0
LINE
  5
172F
102
{ACAD_REACTORS
330
1826
102
}
330
1725
100
AcDbEntity
  8
0
  6
Continuous
 62
     7
100
AcDbLine
 10
14.59326991381352
 20
1.127144547772762
 30
0.0
 11
15.41744504736681
 21
7.524313546075344
 31
0.0
  0
LINE
  5
1730
102
{ACAD_REACTORS
330
1827
102
}
330
1725
100
AcDbEntity
  8
0
  6
Continuous
 62
     7
100
AcDbLine
 10
18.07835339346448
 20
7.524313546075333
 30
0.0
 11
15.08777495737925
 21
1.127144547772762
 31
0.0
  0
LINE
  5
1731
102
{ACAD_REACTORS
330
1825
102
}
330
1725
100
AcDbEntity
  8
0
  6
Continuous
 62
     7
100
AcDbLine
 10
7.442569307031018
 20
1.127144547772762
 30
0.0
 11
6.539901348057216
 21
4.298256539325508
 31
0.0
  0
LINE
  5
1732
102
{ACAD_REACTORS
330
1825
102
}
330
1725
100
AcDbEntity
  8
0
  6
Continuous
 62
     7
100
AcDbLine
 10
2.866434920578474
 20
1.127144547772762
 30
0.0
 11
4.3734980443303
 21
4.321804350743921
 31
0.0
  0
LINE
  5
1733
102
{ACAD_REACTORS
330
1825
102
}
330
1725
100
AcDbEntity
  8
0
  6
Continuous
 62
     7
100
AcDbLine
 10
4.3734980443303
 20
4.321804350743921
 30
0.0
 11
5.291864697206515
 21
1.127144547772762
 31
0.0
  0
LINE
  5
1734
102
{ACAD_REACTORS
330
1826
102
}
330
1725
100
AcDbEntity
  8
0
  6
Continuous
 62
     7
100
AcDbLine
 10
12.54460594082797
 20
7.524313546075344
 30
0.0
 11
7.780088697365748
 21
1.127144547772762
 31
0.0
  0
LINE
  5
1735
102
{ACAD_REACTORS
330
1827
102
}
330
1725
100
AcDbEntity
  8
0
  6
Continuous
 62
     7
100
AcDbLine
 10
17.15998674178324
 20
1.127144547772751
 30
0.0
 11
20.15056517786847
 21
7.524313546075333
 31
0.0
  0
LINE
  5
1736
102
{ACAD_REACTORS
330
1828
102
}
330
1725
100
AcDbEntity
  8
0
  6
Continuous
 62
     7
100
AcDbLine
 10
21.4143003397904
 20
7.524313546075333
 30
0.0
 11
18.42372199452328
 21
1.127144547772751
 31
0.0
  0
LINE
  5
1737
102
{ACAD_REACTORS
330
1828
102
}
330
1725
100
AcDbEntity
  8
0
  6
Continuous
 62
     7
100
AcDbLine
 10
18.42372199452328
 20
1.127144547772751
 30
0.0
 11
20.48808447738508
 21
1.127144547772751
 31
0.0
  0
LINE
  5
1738
102
{ACAD_REACTORS
330
1826
102
}
330
1725
100
AcDbEntity
  8
0
  6
Continuous
 62
     7
100
AcDbLine
 10
10.80206424641154
 20
2.124004026069513
 30
0.0
 11
12.70159168487707
 21
2.131853236793567
 31
0.0
  0
LINE
  5
1739
102
{ACAD_REACTORS
330
1825
102
}
330
1725
100
AcDbEntity
  8
0
  6
Continuous
 62
     7
100
AcDbLine
 10
5.291864697206515
 20
1.127144547772762
 30
0.0
 11
7.442569307031018
 21
1.127144547772762
 31
0.0
  0
LINE
  5
173A
102
{ACAD_REACTORS
330
1826
102
}
330
1725
100
AcDbEntity
  8
0
  6
Continuous
 62
     7
100
AcDbLine
 10
7.780088697365748
 20
1.127144547772762
 30
0.0
 11
10.05638193947377
 21
1.127144547772762
 31
0.0
  0
LINE
  5
173B
102
{ACAD_REACTORS
330
1826
102
}
330
1725
100
AcDbEntity
  8
0
  6
Continuous
 62
     7
100
AcDbLine
 10
10.05638193947377
 20
1.127144547772762
 30
0.0
 11
10.80206424641154
 21
2.124004026069513
 31
0.0
  0
LINE
  5
173C
102
{ACAD_REACTORS
330
1827
102
}
330
1725
100
AcDbEntity
  8
0
  6
Continuous
 62
     7
100
AcDbLine
 10
15.08777495737925
 20
1.127144547772762
 30
0.0
 11
17.15998674178324
 21
1.127144547772751
 31
0.0
  0
LINE
  5
173D
102
{ACAD_REACTORS
330
1826
102
}
330
1725
100
AcDbEntity
  8
0
  6
Continuous
 62
     7
100
AcDbLine
 10
12.50535952752021
 20
1.134993848119935
 30
0.0
 11
14.59326991381352
 21
1.127144547772762
 31
0.0
  0
LINE
  5
173E
102
{ACAD_REACTORS
330
1826
102
}
330
1725
100
AcDbEntity
  8
0
  6
Continuous
 62
     7
100
AcDbLine
 10
12.70159168487707
 20
2.131853236793567
 30
0.0
 11
12.50535952752021
 21
1.134993848119935
 31
0.0
  0
LINE
  5
173F
102
{ACAD_REACTORS
330
1828
102
}
330
1725
100
AcDbEntity
  8
0
  6
Continuous
 62
     7
100
AcDbLine
 10
22.56029626178907
 20
1.127144547772751
 30
0.0
 11
24.63250804619305
 21
1.127144547772751
 31
0.0
  0
LINE
  5
1740
102
{ACAD_REACTORS
330
1829
102
}
330
1725
100
AcDbEntity
  8
0
  6
Continuous
 62
     7
100
AcDbLine
 10
32.12857725283937
 20
1.645197493574999
 30
0.0
 11
32.35620661277993
 21
1.645197493574999
 31
0.0
  0
LINE
  5
1741
102
{ACAD_REACTORS
330
1829
102
}
330
1725
100
AcDbEntity
  8
0
  6
Continuous
 62
     7
100
AcDbLine
 10
31.85385217804891
 20
1.700142508772088
 30
0.0
 11
32.12857725283937
 21
1.645197493574999
 31
0.0
  0
LINE
  5
1742
102
{ACAD_REACTORS
330
1829
102
}
330
1725
100
AcDbEntity
  8
0
  6
Continuous
 62
     7
100
AcDbLine
 10
31.58697649442374
 20
1.802183237624106
 30
0.0
 11
31.85385217804891
 21
1.700142508772088
 31
0.0
  0
LINE
  5
1743
102
{ACAD_REACTORS
330
1829
102
}
330
1725
100
AcDbEntity
  8
0
  6
Continuous
 62
     7
100
AcDbLine
 10
32.35620661277993
 20
1.645197493574999
 30
0.0
 11
32.57950452971825
 21
1.715841018648341
 31
0.0
  0
LINE
  5
1744
102
{ACAD_REACTORS
330
1829
102
}
330
1725
100
AcDbEntity
  8
0
  6
Continuous
 62
     7
100
AcDbLine
 10
32.57950452971825
 20
1.715841018648341
 30
0.0
 11
32.79576664114857
 21
1.849278951279035
 31
0.0
  0
LINE
  5
1745
102
{ACAD_REACTORS
330
1829
102
}
330
1725
100
AcDbEntity
  8
0
  6
Continuous
 62
     7
100
AcDbLine
 10
32.79576664114857
 20
1.849278951279035
 30
0.0
 11
32.97630028743421
 21
2.045511108635897
 31
0.0
  0
LINE
  5
1746
102
{ACAD_REACTORS
330
1825
102
}
330
1725
100
AcDbEntity
  8
0
  6
Continuous
 62
     7
100
AcDbLine
 10
7.740842284057982
 20
7.414423516876142
 30
0.0
 11
7.521062224464624
 21
6.864973367295206
 31
0.0
  0
LINE
  5
1747
102
{ACAD_REACTORS
330
1825
102
}
330
1725
100
AcDbEntity
  8
0
  6
Continuous
 62
     7
100
AcDbLine
 10
5.229070380467278
 20
6.119291151175547
 30
0.0
 11
6.210231258069661
 21
8.191502935579519
 31
0.0
  0
LINE
  5
1748
102
{ACAD_REACTORS
330
1825
102
}
330
1725
100
AcDbEntity
  8
0
  6
Continuous
 62
     7
100
AcDbLine
 10
9.69531473772062
 20
6.448961150344987
 30
0.0
 11
9.891546895077482
 21
7.100452028777929
 31
0.0
  0
LINE
  5
1749
102
{ACAD_REACTORS
330
1825
102
}
330
1725
100
AcDbEntity
  8
0
  6
Continuous
 62
     7
100
AcDbLine
 10
6.602695572783363
 20
6.134989662246774
 30
0.0
 11
5.229070380467278
 21
6.119291151175547
 31
0.0
  0
LINE
  5
174A
102
{ACAD_REACTORS
330
1825
102
}
330
1725
100
AcDbEntity
  8
0
  6
Continuous
 62
     7
100
AcDbLine
 10
8.031265869919698
 20
4.706419455928555
 30
0.0
 11
8.462976688759262
 21
4.965445928829678
 31
0.0
  0
LINE
  5
174B
102
{ACAD_REACTORS
330
1825
102
}
330
1725
100
AcDbEntity
  8
0
  6
Continuous
 62
     7
100
AcDbLine
 10
6.539901348057216
 20
4.298256539325508
 30
0.0
 11
7.309131466413415
 21
4.439543681485282
 31
0.0
  0
LINE
  5
174C
102
{ACAD_REACTORS
330
1825
102
}
330
1725
100
AcDbEntity
  8
0
  6
Continuous
 62
     7
100
AcDbLine
 10
7.309131466413415
 20
4.439543681485282
 30
0.0
 11
8.031265869919698
 21
4.706419455928555
 31
0.0
  0
LINE
  5
174D
102
{ACAD_REACTORS
330
1825
102
}
330
1725
100
AcDbEntity
  8
0
  6
Continuous
 62
     7
100
AcDbLine
 10
8.462976688759262
 20
4.965445928829678
 30
0.0
 11
8.871139605362307
 21
5.295115926804144
 31
0.0
  0
LINE
  5
174E
102
{ACAD_REACTORS
330
1825
102
}
330
1725
100
AcDbEntity
  8
0
  6
Continuous
 62
     7
100
AcDbLine
 10
7.521062224464624
 20
6.864973367295206
 30
0.0
 11
7.230638548979788
 21
6.472509052581504
 31
0.0
  0
LINE
  5
174F
102
{ACAD_REACTORS
330
1825
102
}
330
1725
100
AcDbEntity
  8
0
  6
Continuous
 62
     7
100
AcDbLine
 10
7.230638548979788
 20
6.472509052581504
 30
0.0
 11
6.602695572783363
 21
6.134989662246774
 31
0.0
  0
LINE
  5
1750
102
{ACAD_REACTORS
330
1825
102
}
330
1725
100
AcDbEntity
  8
0
  6
Continuous
 62
     7
100
AcDbLine
 10
8.871139605362307
 20
5.295115926804144
 30
0.0
 11
9.342096836314661
 21
5.828867474495746
 31
0.0
  0
LINE
  5
1751
102
{ACAD_REACTORS
330
1825
102
}
330
1725
100
AcDbEntity
  8
0
  6
Continuous
 62
     7
100
AcDbLine
 10
9.342096836314661
 20
5.828867474495746
 30
0.0
 11
9.69531473772062
 21
6.448961150344987
 31
0.0
  0
LINE
  5
1752
102
{ACAD_REACTORS
330
1825
102
}
330
1725
100
AcDbEntity
  8
0
  6
Continuous
 62
     7
100
AcDbLine
 10
6.210231258069661
 20
8.191502935579519
 30
0.0
 11
7.112899309056553
 21
8.191502935579519
 31
0.0
  0
LINE
  5
1753
102
{ACAD_REACTORS
330
1825
102
}
330
1725
100
AcDbEntity
  8
0
  6
Continuous
 62
     7
100
AcDbLine
 10
8.439428786522745
 20
9.855551803380439
 30
0.0
 11
4.703168134317834
 21
9.855551803380439
 31
0.0
  0
LINE
  5
1754
102
{ACAD_REACTORS
330
1825
102
}
330
1725
100
AcDbEntity
  8
0
  6
Continuous
 62
     7
100
AcDbLine
 10
9.69531473772062
 20
8.858692325083694
 30
0.0
 11
9.169412491571197
 21
9.463087397848621
 31
0.0
  0
LINE
  5
1755
102
{ACAD_REACTORS
330
1825
102
}
330
1725
100
AcDbEntity
  8
0
  6
Continuous
 62
     7
100
AcDbLine
 10
7.466117210462511
 20
8.097311507074675
 30
0.0
 11
7.701595779932142
 21
7.783340018976468
 31
0.0
  0
LINE
  5
1756
102
{ACAD_REACTORS
330
1825
102
}
330
1725
100
AcDbEntity
  8
0
  6
Continuous
 62
     7
100
AcDbLine
 10
7.701595779932142
 20
7.783340018976468
 30
0.0
 11
7.740842284057982
 21
7.414423516876142
 31
0.0
  0
LINE
  5
1757
102
{ACAD_REACTORS
330
1825
102
}
330
1725
100
AcDbEntity
  8
0
  6
Continuous
 62
     7
100
AcDbLine
 10
7.112899309056553
 20
8.191502935579519
 30
0.0
 11
7.466117210462511
 21
8.097311507074675
 31
0.0
  0
LINE
  5
1758
102
{ACAD_REACTORS
330
1825
102
}
330
1725
100
AcDbEntity
  8
0
  6
Continuous
 62
     7
100
AcDbLine
 10
9.891546895077482
 20
7.100452028777929
 30
0.0
 11
9.94649191027457
 21
7.783340018976468
 31
0.0
  0
LINE
  5
1759
102
{ACAD_REACTORS
330
1825
102
}
330
1725
100
AcDbEntity
  8
0
  6
Continuous
 62
     7
100
AcDbLine
 10
9.94649191027457
 20
7.783340018976468
 30
0.0
 11
9.891546895077482
 21
8.348488679628619
 31
0.0
  0
LINE
  5
175A
102
{ACAD_REACTORS
330
1825
102
}
330
1725
100
AcDbEntity
  8
0
  6
Continuous
 62
     7
100
AcDbLine
 10
9.891546895077482
 20
8.348488679628619
 30
0.0
 11
9.69531473772062
 21
8.858692325083694
 31
0.0
  0
LINE
  5
175B
102
{ACAD_REACTORS
330
1825
102
}
330
1725
100
AcDbEntity
  8
0
  6
Continuous
 62
     7
100
AcDbLine
 10
9.169412491571197
 20
9.463087397848621
 30
0.0
 11
8.439428786522745
 21
9.855551803380439
 31
0.0
  0
LINE
  5
175C
102
{ACAD_REACTORS
330
1826
102
}
330
1725
100
AcDbEntity
  8
0
  6
Continuous
 62
     7
100
AcDbLine
 10
11.9245122661737
 20
3.631067149821338
 30
0.0
 11
13.35308256331001
 21
5.530594588286867
 31
0.0
  0
LINE
  5
175D
102
{ACAD_REACTORS
330
1826
102
}
330
1725
100
AcDbEntity
  8
0
  6
Continuous
 62
     7
100
AcDbLine
 10
13.35308256331001
 20
5.530594588286867
 30
0.0
 11
12.98416606120969
 21
3.631067149821338
 31
0.0
  0
LINE
  5
175E
102
{ACAD_REACTORS
330
1826
102
}
330
1725
100
AcDbEntity
  8
0
  6
Continuous
 62
     7
100
AcDbLine
 10
12.98416606120969
 20
3.631067149821338
 30
0.0
 11
11.9245122661737
 21
3.631067149821338
 31
0.0
  0
LINE
  5
175F
102
{ACAD_REACTORS
330
1826
102
}
330
1725
100
AcDbEntity
  8
0
  6
Continuous
 62
     7
100
AcDbLine
 10
15.41744504736681
 20
7.524313546075344
 30
0.0
 11
12.54460594082797
 21
7.524313546075344
 31
0.0
  0
LINE
  5
1760
102
{ACAD_REACTORS
330
1827
102
}
330
1725
100
AcDbEntity
  8
0
  6
Continuous
 62
     7
100
AcDbLine
 10
20.15056517786847
 20
7.524313546075333
 30
0.0
 11
18.07835339346448
 21
7.524313546075333
 31
0.0
  0
LINE
  5
1761
102
{ACAD_REACTORS
330
1829
102
}
330
1725
100
AcDbEntity
  8
0
  6
Continuous
 62
     7
100
AcDbLine
 10
35.72355076168953
 20
8.952883752393548
 30
0.0
 11
31.98729010948464
 21
12.08474933183351
 31
0.0
  0
LINE
  5
1762
102
{ACAD_REACTORS
330
1829
102
}
330
1725
100
AcDbEntity
  8
0
  6
Continuous
 62
     7
100
AcDbLine
 10
31.98729010948464
 20
12.08474933183351
 30
0.0
 11
33.0547931140497
 21
10.02038684777672
 31
0.0
  0
LINE
  5
1763
102
{ACAD_REACTORS
330
1829
102
}
330
1725
100
AcDbEntity
  8
0
  6
Continuous
 62
     7
100
AcDbLine
 10
30.17410479917675
 20
4.117722893039864
 30
0.0
 11
28.18038584138827
 21
4.455242283374604
 31
0.0
  0
LINE
  5
1764
102
{ACAD_REACTORS
330
1829
102
}
330
1725
100
AcDbEntity
  8
0
  6
Continuous
 62
     7
100
AcDbLine
 10
31.07677275815056
 20
4.557283012226622
 30
0.0
 11
29.26358744784268
 21
4.886953011396062
 31
0.0
  0
LINE
  5
1765
102
{ACAD_REACTORS
330
1829
102
}
330
1725
100
AcDbEntity
  8
0
  6
Continuous
 62
     7
100
AcDbLine
 10
29.26358744784268
 20
4.886953011396062
 30
0.0
 11
30.17410479917675
 21
4.117722893039864
 31
0.0
  0
LINE
  5
1766
102
{ACAD_REACTORS
330
1829
102
}
330
1725
100
AcDbEntity
  8
0
  6
Continuous
 62
     7
100
AcDbLine
 10
25.44098466748011
 20
9.031376669827164
 30
0.0
 11
29.8444347091892
 21
7.453669930183876
 31
0.0
  0
LINE
  5
1767
102
{ACAD_REACTORS
330
1829
102
}
330
1725
100
AcDbEntity
  8
0
  6
Continuous
 62
     7
100
AcDbLine
 10
30.58226771458483
 20
7.956024274096781
 30
0.0
 11
27.7486750225487
 21
11.0878898523418
 31
0.0
  0
LINE
  5
1768
102
{ACAD_REACTORS
330
1828
102
}
330
1725
100
AcDbEntity
  8
0
  6
Continuous
 62
     7
100
AcDbLine
 10
25.55872399822149
 20
7.524313546075333
 30
0.0
 11
24.11445509919583
 21
4.455242283374604
 31
0.0
  0
LINE
  5
1769
102
{ACAD_REACTORS
330
1828
102
}
330
1725
100
AcDbEntity
  8
0
  6
Continuous
 62
     7
100
AcDbLine
 10
24.11445509919583
 20
4.455242283374604
 30
0.0
 11
23.48651212419438
 21
7.524313546075333
 31
0.0
  0
LINE
  5
176A
102
{ACAD_REACTORS
330
1829
102
}
330
1725
100
AcDbEntity
  8
0
  6
Continuous
 62
     7
100
AcDbLine
 10
29.08305389237516
 20
3.788052803052318
 30
0.0
 11
26.59482989102095
 21
4.219763621891893
 31
0.0
  0
LINE
  5
176B
102
{ACAD_REACTORS
330
1829
102
}
330
1725
100
AcDbEntity
  8
0
  6
Continuous
 62
     7
100
AcDbLine
 10
28.18038584138827
 20
4.455242283374604
 30
0.0
 11
29.08305389237516
 21
3.788052803052318
 31
0.0
  0
LINE
  5
176C
102
{ACAD_REACTORS
330
1828
102
}
330
1725
100
AcDbEntity
  8
0
  6
Continuous
 62
     7
100
AcDbLine
 10
23.48651212419438
 20
7.524313546075333
 30
0.0
 11
21.4143003397904
 21
7.524313546075333
 31
0.0
  0
LINE
  5
176D
102
{ACAD_REACTORS
330
1829
102
}
330
1725
100
AcDbEntity
  8
0
  6
Continuous
 62
     7
100
AcDbLine
 10
27.92920866883434
 20
9.188362413876264
 30
0.0
 11
28.07834511253625
 21
8.850843023541536
 31
0.0
  0
LINE
  5
176E
102
{ACAD_REACTORS
330
1829
102
}
330
1725
100
AcDbEntity
  8
0
  6
Continuous
 62
     7
100
AcDbLine
 10
28.07834511253625
 20
8.850843023541536
 30
0.0
 11
27.08148563304454
 21
9.188362413876264
 31
0.0
  0
LINE
  5
176F
102
{ACAD_REACTORS
330
1829
102
}
330
1725
100
AcDbEntity
  8
0
  6
Continuous
 62
     7
100
AcDbLine
 10
27.08148563304454
 20
9.188362413876264
 30
0.0
 11
27.5916892784996
 21
8.77235019692603
 31
0.0
  0
LINE
  5
1770
102
{ACAD_REACTORS
330
1828
102
}
330
1725
100
AcDbEntity
  8
0
  6
Continuous
 62
     7
100
AcDbLine
 10
27.63878508416762
 20
7.524313546075333
 30
0.0
 11
25.55872399822149
 21
7.524313546075333
 31
0.0
  0
LINE
  5
1771
102
{ACAD_REACTORS
330
1829
102
}
330
1725
100
AcDbEntity
  8
0
  6
Continuous
 62
     7
100
AcDbLine
 10
27.5916892784996
 20
8.77235019692603
 30
0.0
 11
25.44098466748011
 21
9.031376669827164
 31
0.0
  0
LINE
  5
1772
102
{ACAD_REACTORS
330
1829
102
}
330
1725
100
AcDbEntity
  8
0
  6
Continuous
 62
     7
100
AcDbLine
 10
28.58854875799131
 20
9.69071675898415
 30
0.0
 11
28.18038584138827
 21
9.769209585599655
 31
0.0
  0
LINE
  5
1773
102
{ACAD_REACTORS
330
1829
102
}
330
1725
100
AcDbEntity
  8
0
  6
Continuous
 62
     7
100
AcDbLine
 10
28.18038584138827
 20
9.769209585599655
 30
0.0
 11
28.58854875799131
 21
9.282553842381103
 31
0.0
  0
LINE
  5
1774
102
{ACAD_REACTORS
330
1829
102
}
330
1725
100
AcDbEntity
  8
0
  6
Continuous
 62
     7
100
AcDbLine
 10
28.58854875799131
 20
9.282553842381103
 30
0.0
 11
28.21963225469603
 21
9.361046668996598
 31
0.0
  0
LINE
  5
1775
102
{ACAD_REACTORS
330
1829
102
}
330
1725
100
AcDbEntity
  8
0
  6
Continuous
 62
     7
100
AcDbLine
 10
28.21963225469603
 20
9.361046668996598
 30
0.0
 11
28.41586450287098
 21
9.109869496442653
 31
0.0
  0
LINE
  5
1776
102
{ACAD_REACTORS
330
1829
102
}
330
1725
100
AcDbEntity
  8
0
  6
Continuous
 62
     7
100
AcDbLine
 10
28.41586450287098
 20
9.109869496442653
 30
0.0
 11
27.92920866883434
 21
9.188362413876264
 31
0.0
  0
LINE
  5
1777
102
{ACAD_REACTORS
330
1829
102
}
330
1725
100
AcDbEntity
  8
0
  6
Continuous
 62
     7
100
AcDbLine
 10
27.7486750225487
 20
11.0878898523418
 30
0.0
 11
28.58854875799131
 21
9.69071675898415
 31
0.0
  0
LINE
  5
1778
102
{ACAD_REACTORS
330
1829
102
}
330
1725
100
AcDbEntity
  8
0
  6
Continuous
 62
     7
100
AcDbLine
 10
32.72512311607524
 20
7.626354274927351
 30
0.0
 11
33.13328603148331
 21
6.864973367295196
 31
0.0
  0
LINE
  5
1779
102
{ACAD_REACTORS
330
1829
102
}
330
1725
100
AcDbEntity
  8
0
  6
Continuous
 62
     7
100
AcDbLine
 10
35.22119641777662
 20
6.040798233741919
 30
0.0
 11
35.97472793424347
 21
7.524313546075333
 31
0.0
  0
LINE
  5
177A
102
{ACAD_REACTORS
330
1829
102
}
330
1725
100
AcDbEntity
  8
0
  6
Continuous
 62
     7
100
AcDbLine
 10
33.13328603148331
 20
6.864973367295196
 30
0.0
 11
30.58226771458483
 21
7.956024274096781
 31
0.0
  0
LINE
  5
177B
102
{ACAD_REACTORS
330
1829
102
}
330
1725
100
AcDbEntity
  8
0
  6
Continuous
 62
     7
100
AcDbLine
 10
29.8444347091892
 20
7.453669930183876
 30
0.0
 11
32.36405591312712
 21
5.07533595802887
 31
0.0
  0
LINE
  5
177C
102
{ACAD_REACTORS
330
1829
102
}
330
1725
100
AcDbEntity
  8
0
  6
Continuous
 62
     7
100
AcDbLine
 10
34.27928195348198
 20
4.047079275953443
 30
0.0
 11
34.55400702827243
 21
4.219763621891882
 31
0.0
  0
LINE
  5
177D
102
{ACAD_REACTORS
330
1829
102
}
330
1725
100
AcDbEntity
  8
0
  6
Continuous
 62
     7
100
AcDbLine
 10
31.50848357699013
 20
5.216623100188643
 30
0.0
 11
31.75181144919689
 21
4.792761582891229
 31
0.0
  0
LINE
  5
177E
102
{ACAD_REACTORS
330
1829
102
}
330
1725
100
AcDbEntity
  8
0
  6
Continuous
 62
     7
100
AcDbLine
 10
31.75181144919689
 20
4.792761582891229
 30
0.0
 11
30.40958336984136
 21
5.043938755445168
 31
0.0
  0
LINE
  5
177F
102
{ACAD_REACTORS
330
1829
102
}
330
1725
100
AcDbEntity
  8
0
  6
Continuous
 62
     7
100
AcDbLine
 10
30.40958336984136
 20
5.043938755445168
 30
0.0
 11
31.07677275815056
 21
4.557283012226622
 31
0.0
  0
LINE
  5
1780
102
{ACAD_REACTORS
330
1829
102
}
330
1725
100
AcDbEntity
  8
0
  6
Continuous
 62
     7
100
AcDbLine
 10
34.04380329199927
 20
3.811600705288836
 30
0.0
 11
34.27928195348198
 21
4.047079275953443
 31
0.0
  0
LINE
  5
1781
102
{ACAD_REACTORS
330
1829
102
}
330
1725
100
AcDbEntity
  8
0
  6
Continuous
 62
     7
100
AcDbLine
 10
32.36405591312712
 20
5.07533595802887
 30
0.0
 11
31.50848357699013
 21
5.216623100188643
 31
0.0
  0
LINE
  5
1782
102
{ACAD_REACTORS
330
1829
102
}
330
1725
100
AcDbEntity
  8
0
  6
Continuous
 62
     7
100
AcDbLine
 10
37.45824324657689
 20
4.706419455928545
 30
0.0
 11
37.27770960029127
 21
4.91050091363258
 31
0.0
  0
LINE
  5
1783
102
{ACAD_REACTORS
330
1829
102
}
330
1725
100
AcDbEntity
  8
0
  6
Continuous
 62
     7
100
AcDbLine
 10
36.62621881267642
 20
4.015682164187846
 30
0.0
 11
37.03438172927947
 21
3.827299307178168
 31
0.0
  0
LINE
  5
1784
102
{ACAD_REACTORS
330
1829
102
}
330
1725
100
AcDbEntity
  8
0
  6
Continuous
 62
     7
100
AcDbLine
 10
36.21805580525527
 20
4.156969306347608
 30
0.0
 11
36.62621881267642
 21
4.015682164187846
 31
0.0
  0
LINE
  5
1785
102
{ACAD_REACTORS
330
1829
102
}
330
1725
100
AcDbEntity
  8
0
  6
Continuous
 62
     7
100
AcDbLine
 10
34.55400702827243
 20
4.219763621891882
 30
0.0
 11
34.94647134298615
 21
4.321804350743899
 31
0.0
  0
LINE
  5
1786
102
{ACAD_REACTORS
330
1829
102
}
330
1725
100
AcDbEntity
  8
0
  6
Continuous
 62
     7
100
AcDbLine
 10
34.94647134298615
 20
4.321804350743899
 30
0.0
 11
35.37818216182573
 21
4.313955050396726
 31
0.0
  0
LINE
  5
1787
102
{ACAD_REACTORS
330
1829
102
}
330
1725
100
AcDbEntity
  8
0
  6
Continuous
 62
     7
100
AcDbLine
 10
35.37818216182573
 20
4.313955050396726
 30
0.0
 11
35.80204358830502
 21
4.259010035199637
 31
0.0
  0
LINE
  5
1788
102
{ACAD_REACTORS
330
1829
102
}
330
1725
100
AcDbEntity
  8
0
  6
Continuous
 62
     7
100
AcDbLine
 10
35.80204358830502
 20
4.259010035199637
 30
0.0
 11
36.21805580525527
 21
4.156969306347608
 31
0.0
  0
LINE
  5
1789
102
{ACAD_REACTORS
330
1829
102
}
330
1725
100
AcDbEntity
  8
0
  6
Continuous
 62
     7
100
AcDbLine
 10
37.03438172927947
 20
3.827299307178168
 30
0.0
 11
37.25416178887285
 21
3.662464262781889
 31
0.0
  0
LINE
  5
178A
102
{ACAD_REACTORS
330
1829
102
}
330
1725
100
AcDbEntity
  8
0
  6
Continuous
 62
     7
100
AcDbLine
 10
37.25416178887285
 20
3.662464262781889
 30
0.0
 11
37.4503939462297
 21
3.489779916843439
 31
0.0
  0
LINE
  5
178B
102
{ACAD_REACTORS
330
1829
102
}
330
1725
100
AcDbEntity
  8
0
  6
Continuous
 62
     7
100
AcDbLine
 10
37.4503939462297
 20
3.489779916843439
 30
0.0
 11
37.85070756129059
 21
2.979576271388364
 31
0.0
  0
LINE
  5
178C
102
{ACAD_REACTORS
330
1829
102
}
330
1725
100
AcDbEntity
  8
0
  6
Continuous
 62
     7
100
AcDbLine
 10
37.85070756129059
 20
2.979576271388364
 30
0.0
 11
37.70942041913083
 21
3.387739187991432
 31
0.0
  0
LINE
  5
178D
102
{ACAD_REACTORS
330
1829
102
}
330
1725
100
AcDbEntity
  8
0
  6
Continuous
 62
     7
100
AcDbLine
 10
37.70942041913083
 20
3.387739187991432
 30
0.0
 11
38.44725342452646
 21
3.317095661723104
 31
0.0
  0
LINE
  5
178E
102
{ACAD_REACTORS
330
1829
102
}
330
1725
100
AcDbEntity
  8
0
  6
Continuous
 62
     7
100
AcDbLine
 10
38.44725342452646
 20
3.317095661723104
 30
0.0
 11
37.63092750169723
 21
3.811600705288836
 31
0.0
  0
LINE
  5
178F
102
{ACAD_REACTORS
330
1829
102
}
330
1725
100
AcDbEntity
  8
0
  6
Continuous
 62
     7
100
AcDbLine
 10
37.63092750169723
 20
3.811600705288836
 30
0.0
 11
37.66232470428093
 21
4.007832862645686
 31
0.0
  0
LINE
  5
1790
102
{ACAD_REACTORS
330
1829
102
}
330
1725
100
AcDbEntity
  8
0
  6
Continuous
 62
     7
100
AcDbLine
 10
37.66232470428093
 20
4.007832862645686
 30
0.0
 11
37.67017400582308
 21
4.235462223781225
 31
0.0
  0
LINE
  5
1791
102
{ACAD_REACTORS
330
1829
102
}
330
1725
100
AcDbEntity
  8
0
  6
Continuous
 62
     7
100
AcDbLine
 10
37.67017400582308
 20
4.235462223781225
 30
0.0
 11
37.59953038873666
 21
4.478790094793016
 31
0.0
  0
LINE
  5
1792
102
{ACAD_REACTORS
330
1829
102
}
330
1725
100
AcDbEntity
  8
0
  6
Continuous
 62
     7
100
AcDbLine
 10
37.59953038873666
 20
4.478790094793016
 30
0.0
 11
37.45824324657689
 21
4.706419455928545
 31
0.0
  0
LINE
  5
1793
102
{ACAD_REACTORS
330
1829
102
}
330
1725
100
AcDbEntity
  8
0
  6
Continuous
 62
     7
100
AcDbLine
 10
37.05008024035071
 20
5.043938755445168
 30
0.0
 11
36.63406802220549
 21
5.15382878464437
 31
0.0
  0
LINE
  5
1794
102
{ACAD_REACTORS
330
1829
102
}
330
1725
100
AcDbEntity
  8
0
  6
Continuous
 62
     7
100
AcDbLine
 10
36.63406802220549
 20
5.15382878464437
 30
0.0
 11
36.22590510679742
 21
5.15382878464437
 31
0.0
  0
LINE
  5
1795
102
{ACAD_REACTORS
330
1829
102
}
330
1725
100
AcDbEntity
  8
0
  6
Continuous
 62
     7
100
AcDbLine
 10
36.00612513802215
 20
5.138130183950012
 30
0.0
 11
35.78634507842878
 21
5.15382878464437
 31
0.0
  0
LINE
  5
1796
102
{ACAD_REACTORS
330
1829
102
}
330
1725
100
AcDbEntity
  8
0
  6
Continuous
 62
     7
100
AcDbLine
 10
35.78634507842878
 20
5.15382878464437
 30
0.0
 11
35.57441431918259
 21
5.185225988423047
 31
0.0
  0
LINE
  5
1797
102
{ACAD_REACTORS
330
1829
102
}
330
1725
100
AcDbEntity
  8
0
  6
Continuous
 62
     7
100
AcDbLine
 10
35.57441431918259
 20
5.185225988423047
 30
0.0
 11
35.3860313713548
 21
5.295115926804133
 31
0.0
  0
LINE
  5
1798
102
{ACAD_REACTORS
330
1829
102
}
330
1725
100
AcDbEntity
  8
0
  6
Continuous
 62
     7
100
AcDbLine
 10
35.3860313713548
 20
5.295115926804133
 30
0.0
 11
35.24474422919503
 21
5.475649574284743
 31
0.0
  0
LINE
  5
1799
102
{ACAD_REACTORS
330
1829
102
}
330
1725
100
AcDbEntity
  8
0
  6
Continuous
 62
     7
100
AcDbLine
 10
35.24474422919503
 20
5.475649574284743
 30
0.0
 11
35.15840210223236
 21
5.671881731641594
 31
0.0
  0
LINE
  5
179A
102
{ACAD_REACTORS
330
1829
102
}
330
1725
100
AcDbEntity
  8
0
  6
Continuous
 62
     7
100
AcDbLine
 10
35.15840210223236
 20
5.671881731641594
 30
0.0
 11
35.16625140257953
 21
5.868113887803469
 31
0.0
  0
LINE
  5
179B
102
{ACAD_REACTORS
330
1829
102
}
330
1725
100
AcDbEntity
  8
0
  6
Continuous
 62
     7
100
AcDbLine
 10
35.16625140257953
 20
5.868113887803469
 30
0.0
 11
35.22119641777662
 21
6.040798233741919
 31
0.0
  0
LINE
  5
179C
102
{ACAD_REACTORS
330
1829
102
}
330
1725
100
AcDbEntity
  8
0
  6
Continuous
 62
     7
100
AcDbLine
 10
36.22590510679742
 20
5.15382878464437
 30
0.0
 11
36.00612513802215
 21
5.138130183950012
 31
0.0
  0
LINE
  5
179D
102
{ACAD_REACTORS
330
1829
102
}
330
1725
100
AcDbEntity
  8
0
  6
Continuous
 62
     7
100
AcDbLine
 10
37.27770960029127
 20
4.91050091363258
 30
0.0
 11
37.05008024035071
 21
5.043938755445168
 31
0.0
  0
LINE
  5
179E
102
{ACAD_REACTORS
330
1829
102
}
330
1725
100
AcDbEntity
  8
0
  6
Continuous
 62
     7
100
AcDbLine
 10
32.31696019947218
 20
9.518032413045705
 30
0.0
 11
33.2353267615303
 21
8.113010018145903
 31
0.0
  0
LINE
  5
179F
102
{ACAD_REACTORS
330
1829
102
}
330
1725
100
AcDbEntity
  8
0
  6
Continuous
 62
     7
100
AcDbLine
 10
33.2353267615303
 20
8.113010018145903
 30
0.0
 11
32.3876037257405
 21
8.52117293474895
 31
0.0
  0
LINE
  5
17A0
102
{ACAD_REACTORS
330
1829
102
}
330
1725
100
AcDbEntity
  8
0
  6
Continuous
 62
     7
100
AcDbLine
 10
32.3876037257405
 20
8.52117293474895
 30
0.0
 11
33.2353267615303
 21
7.288834884592611
 31
0.0
  0
LINE
  5
17A1
102
{ACAD_REACTORS
330
1829
102
}
330
1725
100
AcDbEntity
  8
0
  6
Continuous
 62
     7
100
AcDbLine
 10
33.2353267615303
 20
7.288834884592611
 30
0.0
 11
32.72512311607524
 21
7.626354274927351
 31
0.0
  0
LINE
  5
17A2
102
{ACAD_REACTORS
330
1829
102
}
330
1725
100
AcDbEntity
  8
0
  6
Continuous
 62
     7
100
AcDbLine
 10
33.0547931140497
 20
10.02038684777672
 30
0.0
 11
32.31696019947218
 21
10.42070046403259
 31
0.0
  0
LINE
  5
17A3
102
{ACAD_REACTORS
330
1829
102
}
330
1725
100
AcDbEntity
  8
0
  6
Continuous
 62
     7
100
AcDbLine
 10
32.31696019947218
 20
10.42070046403259
 30
0.0
 11
33.0547931140497
 21
9.188362413876259
 31
0.0
  0
LINE
  5
17A4
102
{ACAD_REACTORS
330
1829
102
}
330
1725
100
AcDbEntity
  8
0
  6
Continuous
 62
     7
100
AcDbLine
 10
33.0547931140497
 20
9.188362413876259
 30
0.0
 11
32.31696019947218
 21
9.518032413045705
 31
0.0
  0
LINE
  5
17A5
102
{ACAD_REACTORS
330
1829
102
}
330
1725
100
AcDbEntity
  8
0
  6
Continuous
 62
     7
100
AcDbLine
 10
36.09246726498483
 20
8.003119987751725
 30
0.0
 11
36.09246726498483
 21
8.191502935579514
 31
0.0
  0
LINE
  5
17A6
102
{ACAD_REACTORS
330
1829
102
}
330
1725
100
AcDbEntity
  8
0
  6
Continuous
 62
     7
100
AcDbLine
 10
36.05322085167709
 20
8.403433694825704
 30
0.0
 11
35.98257723459066
 21
8.631062963948151
 31
0.0
  0
LINE
  5
17A7
102
{ACAD_REACTORS
330
1829
102
}
330
1725
100
AcDbEntity
  8
0
  6
Continuous
 62
     7
100
AcDbLine
 10
35.98257723459066
 20
8.631062963948151
 30
0.0
 11
35.86483790504428
 21
8.79589800834444
 31
0.0
  0
LINE
  5
17A8
102
{ACAD_REACTORS
330
1829
102
}
330
1725
100
AcDbEntity
  8
0
  6
Continuous
 62
     7
100
AcDbLine
 10
35.86483790504428
 20
8.79589800834444
 30
0.0
 11
35.72355076168953
 21
8.952883752393548
 31
0.0
  0
LINE
  5
17A9
102
{ACAD_REACTORS
330
1829
102
}
330
1725
100
AcDbEntity
  8
0
  6
Continuous
 62
     7
100
AcDbLine
 10
35.97472793424347
 20
7.524313546075333
 30
0.0
 11
36.01397434755124
 21
7.657751387887912
 31
0.0
  0
LINE
  5
17AA
102
{ACAD_REACTORS
330
1829
102
}
330
1725
100
AcDbEntity
  8
0
  6
Continuous
 62
     7
100
AcDbLine
 10
36.01397434755124
 20
7.657751387887912
 30
0.0
 11
36.05322085167709
 21
7.775490718629272
 31
0.0
  0
LINE
  5
17AB
102
{ACAD_REACTORS
330
1829
102
}
330
1725
100
AcDbEntity
  8
0
  6
Continuous
 62
     7
100
AcDbLine
 10
36.09246726498483
 20
8.191502935579514
 30
0.0
 11
36.05322085167709
 21
8.403433694825704
 31
0.0
  0
LINE
  5
17AC
102
{ACAD_REACTORS
330
1829
102
}
330
1725
100
AcDbEntity
  8
0
  6
Continuous
 62
     7
100
AcDbLine
 10
36.05322085167709
 20
7.775490718629272
 30
0.0
 11
36.09246726498483
 21
8.003119987751725
 31
0.0
  0
LINE
  5
17AD
102
{ACAD_REACTORS
330
182D
102
}
330
1725
100
AcDbEntity
  8
0
  6
Continuous
 62
     7
100
AcDbLine
 10
61.63404745611209
 20
2.328085483773538
 30
0.0
 11
62.01866256010174
 21
2.791193415573673
 31
0.0
  0
LINE
  5
17AE
102
{ACAD_REACTORS
330
182D
102
}
330
1725
100
AcDbEntity
  8
0
  6
Continuous
 62
     7
100
AcDbLine
 10
58.42368905005661
 20
7.524313546075333
 30
0.0
 11
55.36246708770306
 21
1.127144547772751
 31
0.0
  0
CIRCLE
  5
17AF
330
1725
100
AcDbEntity
  8
0
  6
Continuous
 62
     7
100
AcDbCircle
 10
63.30058012986313
 20
2.040051778818529
 30
0.0
 40
1.175069669951977
  0
LINE
  5
17B0
102
{ACAD_REACTORS
330
182C
102
}
330
1725
100
AcDbEntity
  8
0
  6
Continuous
 62
     7
100
AcDbLine
 10
50.48021051469445
 20
1.127144547772751
 30
0.0
 11
51.72824716554515
 21
3.458382805077842
 31
0.0
  0
LINE
  5
17B1
102
{ACAD_REACTORS
330
182C
102
}
330
1725
100
AcDbEntity
  8
0
  6
Continuous
 62
     7
100
AcDbLine
 10
51.72824716554515
 20
3.458382805077842
 30
0.0
 11
52.48962798235918
 21
1.127144547772751
 31
0.0
  0
LINE
  5
17B2
102
{ACAD_REACTORS
330
182A
102
}
330
1725
100
AcDbEntity
  8
0
  6
Continuous
 62
     7
100
AcDbLine
 10
45.03280527983871
 20
2.398729010041854
 30
0.0
 11
45.46451609867829
 21
3.105164903671885
 31
0.0
  0
LINE
  5
17B3
102
{ACAD_REACTORS
330
182B
102
}
330
1725
100
AcDbEntity
  8
0
  6
Continuous
 62
     7
100
AcDbLine
 10
47.48178286788518
 20
1.127144547772751
 30
0.0
 11
50.48021051469445
 21
7.524313546075333
 31
0.0
  0
LINE
  5
17B4
102
{ACAD_REACTORS
330
182B
102
}
330
1725
100
AcDbEntity
  8
0
  6
Continuous
 62
     7
100
AcDbLine
 10
48.39230012840115
 20
7.524313546075333
 30
0.0
 11
45.40172178313402
 21
1.127144547772751
 31
0.0
  0
LINE
  5
17B5
102
{ACAD_REACTORS
330
182C
102
}
330
1725
100
AcDbEntity
  8
0
  6
Continuous
 62
     7
100
AcDbLine
 10
52.00297224033562
 20
7.516464245728148
 30
0.0
 11
48.5649844743396
 21
1.127144547772751
 31
0.0
  0
LINE
  5
17B6
102
{ACAD_REACTORS
330
182C
102
}
330
1725
100
AcDbEntity
  8
0
  6
Continuous
 62
     7
100
AcDbLine
 10
54.29496408313799
 20
1.127144547772751
 30
0.0
 11
53.53358317550585
 21
3.44268420318852
 31
0.0
  0
LINE
  5
17B7
102
{ACAD_REACTORS
330
182D
102
}
330
1725
100
AcDbEntity
  8
0
  6
Continuous
 62
     7
100
AcDbLine
 10
55.36246708770306
 20
1.127144547772751
 30
0.0
 11
59.5147399568582
 21
1.127144547772751
 31
0.0
  0
LINE
  5
17B8
102
{ACAD_REACTORS
330
182C
102
}
330
1725
100
AcDbEntity
  8
0
  6
Continuous
 62
     7
100
AcDbLine
 10
48.5649844743396
 20
1.127144547772751
 30
0.0
 11
50.48021051469445
 21
1.127144547772751
 31
0.0
  0
LINE
  5
17B9
102
{ACAD_REACTORS
330
182A
102
}
330
1725
100
AcDbEntity
  8
0
  6
Continuous
 62
     7
100
AcDbLine
 10
43.64348148682824
 20
1.30767810324027
 30
0.0
 11
44.31067087633242
 21
1.700142508772088
 31
0.0
  0
LINE
  5
17BA
102
{ACAD_REACTORS
330
182A
102
}
330
1725
100
AcDbEntity
  8
0
  6
Continuous
 62
     7
100
AcDbLine
 10
42.89779917989046
 20
1.127144547772751
 30
0.0
 11
43.64348148682824
 21
1.30767810324027
 31
0.0
  0
LINE
  5
17BB
102
{ACAD_REACTORS
330
182B
102
}
330
1725
100
AcDbEntity
  8
0
  6
Continuous
 62
     7
100
AcDbLine
 10
45.40172178313402
 20
1.127144547772751
 30
0.0
 11
47.48178286788518
 21
1.127144547772751
 31
0.0
  0
LINE
  5
17BC
102
{ACAD_REACTORS
330
182A
102
}
330
1725
100
AcDbEntity
  8
0
  6
Continuous
 62
     7
100
AcDbLine
 10
44.31067087633242
 20
1.700142508772088
 30
0.0
 11
44.69528588950399
 21
2.021963206399369
 31
0.0
  0
LINE
  5
17BD
102
{ACAD_REACTORS
330
182A
102
}
330
1725
100
AcDbEntity
  8
0
  6
Continuous
 62
     7
100
AcDbLine
 10
44.69528588950399
 20
2.021963206399369
 30
0.0
 11
45.03280527983871
 21
2.398729010041854
 31
0.0
  0
LINE
  5
17BE
102
{ACAD_REACTORS
330
182C
102
}
330
1725
100
AcDbEntity
  8
0
  6
Continuous
 62
     7
100
AcDbLine
 10
52.48962798235918
 20
1.127144547772751
 30
0.0
 11
54.29496408313799
 21
1.127144547772751
 31
0.0
  0
LINE
  5
17BF
102
{ACAD_REACTORS
330
182D
102
}
330
1725
100
AcDbEntity
  8
0
  6
Continuous
 62
     7
100
AcDbLine
 10
60.4095587074979
 20
1.370472418784532
 30
0.0
 11
61.17878882585412
 21
1.89637466612895
 31
0.0
  0
LINE
  5
17C0
102
{ACAD_REACTORS
330
182D
102
}
330
1725
100
AcDbEntity
  8
0
  6
Continuous
 62
     7
100
AcDbLine
 10
59.5147399568582
 20
1.127144547772751
 30
0.0
 11
60.4095587074979
 21
1.370472418784532
 31
0.0
  0
LINE
  5
17C1
102
{ACAD_REACTORS
330
182D
102
}
330
1725
100
AcDbEntity
  8
0
  6
Continuous
 62
     7
100
AcDbLine
 10
61.17878882585412
 20
1.89637466612895
 30
0.0
 11
61.63404745611209
 21
2.328085483773538
 31
0.0
  0
LINE
  5
17C2
102
{ACAD_REACTORS
330
182F
102
}
330
1725
100
AcDbEntity
  8
0
  6
Continuous
 62
     7
100
AcDbLine
 10
62.74103962530223
 20
1.230310395918883
 30
0.0
 11
63.01310547365947
 21
1.230310395918883
 31
0.0
  0
LINE
  5
17C3
102
{ACAD_REACTORS
330
182F
102
}
330
1725
100
AcDbEntity
  8
0
  6
Continuous
 62
     7
100
AcDbLine
 10
63.01310547365947
 20
1.230310395918883
 30
0.0
 11
63.01310547365947
 21
1.872694187669333
 31
0.0
  0
LINE
  5
17C4
102
{ACAD_REACTORS
330
182F
102
}
330
1725
100
AcDbEntity
  8
0
  6
Continuous
 62
     7
100
AcDbLine
 10
63.01310547365947
 20
1.872694187669333
 30
0.0
 11
63.31116399761024
 21
1.872694187669333
 31
0.0
  0
LINE
  5
17C5
102
{ACAD_REACTORS
330
182F
102
}
330
1725
100
AcDbEntity
  8
0
  6
Continuous
 62
     7
100
AcDbLine
 10
63.31116399761024
 20
1.872694187669333
 30
0.0
 11
63.72330079628667
 21
1.230310395918883
 31
0.0
  0
LINE
  5
17C6
102
{ACAD_REACTORS
330
182F
102
}
330
1725
100
AcDbEntity
  8
0
  6
Continuous
 62
     7
100
AcDbLine
 10
63.72330079628667
 20
1.230310395918883
 30
0.0
 11
64.04654639418962
 21
1.230310395918883
 31
0.0
  0
LINE
  5
17C7
102
{ACAD_REACTORS
330
182F
102
}
330
1725
100
AcDbEntity
  8
0
  6
Continuous
 62
     7
100
AcDbLine
 10
64.04654639418962
 20
1.230310395918883
 30
0.0
 11
63.62819993010777
 21
1.882372944260899
 31
0.0
  0
ARC
  5
17C8
102
{ACAD_REACTORS
330
182F
102
}
330
1725
100
AcDbEntity
  8
0
  6
Continuous
 62
     7
100
AcDbCircle
 10
63.53079086331115
 20
2.367709927853795
 30
0.0
 40
0.4950156699763843
100
AcDbArc
 50
281.348720221
 51
90.00001432389998
  0
LINE
  5
17C9
102
{ACAD_REACTORS
330
182F
102
}
330
1725
100
AcDbEntity
  8
0
  6
Continuous
 62
     7
100
AcDbLine
 10
63.5307908633112
 20
2.862725626292913
 30
0.0
 11
62.74103962530223
 21
2.862725652858138
 31
0.0
  0
LINE
  5
17CA
102
{ACAD_REACTORS
330
182F
102
}
330
1725
100
AcDbEntity
  8
0
  6
Continuous
 62
     7
100
AcDbLine
 10
62.74103962530223
 20
2.862725652858138
 30
0.0
 11
62.74103962530223
 21
1.230310395918883
 31
0.0
  0
LINE
  5
17CB
102
{ACAD_REACTORS
330
182F
102
}
330
1725
100
AcDbEntity
  8
0
  6
Continuous
 62
     7
100
AcDbLine
 10
63.01310547365947
 20
2.590659806398435
 30
0.0
 11
63.01310547365947
 21
2.144760178340218
 31
0.0
  0
LINE
  5
17CC
102
{ACAD_REACTORS
330
182F
102
}
330
1725
100
AcDbEntity
  8
0
  6
Continuous
 62
     7
100
AcDbLine
 10
63.53079089936399
 20
2.590659806398435
 30
0.0
 11
63.01310547365947
 21
2.590659806398435
 31
0.0
  0
LINE
  5
17CD
102
{ACAD_REACTORS
330
182F
102
}
330
1725
100
AcDbEntity
  8
0
  6
Continuous
 62
     7
100
AcDbLine
 10
63.53079089675337
 20
2.14476011002965
 30
0.0
 11
63.01310547365947
 21
2.144760178340218
 31
0.0
  0
LINE
  5
17CE
102
{ACAD_REACTORS
330
182B
102
}
330
1725
100
AcDbEntity
  8
0
  6
Continuous
 62
     7
100
AcDbLine
 10
50.48021051469445
 20
7.524313546075333
 30
0.0
 11
48.39230012840115
 21
7.524313546075333
 31
0.0
  0
LINE
  5
17CF
102
{ACAD_REACTORS
330
182A
102
}
330
1725
100
AcDbEntity
  8
0
  6
Continuous
 62
     7
100
AcDbLine
 10
46.93233271830425
 20
6.527454067778582
 30
0.0
 11
47.12856496647922
 21
7.139698442085664
 31
0.0
  0
LINE
  5
17D0
102
{ACAD_REACTORS
330
182A
102
}
330
1725
100
AcDbEntity
  8
0
  6
Continuous
 62
     7
100
AcDbLine
 10
44.96216166394726
 20
7.053356313928003
 30
0.0
 11
44.86012093390026
 21
6.888521269531713
 31
0.0
  0
LINE
  5
17D1
102
{ACAD_REACTORS
330
182A
102
}
330
1725
100
AcDbEntity
  8
0
  6
Continuous
 62
     7
100
AcDbLine
 10
42.68586842064427
 20
6.33122191042172
 30
0.0
 11
43.58853647163115
 21
8.191502935579508
 31
0.0
  0
LINE
  5
17D2
102
{ACAD_REACTORS
330
182A
102
}
330
1725
100
AcDbEntity
  8
0
  6
Continuous
 62
     7
100
AcDbLine
 10
44.0751922148497
 20
6.354769721840132
 30
0.0
 11
43.82401504229576
 21
6.33122191042172
 31
0.0
  0
LINE
  5
17D3
102
{ACAD_REACTORS
330
182A
102
}
330
1725
100
AcDbEntity
  8
0
  6
Continuous
 62
     7
100
AcDbLine
 10
41.0296688543855
 20
2.791193415573673
 30
0.0
 11
41.9087890019409
 21
4.667173042620799
 31
0.0
  0
LINE
  5
17D4
102
{ACAD_REACTORS
330
182A
102
}
330
1725
100
AcDbEntity
  8
0
  6
Continuous
 62
     7
100
AcDbLine
 10
42.14426757260551
 20
2.791193415573673
 30
0.0
 11
41.0296688543855
 21
2.791193415573673
 31
0.0
  0
LINE
  5
17D5
102
{ACAD_REACTORS
330
182A
102
}
330
1725
100
AcDbEntity
  8
0
  6
Continuous
 62
     7
100
AcDbLine
 10
41.9087890019409
 20
4.667173042620799
 30
0.0
 11
42.81145705292779
 21
4.675022252149856
 31
0.0
  0
LINE
  5
17D6
102
{ACAD_REACTORS
330
182A
102
}
330
1725
100
AcDbEntity
  8
0
  6
Continuous
 62
     7
100
AcDbLine
 10
42.81145705292779
 20
4.675022252149856
 30
0.0
 11
43.14112705090225
 21
4.557283012226622
 31
0.0
  0
LINE
  5
17D7
102
{ACAD_REACTORS
330
182A
102
}
330
1725
100
AcDbEntity
  8
0
  6
Continuous
 62
     7
100
AcDbLine
 10
43.14112705090225
 20
4.557283012226622
 30
0.0
 11
43.37660571238497
 21
4.235462223781225
 31
0.0
  0
LINE
  5
17D8
102
{ACAD_REACTORS
330
182A
102
}
330
1725
100
AcDbEntity
  8
0
  6
Continuous
 62
     7
100
AcDbLine
 10
43.37660571238497
 20
4.235462223781225
 30
0.0
 11
43.39230422345621
 21
3.882244322375257
 31
0.0
  0
LINE
  5
17D9
102
{ACAD_REACTORS
330
182A
102
}
330
1725
100
AcDbEntity
  8
0
  6
Continuous
 62
     7
100
AcDbLine
 10
43.39230422345621
 20
3.882244322375257
 30
0.0
 11
43.2824142850751
 21
3.536875631693354
 31
0.0
  0
LINE
  5
17DA
102
{ACAD_REACTORS
330
182A
102
}
330
1725
100
AcDbEntity
  8
0
  6
Continuous
 62
     7
100
AcDbLine
 10
43.2824142850751
 20
3.536875631693354
 30
0.0
 11
43.17252425468093
 21
3.35634207503086
 31
0.0
  0
LINE
  5
17DB
102
{ACAD_REACTORS
330
182A
102
}
330
1725
100
AcDbEntity
  8
0
  6
Continuous
 62
     7
100
AcDbLine
 10
43.17252425468093
 20
3.35634207503086
 30
0.0
 11
43.04693562359239
 21
3.207205632523903
 31
0.0
  0
LINE
  5
17DC
102
{ACAD_REACTORS
330
182A
102
}
330
1725
100
AcDbEntity
  8
0
  6
Continuous
 62
     7
100
AcDbLine
 10
43.04693562359239
 20
3.207205632523903
 30
0.0
 11
42.86640206812488
 21
3.010973384348936
 31
0.0
  0
LINE
  5
17DD
102
{ACAD_REACTORS
330
182A
102
}
330
1725
100
AcDbEntity
  8
0
  6
Continuous
 62
     7
100
AcDbLine
 10
42.86640206812488
 20
3.010973384348936
 30
0.0
 11
42.63092340664217
 21
2.869686242189162
 31
0.0
  0
LINE
  5
17DE
102
{ACAD_REACTORS
330
182A
102
}
330
1725
100
AcDbEntity
  8
0
  6
Continuous
 62
     7
100
AcDbLine
 10
42.63092340664217
 20
2.869686242189162
 30
0.0
 11
42.39544483597756
 21
2.814741226992085
 31
0.0
  0
LINE
  5
17DF
102
{ACAD_REACTORS
330
182A
102
}
330
1725
100
AcDbEntity
  8
0
  6
Continuous
 62
     7
100
AcDbLine
 10
42.39544483597756
 20
2.814741226992085
 30
0.0
 11
42.14426757260551
 21
2.791193415573673
 31
0.0
  0
LINE
  5
17E0
102
{ACAD_REACTORS
330
182A
102
}
330
1725
100
AcDbEntity
  8
0
  6
Continuous
 62
     7
100
AcDbLine
 10
43.82401504229576
 20
6.33122191042172
 30
0.0
 11
42.68586842064427
 21
6.33122191042172
 31
0.0
  0
LINE
  5
17E1
102
{ACAD_REACTORS
330
182A
102
}
330
1725
100
AcDbEntity
  8
0
  6
Continuous
 62
     7
100
AcDbLine
 10
45.50376251198604
 20
4.572981523297849
 30
0.0
 11
45.0877502950358
 21
4.94189802659315
 31
0.0
  0
LINE
  5
17E2
102
{ACAD_REACTORS
330
182A
102
}
330
1725
100
AcDbEntity
  8
0
  6
Continuous
 62
     7
100
AcDbLine
 10
45.46451609867829
 20
3.105164903671885
 30
0.0
 11
45.62935105225647
 21
3.945038547101425
 31
0.0
  0
LINE
  5
17E3
102
{ACAD_REACTORS
330
182A
102
}
330
1725
100
AcDbEntity
  8
0
  6
Continuous
 62
     7
100
AcDbLine
 10
45.62935105225647
 20
3.945038547101425
 30
0.0
 11
45.50376251198604
 21
4.572981523297849
 31
0.0
  0
LINE
  5
17E4
102
{ACAD_REACTORS
330
182A
102
}
330
1725
100
AcDbEntity
  8
0
  6
Continuous
 62
     7
100
AcDbLine
 10
46.21019831479798
 20
5.467800272742583
 30
0.0
 11
46.64190913244256
 21
5.938757504889902
 31
0.0
  0
LINE
  5
17E5
102
{ACAD_REACTORS
330
182A
102
}
330
1725
100
AcDbEntity
  8
0
  6
Continuous
 62
     7
100
AcDbLine
 10
45.0877502950358
 20
4.94189802659315
 30
0.0
 11
45.68429606745356
 21
5.138130183950012
 31
0.0
  0
LINE
  5
17E6
102
{ACAD_REACTORS
330
182A
102
}
330
1725
100
AcDbEntity
  8
0
  6
Continuous
 62
     7
100
AcDbLine
 10
45.68429606745356
 20
5.138130183950012
 30
0.0
 11
46.21019831479798
 21
5.467800272742583
 31
0.0
  0
LINE
  5
17E7
102
{ACAD_REACTORS
330
182A
102
}
330
1725
100
AcDbEntity
  8
0
  6
Continuous
 62
     7
100
AcDbLine
 10
44.72668309328265
 20
6.74723412737195
 30
0.0
 11
44.54614944699703
 21
6.551001879196983
 31
0.0
  0
LINE
  5
17E8
102
{ACAD_REACTORS
330
182A
102
}
330
1725
100
AcDbEntity
  8
0
  6
Continuous
 62
     7
100
AcDbLine
 10
44.54614944699703
 20
6.551001879196983
 30
0.0
 11
44.31067087633242
 21
6.417564037384405
 31
0.0
  0
LINE
  5
17E9
102
{ACAD_REACTORS
330
182A
102
}
330
1725
100
AcDbEntity
  8
0
  6
Continuous
 62
     7
100
AcDbLine
 10
44.31067087633242
 20
6.417564037384405
 30
0.0
 11
44.0751922148497
 21
6.354769721840132
 31
0.0
  0
LINE
  5
17EA
102
{ACAD_REACTORS
330
182A
102
}
330
1725
100
AcDbEntity
  8
0
  6
Continuous
 62
     7
100
AcDbLine
 10
44.86012093390026
 20
6.888521269531713
 30
0.0
 11
44.72668309328265
 21
6.74723412737195
 31
0.0
  0
LINE
  5
17EB
102
{ACAD_REACTORS
330
182A
102
}
330
1725
100
AcDbEntity
  8
0
  6
Continuous
 62
     7
100
AcDbLine
 10
46.64190913244256
 20
5.938757504889902
 30
0.0
 11
46.93233271830425
 21
6.527454067778582
 31
0.0
  0
LINE
  5
17EC
102
{ACAD_REACTORS
330
182A
102
}
330
1725
100
AcDbEntity
  8
0
  6
Continuous
 62
     7
100
AcDbLine
 10
43.58853647163115
 20
8.191502935579508
 30
0.0
 11
44.49120443179995
 21
8.191502935579508
 31
0.0
  0
LINE
  5
17ED
102
{ACAD_REACTORS
330
182A
102
}
330
1725
100
AcDbEntity
  8
0
  6
Continuous
 62
     7
100
AcDbLine
 10
45.35462606828412
 20
9.855551803380429
 30
0.0
 11
42.08147334787933
 21
9.855551803380429
 31
0.0
  0
LINE
  5
17EE
102
{ACAD_REACTORS
330
182A
102
}
330
1725
100
AcDbEntity
  8
0
  6
Continuous
 62
     7
100
AcDbLine
 10
46.82244268910506
 20
8.795898008344437
 30
0.0
 11
46.18665050218457
 21
9.533731014935037
 31
0.0
  0
LINE
  5
17EF
102
{ACAD_REACTORS
330
182A
102
}
330
1725
100
AcDbEntity
  8
0
  6
Continuous
 62
     7
100
AcDbLine
 10
44.82087452059253
 20
8.097311507074664
 30
0.0
 11
45.05635309125714
 21
7.783340018976457
 31
0.0
  0
LINE
  5
17F0
102
{ACAD_REACTORS
330
182A
102
}
330
1725
100
AcDbEntity
  8
0
  6
Continuous
 62
     7
100
AcDbLine
 10
45.05635309125714
 20
7.783340018976457
 30
0.0
 11
45.07205169314646
 21
7.406574215333971
 31
0.0
  0
LINE
  5
17F1
102
{ACAD_REACTORS
330
182A
102
}
330
1725
100
AcDbEntity
  8
0
  6
Continuous
 62
     7
100
AcDbLine
 10
45.07205169314646
 20
7.406574215333971
 30
0.0
 11
44.96216166394726
 21
7.053356313928003
 31
0.0
  0
LINE
  5
17F2
102
{ACAD_REACTORS
330
182A
102
}
330
1725
100
AcDbEntity
  8
0
  6
Continuous
 62
     7
100
AcDbLine
 10
44.49120443179995
 20
8.191502935579508
 30
0.0
 11
44.82087452059253
 21
8.097311507074664
 31
0.0
  0
LINE
  5
17F3
102
{ACAD_REACTORS
330
182A
102
}
330
1725
100
AcDbEntity
  8
0
  6
Continuous
 62
     7
100
AcDbLine
 10
47.12856496647922
 20
7.139698442085664
 30
0.0
 11
47.1835098908582
 21
7.751942816392745
 31
0.0
  0
LINE
  5
17F4
102
{ACAD_REACTORS
330
182A
102
}
330
1725
100
AcDbEntity
  8
0
  6
Continuous
 62
     7
100
AcDbLine
 10
47.1835098908582
 20
7.751942816392745
 30
0.0
 11
47.07361995128214
 21
8.285694364084342
 31
0.0
  0
LINE
  5
17F5
102
{ACAD_REACTORS
330
182A
102
}
330
1725
100
AcDbEntity
  8
0
  6
Continuous
 62
     7
100
AcDbLine
 10
47.07361995128214
 20
8.285694364084342
 30
0.0
 11
46.82244268910506
 21
8.795898008344437
 31
0.0
  0
LINE
  5
17F6
102
{ACAD_REACTORS
330
182A
102
}
330
1725
100
AcDbEntity
  8
0
  6
Continuous
 62
     7
100
AcDbLine
 10
46.18665050218457
 20
9.533731014935037
 30
0.0
 11
45.35462606828412
 21
9.855551803380429
 31
0.0
  0
LINE
  5
17F7
102
{ACAD_REACTORS
330
182C
102
}
330
1725
100
AcDbEntity
  8
0
  6
Continuous
 62
     7
100
AcDbLine
 10
56.1473958079486
 20
6.786480540679706
 30
0.0
 11
55.70783568876184
 21
7.233889870590497
 31
0.0
  0
LINE
  5
17F8
102
{ACAD_REACTORS
330
182C
102
}
330
1725
100
AcDbEntity
  8
0
  6
Continuous
 62
     7
100
AcDbLine
 10
53.45509034889037
 20
4.769213771472806
 30
0.0
 11
52.43468296716208
 21
4.769213771472806
 31
0.0
  0
LINE
  5
17F9
102
{ACAD_REACTORS
330
182C
102
}
330
1725
100
AcDbEntity
  8
0
  6
Continuous
 62
     7
100
AcDbLine
 10
53.25885819153349
 20
6.291975406295859
 30
0.0
 11
54.00454040765317
 21
6.299824706643043
 31
0.0
  0
LINE
  5
17FA
102
{ACAD_REACTORS
330
182C
102
}
330
1725
100
AcDbEntity
  8
0
  6
Continuous
 62
     7
100
AcDbLine
 10
52.43468296716208
 20
4.769213771472806
 30
0.0
 11
53.25885819153349
 21
6.291975406295859
 31
0.0
  0
LINE
  5
17FB
102
{ACAD_REACTORS
330
182C
102
}
330
1725
100
AcDbEntity
  8
0
  6
Continuous
 62
     7
100
AcDbLine
 10
53.87110256584057
 20
4.902651613285406
 30
0.0
 11
53.6591718065944
 21
4.808460184780562
 31
0.0
  0
LINE
  5
17FC
102
{ACAD_REACTORS
330
182C
102
}
330
1725
100
AcDbEntity
  8
0
  6
Continuous
 62
     7
100
AcDbLine
 10
55.84127362139255
 20
4.557283012226622
 30
0.0
 11
56.15524510949075
 21
5.028240244373931
 31
0.0
  0
LINE
  5
17FD
102
{ACAD_REACTORS
330
182C
102
}
330
1725
100
AcDbEntity
  8
0
  6
Continuous
 62
     7
100
AcDbLine
 10
55.44096000513666
 20
4.164818606694804
 30
0.0
 11
55.84127362139255
 21
4.557283012226622
 31
0.0
  0
LINE
  5
17FE
102
{ACAD_REACTORS
330
182C
102
}
330
1725
100
AcDbEntity
  8
0
  6
Continuous
 62
     7
100
AcDbLine
 10
54.15367685016012
 20
3.536875631693354
 30
0.0
 11
54.75807201493812
 21
3.748806389744563
 31
0.0
  0
LINE
  5
17FF
102
{ACAD_REACTORS
330
182C
102
}
330
1725
100
AcDbEntity
  8
0
  6
Continuous
 62
     7
100
AcDbLine
 10
54.75807201493812
 20
3.748806389744563
 30
0.0
 11
55.1348377277625
 21
3.929340036030197
 31
0.0
  0
LINE
  5
1800
102
{ACAD_REACTORS
330
182C
102
}
330
1725
100
AcDbEntity
  8
0
  6
Continuous
 62
     7
100
AcDbLine
 10
55.1348377277625
 20
3.929340036030197
 30
0.0
 11
55.44096000513666
 21
4.164818606694804
 31
0.0
  0
LINE
  5
1801
102
{ACAD_REACTORS
330
182C
102
}
330
1725
100
AcDbEntity
  8
0
  6
Continuous
 62
     7
100
AcDbLine
 10
53.53358317550585
 20
3.44268420318852
 30
0.0
 11
54.15367685016012
 21
3.536875631693354
 31
0.0
  0
LINE
  5
1802
102
{ACAD_REACTORS
330
182C
102
}
330
1725
100
AcDbEntity
  8
0
  6
Continuous
 62
     7
100
AcDbLine
 10
53.6591718065944
 20
4.808460184780562
 30
0.0
 11
53.45509034889037
 21
4.769213771472806
 31
0.0
  0
LINE
  5
1803
102
{ACAD_REACTORS
330
182C
102
}
330
1725
100
AcDbEntity
  8
0
  6
Continuous
 62
     7
100
AcDbLine
 10
54.00454040765317
 20
6.299824706643043
 30
0.0
 11
54.28711478279081
 21
6.221331880027543
 31
0.0
  0
LINE
  5
1804
102
{ACAD_REACTORS
330
182C
102
}
330
1725
100
AcDbEntity
  8
0
  6
Continuous
 62
     7
100
AcDbLine
 10
54.28711478279081
 20
6.221331880027543
 30
0.0
 11
54.48334694014765
 21
5.985853218544831
 31
0.0
  0
LINE
  5
1805
102
{ACAD_REACTORS
330
182C
102
}
330
1725
100
AcDbEntity
  8
0
  6
Continuous
 62
     7
100
AcDbLine
 10
54.48334694014765
 20
5.985853218544831
 30
0.0
 11
54.50689484238418
 21
5.726826745643707
 31
0.0
  0
LINE
  5
1806
102
{ACAD_REACTORS
330
182C
102
}
330
1725
100
AcDbEntity
  8
0
  6
Continuous
 62
     7
100
AcDbLine
 10
54.50689484238418
 20
5.726826745643707
 30
0.0
 11
54.42840192495058
 21
5.45210167085325
 31
0.0
  0
LINE
  5
1807
102
{ACAD_REACTORS
330
182C
102
}
330
1725
100
AcDbEntity
  8
0
  6
Continuous
 62
     7
100
AcDbLine
 10
54.42840192495058
 20
5.45210167085325
 30
0.0
 11
54.35775830905914
 21
5.310814528693477
 31
0.0
  0
LINE
  5
1808
102
{ACAD_REACTORS
330
182C
102
}
330
1725
100
AcDbEntity
  8
0
  6
Continuous
 62
     7
100
AcDbLine
 10
54.35775830905914
 20
5.310814528693477
 30
0.0
 11
54.28711478279081
 21
5.200924499494274
 31
0.0
  0
LINE
  5
1809
102
{ACAD_REACTORS
330
182C
102
}
330
1725
100
AcDbEntity
  8
0
  6
Continuous
 62
     7
100
AcDbLine
 10
54.28711478279081
 20
5.200924499494274
 30
0.0
 11
54.08303332508677
 21
5.020390944026757
 31
0.0
  0
LINE
  5
180A
102
{ACAD_REACTORS
330
182C
102
}
330
1725
100
AcDbEntity
  8
0
  6
Continuous
 62
     7
100
AcDbLine
 10
54.08303332508677
 20
5.020390944026757
 30
0.0
 11
53.87110256584057
 21
4.902651613285406
 31
0.0
  0
LINE
  5
180B
102
{ACAD_REACTORS
330
182C
102
}
330
1725
100
AcDbEntity
  8
0
  6
Continuous
 62
     7
100
AcDbLine
 10
56.15524510949075
 20
5.028240244373931
 30
0.0
 11
56.31223085234488
 21
5.49919747652126
 31
0.0
  0
LINE
  5
180C
102
{ACAD_REACTORS
330
182C
102
}
330
1725
100
AcDbEntity
  8
0
  6
Continuous
 62
     7
100
AcDbLine
 10
56.31223085234488
 20
5.49919747652126
 30
0.0
 11
56.34362796530545
 21
5.985853218544831
 31
0.0
  0
LINE
  5
180D
102
{ACAD_REACTORS
330
182C
102
}
330
1725
100
AcDbEntity
  8
0
  6
Continuous
 62
     7
100
AcDbLine
 10
56.34362796530545
 20
5.985853218544831
 30
0.0
 11
56.31223085234488
 21
6.401865435495062
 31
0.0
  0
LINE
  5
180E
102
{ACAD_REACTORS
330
182C
102
}
330
1725
100
AcDbEntity
  8
0
  6
Continuous
 62
     7
100
AcDbLine
 10
56.31223085234488
 20
6.401865435495062
 30
0.0
 11
56.1473958079486
 21
6.786480540679706
 31
0.0
  0
LINE
  5
180F
102
{ACAD_REACTORS
330
182C
102
}
330
1725
100
AcDbEntity
  8
0
  6
Continuous
 62
     7
100
AcDbLine
 10
55.11128991634409
 20
7.516464245728148
 30
0.0
 11
52.00297224033562
 21
7.516464245728148
 31
0.0
  0
LINE
  5
1810
102
{ACAD_REACTORS
330
182C
102
}
330
1725
100
AcDbEntity
  8
0
  6
Continuous
 62
     7
100
AcDbLine
 10
55.70783568876184
 20
7.233889870590497
 30
0.0
 11
55.11128991634409
 21
7.516464245728148
 31
0.0
  0
LINE
  5
1811
102
{ACAD_REACTORS
330
182D
102
}
330
1725
100
AcDbEntity
  8
0
  6
Continuous
 62
     7
100
AcDbLine
 10
62.85068699400222
 20
6.527454067778582
 30
0.0
 11
62.13640189084312
 21
7.249588471284865
 31
0.0
  0
LINE
  5
1812
102
{ACAD_REACTORS
330
182D
102
}
330
1725
100
AcDbEntity
  8
0
  6
Continuous
 62
     7
100
AcDbLine
 10
62.48961979224907
 20
3.497629218385598
 30
0.0
 11
62.85068699400222
 21
4.259010035199637
 31
0.0
  0
LINE
  5
1813
102
{ACAD_REACTORS
330
182D
102
}
330
1725
100
AcDbEntity
  8
0
  6
Continuous
 62
     7
100
AcDbLine
 10
58.45508625383529
 20
2.791193415573673
 30
0.0
 11
59.92290287346126
 21
5.883812489692814
 31
0.0
  0
LINE
  5
1814
102
{ACAD_REACTORS
330
182D
102
}
330
1725
100
AcDbEntity
  8
0
  6
Continuous
 62
     7
100
AcDbLine
 10
61.1316931110042
 20
5.263718815038547
 30
0.0
 11
61.03750168249935
 21
4.353201554522586
 31
0.0
  0
LINE
  5
1815
102
{ACAD_REACTORS
330
182D
102
}
330
1725
100
AcDbEntity
  8
0
  6
Continuous
 62
     7
100
AcDbLine
 10
60.45665442115283
 20
3.552574232387712
 30
0.0
 11
60.22117585048824
 21
3.293547759486577
 31
0.0
  0
LINE
  5
1816
102
{ACAD_REACTORS
330
182D
102
}
330
1725
100
AcDbEntity
  8
0
  6
Continuous
 62
     7
100
AcDbLine
 10
59.10657704145013
 20
2.791193415573673
 30
0.0
 11
58.45508625383529
 21
2.791193415573673
 31
0.0
  0
LINE
  5
1817
102
{ACAD_REACTORS
330
182D
102
}
330
1725
100
AcDbEntity
  8
0
  6
Continuous
 62
     7
100
AcDbLine
 10
60.22117585048824
 20
3.293547759486577
 30
0.0
 11
59.96999858711618
 21
3.081617001435368
 31
0.0
  0
LINE
  5
1818
102
{ACAD_REACTORS
330
182D
102
}
330
1725
100
AcDbEntity
  8
0
  6
Continuous
 62
     7
100
AcDbLine
 10
59.96999858711618
 20
3.081617001435368
 30
0.0
 11
59.55398637016596
 21
2.885384844078506
 31
0.0
  0
LINE
  5
1819
102
{ACAD_REACTORS
330
182D
102
}
330
1725
100
AcDbEntity
  8
0
  6
Continuous
 62
     7
100
AcDbLine
 10
59.55398637016596
 20
2.885384844078506
 30
0.0
 11
59.10657704145013
 21
2.791193415573673
 31
0.0
  0
LINE
  5
181A
102
{ACAD_REACTORS
330
182D
102
}
330
1725
100
AcDbEntity
  8
0
  6
Continuous
 62
     7
100
AcDbLine
 10
61.03750168249935
 20
4.353201554522586
 30
0.0
 11
60.45665442115283
 21
3.552574232387712
 31
0.0
  0
LINE
  5
181B
102
{ACAD_REACTORS
330
182D
102
}
330
1725
100
AcDbEntity
  8
0
  6
Continuous
 62
     7
100
AcDbLine
 10
62.01866256010174
 20
2.791193415573673
 30
0.0
 11
62.48961979224907
 21
3.497629218385598
 31
0.0
  0
LINE
  5
181C
102
{ACAD_REACTORS
330
182D
102
}
330
1725
100
AcDbEntity
  8
0
  6
Continuous
 62
     7
100
AcDbLine
 10
60.37031229419016
 20
5.883812489692814
 30
0.0
 11
60.83342022479532
 21
5.687580332335962
 31
0.0
  0
LINE
  5
181D
102
{ACAD_REACTORS
330
182D
102
}
330
1725
100
AcDbEntity
  8
0
  6
Continuous
 62
     7
100
AcDbLine
 10
59.92290287346126
 20
5.883812489692814
 30
0.0
 11
60.37031229419016
 21
5.883812489692814
 31
0.0
  0
LINE
  5
181E
102
{ACAD_REACTORS
330
182D
102
}
330
1725
100
AcDbEntity
  8
0
  6
Continuous
 62
     7
100
AcDbLine
 10
60.83342022479532
 20
5.687580332335962
 30
0.0
 11
61.1316931110042
 21
5.263718815038547
 31
0.0
  0
LINE
  5
181F
102
{ACAD_REACTORS
330
182D
102
}
330
1725
100
AcDbEntity
  8
0
  6
Continuous
 62
     7
100
AcDbLine
 10
63.02337133994067
 20
4.769213771472806
 30
0.0
 11
63.10186416655615
 21
5.302965228346293
 31
0.0
  0
LINE
  5
1820
102
{ACAD_REACTORS
330
182D
102
}
330
1725
100
AcDbEntity
  8
0
  6
Continuous
 62
     7
100
AcDbLine
 10
62.85068699400222
 20
4.259010035199637
 30
0.0
 11
63.02337133994067
 21
4.769213771472806
 31
0.0
  0
LINE
  5
1821
102
{ACAD_REACTORS
330
182D
102
}
330
1725
100
AcDbEntity
  8
0
  6
Continuous
 62
     7
100
AcDbLine
 10
63.10186416655615
 20
5.302965228346293
 30
0.0
 11
63.0626177532484
 21
5.938757504889902
 31
0.0
  0
LINE
  5
1822
102
{ACAD_REACTORS
330
182D
102
}
330
1725
100
AcDbEntity
  8
0
  6
Continuous
 62
     7
100
AcDbLine
 10
63.0626177532484
 20
5.938757504889902
 30
0.0
 11
62.85068699400222
 21
6.527454067778582
 31
0.0
  0
LINE
  5
1823
102
{ACAD_REACTORS
330
182D
102
}
330
1725
100
AcDbEntity
  8
0
  6
Continuous
 62
     7
100
AcDbLine
 10
61.17878882585412
 20
7.524313546075333
 30
0.0
 11
58.42368905005661
 21
7.524313546075333
 31
0.0
  0
LINE
  5
1824
102
{ACAD_REACTORS
330
182D
102
}
330
1725
100
AcDbEntity
  8
0
  6
Continuous
 62
     7
100
AcDbLine
 10
62.13640189084312
 20
7.249588471284865
 30
0.0
 11
61.17878882585412
 21
7.524313546075333
 31
0.0
  0
HATCH
  5
1825
330
1725
100
AcDbEntity
  8
0
  6
Continuous
100
AcDbHatch
 10
0.0
 20
0.0
 30
0.0
210
0.0
220
0.0
230
1.0
  2
SOLID
 70
     1
 71
     1
 91
        2
 92
        7
 72
     0
 73
     1
 93
       19
 10
8.462976688759155
 20
4.965445928829641
 10
8.871139605362328
 20
5.295115926804165
 10
9.342096836314672
 20
5.828867474495767
 10
9.69531473772062
 20
6.44896115034505
 10
9.891546895077471
 20
7.100452028777971
 10
9.94649191027457
 20
7.783340018976558
 10
9.891546895077482
 20
8.348488679628598
 10
9.695314737720599
 20
8.858692325083699
 10
9.169412491571197
 20
9.463087397848617
 10
8.439428786522745
 20
9.855551803380445
 10
4.703168134317845
 20
9.85555180338045
 10
0.5587445655098797
 20
1.127144547772762
 10
2.866434920578464
 20
1.127144547772762
 10
4.373498044330322
 20
4.321804350743905
 10
5.291864697206525
 20
1.127144547772773
 10
7.442569307031007
 20
1.127144547772762
 10
6.539901348057206
 20
4.298256539325503
 10
7.309131466413393
 20
4.439543681485288
 10
8.031265869919636
 20
4.70641945592855
 97
       19
330
174D
330
1750
330
1751
330
1748
330
1758
330
1759
330
175A
330
1754
330
175B
330
1753
330
1728
330
1729
330
1732
330
1733
330
1739
330
1731
330
174B
330
174C
330
174A
 92
       22
 72
     0
 73
     1
 93
        9
 10
5.229070380467288
 20
6.119291151175579
 10
6.210231258069661
 20
8.191502935579514
 10
7.112899309056563
 20
8.191502935579519
 10
7.466117210462532
 20
8.097311507074675
 10
7.701595779932142
 20
7.783340018976452
 10
7.740842284057982
 20
7.414423516876163
 10
7.521062224464624
 20
6.864973367295185
 10
7.230638548979799
 20
6.472509052581488
 10
6.602695572783342
 20
6.134989662246774
 97
        9
330
1747
330
1752
330
1757
330
1755
330
1756
330
1746
330
174E
330
174F
330
1749
 75
     0
 76
     1
 47
0.0036111601072555
 98
        2
 10
4.900035051938487
 20
4.835902390131814
 10
4.900035051938487
 20
4.835902390131814
  0
HATCH
  5
1826
330
1725
100
AcDbEntity
  8
0
  6
Continuous
100
AcDbHatch
 10
0.0
 20
0.0
 30
0.0
210
0.0
220
0.0
230
1.0
  2
SOLID
 70
     1
 71
     1
 91
        2
 92
        7
 72
     0
 73
     1
 93
        8
 10
15.41744504736681
 20
7.524313546075344
 10
12.544605940828
 20
7.524313546075349
 10
7.780088697365748
 20
1.127144547772762
 10
10.05638193947376
 20
1.127144547772762
 10
10.80206424641154
 20
2.124004026069518
 10
12.70159168487708
 20
2.131853236793562
 10
12.50535952752021
 20
1.134993848119935
 10
14.59326991381352
 20
1.127144547772757
 97
        8
330
175F
330
1734
330
173A
330
173B
330
1738
330
173E
330
173D
330
172F
 92
       22
 72
     0
 73
     1
 93
        3
 10
11.92451226617371
 20
3.631067149821338
 10
13.35308256331005
 20
5.530594588286882
 10
12.9841660612097
 20
3.631067149821338
 97
        3
330
175C
330
175D
330
175E
 75
     0
 76
     1
 47
0.0036111601072555
 98
        2
 10
12.15217659550788
 20
2.721431587313898
 10
12.15217659550788
 20
2.721431587313898
  0
HATCH
  5
1827
330
1725
100
AcDbEntity
  8
0
  6
Continuous
100
AcDbHatch
 10
0.0
 20
0.0
 30
0.0
210
0.0
220
0.0
230
1.0
  2
SOLID
 70
     1
 71
     1
 91
        1
 92
        7
 72
     0
 73
     1
 93
        4
 10
20.15056517786848
 20
7.524313546075333
 10
18.07835339346448
 20
7.524313546075333
 10
15.08777495737924
 20
1.127144547772767
 10
17.15998674178326
 20
1.127144547772757
 97
        4
330
1760
330
1730
330
173C
330
1735
 75
     0
 76
     1
 47
0.0036111601072555
 98
        1
 10
17.59128275318489
 20
3.972853160129166
  0
HATCH
  5
1828
330
1725
100
AcDbEntity
  8
0
  6
Continuous
100
AcDbHatch
 10
0.0
 20
0.0
 30
0.0
210
0.0
220
0.0
230
1.0
  2
SOLID
 70
     1
 71
     1
 91
        1
 92
        7
 72
     0
 73
     1
 93
       10
 10
23.48651212419438
 20
7.524313546075338
 10
21.4143003397904
 20
7.524313546075333
 10
18.42372199452328
 20
1.127144547772757
 10
20.48808447738508
 20
1.127144547772757
 10
22.04224331598682
 20
4.455242283374583
 10
22.56029626178907
 20
1.127144547772751
 10
24.63250804619304
 20
1.127144547772751
 10
27.63878508416762
 20
7.524313546075333
 10
25.55872399822147
 20
7.524313546075338
 10
24.11445509919583
 20
4.455242283374609
 97
       10
330
176C
330
1736
330
1737
330
172C
330
172B
330
173F
330
172D
330
1770
330
1768
330
1769
 75
     0
 76
     1
 47
0.0036111601072555
 98
        1
 10
21.95120127306932
 20
5.483189447856246
  0
HATCH
  5
1829
330
1725
100
AcDbEntity
  8
0
  6
Continuous
100
AcDbHatch
 10
0.0
 20
0.0
 30
0.0
210
0.0
220
0.0
230
1.0
  2
SOLID
 70
     1
 71
     1
 91
        1
 92
        7
 72
     0
 73
     1
 93
       80
 10
37.45824324657691
 20
4.706419455928523
 10
37.27770960029127
 20
4.910500913632585
 10
37.05008024035072
 20
5.043938755445163
 10
36.63406802220548
 20
5.15382878464437
 10
36.22590510679728
 20
5.15382878464437
 10
36.00612513802208
 20
5.138130183950023
 10
35.78634507842879
 20
5.15382878464436
 10
35.57441431918259
 20
5.185225988423052
 10
35.38603137135479
 20
5.295115926804144
 10
35.24474422919505
 20
5.475649574284737
 10
35.15840210223236
 20
5.671881731641589
 10
35.16625140257953
 20
5.868113887803438
 10
35.22119641777662
 20
6.040798233741867
 10
35.9747279342435
 20
7.524313546075349
 10
36.01397434755126
 20
7.657751387887969
 10
36.05322085167709
 20
7.775490718629384
 10
36.09246726498483
 20
8.003119987751773
 10
36.09246726498483
 20
8.191502935579551
 10
36.05322085167708
 20
8.403433694825697
 10
35.98257723459068
 20
8.63106296394814
 10
35.86483790504425
 20
8.795898008344451
 10
35.72355076168955
 20
8.952883752393526
 10
31.98729010948464
 20
12.08474933183351
 10
33.0547931140497
 20
10.02038684777672
 10
32.31696019947219
 20
10.42070046403258
 10
33.0547931140497
 20
9.188362413876264
 10
32.31696019947219
 20
9.5180324130457
 10
33.23532676153033
 20
8.113010018145887
 10
32.38760372574049
 20
8.521172934748953
 10
33.23532676153031
 20
7.2888348845926
 10
32.72512311607524
 20
7.626354274927351
 10
33.13328603148331
 20
6.86497336729519
 10
30.58226771458484
 20
7.956024274096781
 10
27.7486750225487
 20
11.0878898523418
 10
28.58854875799131
 20
9.69071675898415
 10
28.18038584138828
 20
9.769209585599645
 10
28.58854875799133
 20
9.282553842381087
 10
28.21963225469603
 20
9.361046668996609
 10
28.41586450287099
 20
9.109869496442653
 10
27.92920866883434
 20
9.188362413876264
 10
28.07834511253625
 20
8.850843023541539
 10
27.08148563304456
 20
9.188362413876259
 10
27.5916892784996
 20
8.772350196926034
 10
25.44098466748014
 20
9.031376669827158
 10
29.84443470918918
 20
7.453669930183886
 10
32.36405591312712
 20
5.075335958028875
 10
31.50848357699013
 20
5.216623100188643
 10
31.75181144919688
 20
4.792761582891229
 10
30.40958336984136
 20
5.043938755445173
 10
31.07677275815055
 20
4.557283012226622
 10
29.26358744784267
 20
4.886953011396068
 10
30.17410479917675
 20
4.117722893039859
 10
28.18038584138827
 20
4.455242283374599
 10
29.08305389237517
 20
3.788052803052313
 10
26.59482989102095
 20
4.219763621891893
 10
31.58697649442377
 20
1.802183237624084
 10
31.8538521780489
 20
1.700142508772098
 10
32.1285772528394
 20
1.645197493574999
 10
32.35620661277992
 20
1.645197493574999
 10
32.57950452971825
 20
1.715841018648351
 10
32.79576664114859
 20
1.849278951279029
 10
32.97630028743423
 20
2.045511108635907
 10
34.04380329199925
 20
3.811600705288825
 10
34.27928195348203
 20
4.047079275953453
 10
34.55400702827246
 20
4.219763621891898
 10
34.94647134298615
 20
4.321804350743894
 10
35.37818216182576
 20
4.313955050396726
 10
35.80204358830505
 20
4.259010035199637
 10
36.21805580525529
 20
4.156969306347608
 10
36.62621881267642
 20
4.015682164187857
 10
37.03438172927947
 20
3.827299307178174
 10
37.25416178887279
 20
3.662464262781926
 10
37.4503939462297
 20
3.489779916843444
 10
37.85070756129059
 20
2.979576271388375
 10
37.70942041913083
 20
3.387739187991442
 10
38.44725342452646
 20
3.317095661723099
 10
37.63092750169723
 20
3.81160070528883
 10
37.66232470428093
 20
4.007832862645697
 10
37.67017400582307
 20
4.23546222378122
 10
37.59953038873664
 20
4.478790094793032
 97
       80
330
1782
330
179D
330
1793
330
1794
330
179C
330
1795
330
1796
330
1797
330
1798
330
1799
330
179A
330
179B
330
1779
330
17A9
330
17AA
330
17AC
330
17A5
330
17AB
330
17A6
330
17A7
330
17A8
330
1761
330
1762
330
17A2
330
17A3
330
17A4
330
179E
330
179F
330
17A0
330
17A1
330
1778
330
177A
330
1767
330
1777
330
1772
330
1773
330
1774
330
1775
330
1776
330
176D
330
176E
330
176F
330
1771
330
1766
330
177B
330
1781
330
177D
330
177E
330
177F
330
1764
330
1765
330
1763
330
176B
330
176A
330
172E
330
1742
330
1741
330
1740
330
1743
330
1744
330
1745
330
172A
330
1780
330
177C
330
1785
330
1786
330
1787
330
1788
330
1784
330
1783
330
1789
330
178A
330
178B
330
178C
330
178D
330
178E
330
178F
330
1790
330
1791
330
1792
 75
     0
 76
     1
 47
0.0036111601072555
 98
        1
 10
33.47692622624205
 20
4.533835132586407
  0
HATCH
  5
182A
330
1725
100
AcDbEntity
  8
0
  6
Continuous
100
AcDbHatch
 10
0.0
 20
0.0
 30
0.0
210
0.0
220
0.0
230
1.0
  2
SOLID
 70
     1
 71
     1
 91
        3
 92
        7
 72
     0
 73
     1
 93
       21
 10
45.03280527983874
 20
2.39872901004187
 10
45.46451609867829
 20
3.105164903671848
 10
45.62935105225647
 20
3.945038547101451
 10
45.50376251198605
 20
4.572981523297844
 10
45.0877502950358
 20
4.941898026593145
 10
45.68429606745356
 20
5.138130183950018
 10
46.21019831479793
 20
5.467800272742588
 10
46.64190913244254
 20
5.93875750488988
 10
46.93233271830425
 20
6.527454067778598
 10
47.12856496647922
 20
7.139698442085648
 10
47.18350989085822
 20
7.751942816392761
 10
47.07361995128214
 20
8.285694364084315
 10
46.82244268910504
 20
8.795898008344437
 10
46.18665050218456
 20
9.533731014935042
 10
45.35462606828412
 20
9.855551803380429
 10
42.08147334787933
 20
9.855551803380439
 10
37.92920047872422
 20
1.127144547772751
 10
42.8977991798905
 20
1.127144547772751
 10
43.64348148682822
 20
1.307678103240259
 10
44.31067087633245
 20
1.700142508772051
 10
44.69528588950393
 20
2.021963206399342
 97
       21
330
17B2
330
17E2
330
17E3
330
17E1
330
17E5
330
17E6
330
17E4
330
17EB
330
17CF
330
17F3
330
17F4
330
17F5
330
17EE
330
17F6
330
17ED
330
1727
330
1726
330
17BA
330
17B9
330
17BC
330
17BD
 92
       22
 72
     0
 73
     1
 93
       13
 10
41.02966885438552
 20
2.791193415573689
 10
41.90878900194088
 20
4.667173042620794
 10
42.81145705292778
 20
4.675022252149862
 10
43.14112705090225
 20
4.557283012226617
 10
43.37660571238496
 20
4.23546222378123
 10
43.39230422345621
 20
3.882244322375262
 10
43.28241428507512
 20
3.536875631693348
 10
43.1725242546809
 20
3.356342075030802
 10
43.04693562359247
 20
3.207205632523701
 10
42.8664020681249
 20
3.010973384348936
 10
42.63092340664215
 20
2.869686242189157
 10
42.39544483597753
 20
2.814741226992085
 10
42.14426757260558
 20
2.791193415573673
 97
       13
330
17D3
330
17D5
330
17D6
330
17D7
330
17D8
330
17D9
330
17DA
330
17DB
330
17DC
330
17DD
330
17DE
330
17DF
330
17D4
 92
       22
 72
     0
 73
     1
 93
       13
 10
42.68586842064427
 20
6.331221910421757
 10
43.58853647163115
 20
8.191502935579503
 10
44.49120443179995
 20
8.191502935579492
 10
44.82087452059253
 20
8.097311507074659
 10
45.05635309125714
 20
7.783340018976441
 10
45.07205169314644
 20
7.406574215333971
 10
44.9621616639473
 20
7.053356313928019
 10
44.86012093390025
 20
6.888521269531686
 10
44.72668309328232
 20
6.747234127371993
 10
44.54614944699701
 20
6.551001879196983
 10
44.31067087633245
 20
6.417564037384416
 10
44.0751922148497
 20
6.354769721840143
 10
43.82401504229579
 20
6.331221910421715
 97
       13
330
17D1
330
17EC
330
17F2
330
17EF
330
17F0
330
17F1
330
17D0
330
17EA
330
17E7
330
17E8
330
17E9
330
17D2
330
17E0
 75
     0
 76
     1
 47
0.0036111601072555
 98
        3
 10
39.5635450217378
 20
2.030992167252444
 10
39.5635450217378
 20
2.030992167252444
 10
39.5635450217378
 20
2.030992167252444
  0
HATCH
  5
182B
330
1725
100
AcDbEntity
  8
0
  6
Continuous
100
AcDbHatch
 10
0.0
 20
0.0
 30
0.0
210
0.0
220
0.0
230
1.0
  2
SOLID
 70
     1
 71
     1
 91
        1
 92
        7
 72
     0
 73
     1
 93
        4
 10
50.48021051469445
 20
7.524313546075338
 10
48.39230012840115
 20
7.524313546075338
 10
45.40172178313402
 20
1.127144547772757
 10
47.48178286788518
 20
1.127144547772751
 97
        4
330
17CE
330
17B4
330
17BB
330
17B3
 75
     0
 76
     1
 47
0.0036111601072555
 98
        1
 10
48.28338178579101
 20
4.188615512703956
  0
HATCH
  5
182C
330
1725
100
AcDbEntity
  8
0
  6
Continuous
100
AcDbHatch
 10
0.0
 20
0.0
 30
0.0
210
0.0
220
0.0
230
1.0
  2
SOLID
 70
     1
 71
     1
 91
        2
 92
        7
 72
     0
 73
     1
 93
       19
 10
55.84127362139257
 20
4.557283012226664
 10
56.15524510949076
 20
5.028240244373951
 10
56.31223085234488
 20
5.499197476521291
 10
56.34362796530545
 20
5.985853218544842
 10
56.31223085234488
 20
6.401865435495077
 10
56.14739580794861
 20
6.786480540679701
 10
55.70783568876184
 20
7.233889870590497
 10
55.11128991634409
 20
7.516464245728148
 10
52.00297224033564
 20
7.516464245728154
 10
48.5649844743396
 20
1.127144547772757
 10
50.48021051469445
 20
1.127144547772746
 10
51.72824716554515
 20
3.458382805077837
 10
52.48962798235917
 20
1.127144547772751
 10
54.29496408313799
 20
1.127144547772751
 10
53.53358317550584
 20
3.442684203188525
 10
54.15367685016011
 20
3.536875631693354
 10
54.75807201493812
 20
3.748806389744558
 10
55.1348377277625
 20
3.929340036030197
 10
55.44096000513661
 20
4.164818606694804
 97
       19
330
17FC
330
180B
330
180C
330
180D
330
180E
330
17F7
330
1810
330
180F
330
17B5
330
17B8
330
17B0
330
17B1
330
17BE
330
17B6
330
1801
330
17FE
330
17FF
330
1800
330
17FD
 92
       22
 72
     0
 73
     1
 93
       13
 10
52.4346829671621
 20
4.769213771472816
 10
53.2588581915335
 20
6.291975406295859
 10
54.00454040765319
 20
6.299824706643038
 10
54.28711478279081
 20
6.221331880027538
 10
54.48334694014767
 20
5.985853218544831
 10
54.50689484238418
 20
5.726826745643712
 10
54.42840192495058
 20
5.452101670853239
 10
54.3577583090591
 20
5.310814528693439
 10
54.28711478279081
 20
5.200924499494264
 10
54.08303332508677
 20
5.020390944026751
 10
53.87110256584053
 20
4.902651613285391
 10
53.65917180659437
 20
4.808460184780562
 10
53.45509034889038
 20
4.769213771472806
 97
       13
330
17FA
330
17F9
330
1803
330
1804
330
1805
330
1806
330
1807
330
1808
330
1809
330
180A
330
17FB
330
1802
330
17F8
 75
     0
 76
     1
 47
0.0036111601072555
 98
        2
 10
51.56411266788281
 20
4.404377684982193
 10
51.56411266788281
 20
4.404377684982193
  0
HATCH
  5
182D
330
1725
100
AcDbEntity
  8
0
  6
Continuous
100
AcDbHatch
 10
0.0
 20
0.0
 30
0.0
210
0.0
220
0.0
230
1.0
  2
SOLID
 70
     1
 71
     1
 91
        2
 92
        7
 72
     0
 73
     1
 93
       15
 10
61.63404745611209
 20
2.32808548377358
 10
62.01866256010173
 20
2.791193415573641
 10
62.48961979224908
 20
3.497629218385598
 10
62.85068699400222
 20
4.259010035199584
 10
63.02337133994067
 20
4.769213771472795
 10
63.10186416655615
 20
5.302965228346282
 10
63.0626177532484
 20
5.938757504889891
 10
62.85068699400222
 20
6.527454067778582
 10
62.13640189084312
 20
7.249588471284865
 10
61.17878882585414
 20
7.524313546075328
 10
58.42368905005661
 20
7.524313546075338
 10
55.36246708770306
 20
1.127144547772751
 10
59.5147399568582
 20
1.127144547772746
 10
60.40955870749792
 20
1.370472418784532
 10
61.17878882585415
 20
1.896374666128971
 97
       15
330
17AD
330
181B
330
1812
330
1820
330
181F
330
1821
330
1822
330
1811
330
1824
330
1823
330
17AE
330
17B7
330
17C0
330
17BF
330
17C1
 92
       22
 72
     0
 73
     1
 93
       11
 10
58.4550862538353
 20
2.791193415573662
 10
59.92290287346124
 20
5.883812489692819
 10
60.37031229419016
 20
5.883812489692819
 10
60.83342022479532
 20
5.687580332335968
 10
61.1316931110042
 20
5.263718815038537
 10
61.03750168249937
 20
4.353201554522575
 10
60.45665442115283
 20
3.552574232387764
 10
60.22117585048825
 20
3.293547759486604
 10
59.96999858711621
 20
3.081617001435378
 10
59.55398637016597
 20
2.885384844078517
 10
59.10657704145011
 20
2.791193415573678
 97
       11
330
1813
330
181D
330
181C
330
181E
330
1814
330
181A
330
1815
330
1817
330
1818
330
1819
330
1816
 75
     0
 76
     1
 47
0.0036111601072555
 98
        2
 10
58.25507640819889
 20
2.117297072223062
 10
58.25507640819889
 20
2.117297072223062
  0
LWPOLYLINE
  5
182E
102
{ACAD_REACTORS
330
182F
102
}
330
1725
100
AcDbEntity
  8
0
  6
Continuous
 62
     7
100
AcDbPolyline
 90
        2
 70
     0
 43
0.0
 10
63.53079089675337
 20
2.14476011002965
 42
1.011323096064609
 10
63.53079089936399
 20
2.590659806398435
 42
0.9999999688039844
  0
HATCH
  5
182F
330
1725
100
AcDbEntity
  8
0
  6
Continuous
100
AcDbHatch
 10
0.0
 20
0.0
 30
0.0
210
0.0
220
0.0
230
1.0
  2
SOLID
 70
     1
 71
     1
 91
        2
 92
        7
 72
     1
 73
     1
 93
        9
 10
63.53079087996222
 20
2.862725626292913
 42
0.0
 10
62.74103962530223
 20
2.862725652858133
 42
0.0
 10
62.74103962530223
 20
1.230310395918888
 42
0.0
 10
63.01310547365945
 20
1.230310395918878
 42
0.0
 10
63.01310547365947
 20
1.872694187669333
 42
0.0
 10
63.31116399761024
 20
1.872694187669333
 42
0.0
 10
63.72330079628667
 20
1.230310395918888
 42
0.0
 10
64.04654639418962
 20
1.230310395918883
 42
0.0
 10
63.62819992986472
 20
1.882372944639727
 42
0.9055632017337405
 97
        9
330
17C9
330
17CA
330
17C2
330
17C3
330
17C4
330
17C5
330
17C6
330
17C7
330
17C8
 92
       22
 72
     1
 73
     1
 93
        4
 10
63.01310547365947
 20
2.590659806398435
 42
0.0
 10
63.53079089936397
 20
2.590659806398435
 42
-1.011323096064609
 10
63.53079089675339
 20
2.14476011002965
 42
0.0
 10
63.01310547365947
 20
2.144760178340213
 42
0.0
 97
        4
330
17CC
330
182E
330
17CD
330
17CB
 75
     0
 76
     1
 47
0.0003127490172831
 98
        2
 10
62.90986452065723
 20
2.177397853413381
 10
62.90986452065723
 20
2.177397853413381
  0
ENDBLK
  5
1831
330
1725
100
AcDbEntity
  8
0
100
AcDbBlockEnd
  0
BLOCK
  5
18F6
330
18EA
100
AcDbEntity
  8
0
100
AcDbBlockBegin
  2
titleblock
 70
     2
 10
0.0
 20
0.0
 30
0.0
  3
titleblock
  1

  0
LWPOLYLINE
  5
18EB
330
18EA
100
AcDbEntity
  8
image
100
AcDbPolyline
 90
        4
 70
     1
 43
0.0
 10
0.0
 20
0.0
 10
16.48999999999999
 20
0.0000000000000001
 10
16.48999999999999
 20
10.44
 10
0.0
 20
10.44
  0
ATTDEF
  5
18EC
330
18EA
100
AcDbEntity
  8
TITLE
100
AcDbText
 10
0.5055556038023421
 20
0.7842270964783673
 30
0.0
 40
0.2
  1
D
  7
L200
 72
     4
 11
0.6064423705144839
 21
0.8842270964783672
 31
0.0
100
AcDbAttributeDefinition
  3
#
  2
D
 70
     0
  0
ATTDEF
  5
18ED
330
18EA
100
AcDbEntity
  8
TITLE
100
AcDbText
 10
1.231442370514484
 20
1.34371230274675
 30
0.0
 40
0.2
  1

  7
L200
100
AcDbAttributeDefinition
  3
DETAIL TITLE TOP LINE
  2
TITLE1
 70
     0
  0
ATTDEF
  5
18EE
330
18EA
100
AcDbEntity
  8
TITLE
100
AcDbText
 10
1.231442370514484
 20
0.9842270964783674
 30
0.0
 40
0.2
  1
TITLE
  7
L200
100
AcDbAttributeDefinition
  3
DETAIL TITLE TOP 2ND LINE
  2
TITLE2
 70
     0
  0
ATTDEF
  5
18EF
330
18EA
100
AcDbEntity
  8
TITLE
100
AcDbText
 10
2.713645751168312
 20
0.5927927664583189
 30
0.0
 40
0.2
  1
TITLE2
  7
L200
100
AcDbAttributeDefinition
  3
DETAIL TITLE BOTTOM 1
  2
TITLE3
 70
     0
  0
ATTDEF
  5
18F0
330
18EA
100
AcDbEntity
  8
TITLE
100
AcDbText
 10
2.713645751168312
 20
0.2692560808167741
 30
0.0
 40
0.2
  1

  7
L200
100
AcDbAttributeDefinition
  3
DETAIL TITLE BOTTOM 2
  2
TITLE4
 70
     0
  0
ATTDEF
  5
18F1
330
18EA
100
AcDbEntity
  8
TITLE
 62
     7
100
AcDbText
 10
8.177214829966379
 20
0.9696027915446398
 30
0.0
 40
0.08
  1
-
  7
L80
 72
     2
 11
8.261024353775903
 21
0.9696027915446398
 31
0.0
100
AcDbAttributeDefinition
  3
REVISION DATE
  2
REVISED
 70
     0
  0
ATTDEF
  5
18F2
330
18EA
100
AcDbEntity
  8
TITLE
 62
     7
100
AcDbText
 10
0.2639423705144838
 20
0.0847116480207214
 30
0.0
 40
0.08
  1
-
  7
L80
100
AcDbAttributeDefinition
  3
DWG-NAME
  2
DWG-NAME
 70
     0
  0
LWPOLYLINE
  5
18F3
330
18EA
100
AcDbEntity
  8
TITLE
 62
     3
100
AcDbPolyline
 90
        2
 70
     1
 43
0.03
 10
0.6064423705144839
 20
0.5417270964783675
 42
0.9999999999999998
 10
0.6064423705144839
 20
1.226727096478367
 42
0.9999999999999998
  0
ATTDEF
  5
18F4
330
18EA
100
AcDbEntity
  8
TITLE
 62
     7
100
AcDbText
 10
1.231442370514484
 20
0.7005637793954894
 30
0.0
 40
0.1
  1
N.T.S.
  7
L100
100
AcDbAttributeDefinition
  3
SCALE
  2
SCALE
 70
     0
  0
LWPOLYLINE
  5
18F5
330
18EA
100
AcDbEntity
  8
TITLE
 62
     3
100
AcDbPolyline
 90
        2
 70
     0
 43
0.04
 39
0.03
 10
0.9489423705144833
 20
0.8842270964783672
 10
8.261024353775903
 20
0.8842270964783672
  0
ENDBLK
  5
18F7
330
18EA
100
AcDbEntity
  8
0
100
AcDbBlockEnd
  0
ENDSEC
  0
SECTION
  2
ENTITIES
  0
LWPOLYLINE
  5
D1
330
1F
100
AcDbEntity
  8
image
100
AcDbPolyline
 90
        2
 70
     0
 43
0.0
 10
7.968815393722843
 20
6.284742702790947
 10
8.186532901321315
 20
6.284742702790947
  0
LWPOLYLINE
  5
D2
330
1F
100
AcDbEntity
  8
image
100
AcDbPolyline
 90
        2
 70
     0
 43
0.0
 10
7.968815393722843
 20
6.284742702790947
 10
7.968815393722843
 20
6.240226110626005
  0
LWPOLYLINE
  5
D3
330
1F
100
AcDbEntity
  8
image
100
AcDbPolyline
 90
        2
 70
     0
 43
0.0
 10
8.186532901321315
 20
6.284742702790947
 10
8.186532901321315
 20
6.240226110626005
  0
LWPOLYLINE
  5
D4
330
1F
100
AcDbEntity
  8
image
100
AcDbPolyline
 90
        2
 70
     0
 43
0.0
 10
8.015473498704784
 20
6.284742702790947
 10
8.015473498704784
 20
6.240226110626005
  0
LWPOLYLINE
  5
D5
330
1F
100
AcDbEntity
  8
image
100
AcDbPolyline
 90
        2
 70
     0
 43
0.0
 10
8.031016042540139
 20
6.284742702790947
 10
8.031016042540139
 20
6.240226110626005
  0
LWPOLYLINE
  5
D6
330
1F
100
AcDbEntity
  8
image
100
AcDbPolyline
 90
        2
 70
     0
 43
0.0
 10
8.12433225250402
 20
6.284742702790947
 10
8.12433225250402
 20
6.240226110626005
  0
LWPOLYLINE
  5
D7
330
1F
100
AcDbEntity
  8
image
100
AcDbPolyline
 90
        2
 70
     0
 43
0.0
 10
8.139874796339375
 20
6.284742702790947
 10
8.139874796339375
 20
6.240226110626005
  0
LWPOLYLINE
  5
DB
330
1F
100
AcDbEntity
  8
image
100
AcDbPolyline
 90
        2
 70
     0
 43
0.0
 10
8.186532901321315
 20
6.347695058337403
 10
8.186532901321315
 20
6.29381426560755
  0
LWPOLYLINE
  5
DD
330
1F
100
AcDbEntity
  8
image
100
AcDbPolyline
 90
        2
 70
     0
 43
0.0
 10
7.975208923094429
 20
6.29381426560755
 10
7.975208923094429
 20
6.284742702790947
  0
LWPOLYLINE
  5
DE
330
1F
100
AcDbEntity
  8
image
100
AcDbPolyline
 90
        2
 70
     0
 43
0.0
 10
8.180139371949733
 20
6.29381426560755
 10
8.180139371949733
 20
6.284742702790947
  0
LWPOLYLINE
  5
E7
330
1F
100
AcDbEntity
  8
image
100
AcDbPolyline
 90
        2
 70
     0
 43
0.0
 10
8.015473498704784
 20
6.240226110626005
 10
8.031016042540139
 20
6.240226110626005
  0
LWPOLYLINE
  5
E8
330
1F
100
AcDbEntity
  8
image
100
AcDbPolyline
 90
        2
 70
     0
 43
0.0
 10
7.968815393722843
 20
6.240226110626005
 42
0.0954661211179796
 10
8.015473498704784
 20
6.240226110626005
 42
10.4749201946118
  0
LWPOLYLINE
  5
E9
330
1F
100
AcDbEntity
  8
image
100
AcDbPolyline
 90
        2
 70
     0
 43
0.0
 10
8.139874796339375
 20
6.240226110626005
 42
0.0954661211179796
 10
8.186532901321315
 20
6.240226110626005
 42
10.4749201946118
  0
LWPOLYLINE
  5
EA
330
1F
100
AcDbEntity
  8
image
100
AcDbPolyline
 90
        2
 70
     0
 43
0.0
 10
8.031016042540139
 20
6.240226110626005
 42
0.0474591494992676
 10
8.12433225250402
 20
6.240226110626005
 42
1.525951615877772
  0
LWPOLYLINE
  5
EC
330
1F
100
AcDbEntity
  8
image
100
AcDbPolyline
 90
        2
 70
     0
 43
0.0
 10
8.12433225250402
 20
6.240226110626005
 10
8.139874796339375
 20
6.240226110626005
  0
LWPOLYLINE
  5
ED
330
1F
100
AcDbEntity
  8
image
100
AcDbPolyline
 90
        2
 70
     0
 43
0.0
 10
7.968815393722843
 20
6.29381426560755
 10
8.186532901321315
 20
6.29381426560755
  0
LWPOLYLINE
  5
EE
330
1F
100
AcDbEntity
  8
image
100
AcDbPolyline
 90
        2
 70
     0
 43
0.0
 10
7.950497068453154
 20
6.356181259971696
 10
7.98202326218862
 20
6.356181259971696
  0
LWPOLYLINE
  5
FC
330
1F
100
AcDbEntity
  8
image
100
AcDbPolyline
 90
        2
 70
     0
 43
0.0
 10
8.173808596041945
 20
6.436918169039462
 10
8.173808596041945
 20
6.356181259971696
  0
LWPOLYLINE
  5
FD
330
1F
100
AcDbEntity
  8
image
100
AcDbPolyline
 90
        2
 70
     0
 43
0.0
 10
8.149847174295773
 20
6.436918169039462
 10
8.149847174295773
 20
6.356181259971696
  0
LWPOLYLINE
  5
FE
330
1F
100
AcDbEntity
  8
image
100
AcDbPolyline
 90
        2
 70
     0
 43
0.0
 10
8.005984683934793
 20
6.436918169039462
 10
8.005984683934793
 20
6.356181259971696
  0
LWPOLYLINE
  5
FF
330
1F
100
AcDbEntity
  8
image
100
AcDbPolyline
 90
        2
 70
     0
 43
0.0
 10
7.98202326218862
 20
6.436918169039462
 10
7.98202326218862
 20
6.356181259971696
  0
LWPOLYLINE
  5
102
330
1F
100
AcDbEntity
  8
image
100
AcDbPolyline
 90
        2
 70
     0
 43
0.0
 10
8.191842431920223
 20
6.324821138858119
 10
8.186885139066253
 20
6.315812013493348
  0
LWPOLYLINE
  5
103
330
1F
100
AcDbEntity
  8
image
100
AcDbPolyline
 90
        2
 70
     0
 43
0.0
 10
8.191797233762263
 20
6.326849339301489
 10
8.186885139066253
 20
6.315812013493348
  0
LWPOLYLINE
  5
104
330
1F
100
AcDbEntity
  8
image
100
AcDbPolyline
 90
        3
 70
     0
 43
0.0
 10
8.173808596041945
 20
6.356181259971696
 10
8.160414024318365
 20
6.315812013493348
 10
8.149847174295773
 20
6.356181259971696
  0
LWPOLYLINE
  5
105
330
1F
100
AcDbEntity
  8
image
100
AcDbPolyline
 90
        2
 70
     0
 43
0.0
 10
8.173808596041945
 20
6.356181259971696
 10
8.191143576088554
 20
6.356181259971696
  0
LWPOLYLINE
  5
10C
330
1F
100
AcDbEntity
  8
image
100
AcDbPolyline
 90
        3
 70
     0
 43
0.0
 10
7.98202326218862
 20
6.356181259971696
 10
7.995417833912201
 20
6.315812013493348
 10
8.005984683934793
 20
6.356181259971696
  0
LWPOLYLINE
  5
10D
330
1F
100
AcDbEntity
  8
image
100
AcDbPolyline
 90
        2
 70
     0
 43
0.0
 10
7.96929895690925
 20
6.347471041423063
 10
7.96929895690925
 20
6.29381426560755
  0
LWPOLYLINE
  5
10E
330
1F
100
AcDbEntity
  8
image
100
AcDbPolyline
 90
        2
 70
     0
 43
0.0
 10
7.950497068453154
 20
6.356181259971696
 10
7.96929895690925
 20
6.315041290374137
  0
LWPOLYLINE
  5
10F
330
1F
100
AcDbEntity
  8
image
100
AcDbPolyline
 90
        2
 70
     0
 43
0.0
 10
7.946249881216546
 20
6.356181259971696
 10
7.96929895690925
 20
6.315185513344862
  0
LWPOLYLINE
  5
110
330
1F
100
AcDbEntity
  8
image
100
AcDbPolyline
 90
        2
 70
     0
 43
0.0
 10
8.005984683934793
 20
6.356181259971696
 10
8.149847174295773
 20
6.356181259971696
  0
LWPOLYLINE
  5
114
330
1F
100
AcDbEntity
  8
image
100
AcDbPolyline
 90
        4
 70
     0
 43
0.0
 10
7.995417833912201
 20
6.315812013493348
 10
8.008247583194838
 20
6.346555756764908
 42
-0.062196192615564
 10
8.147573537710277
 20
6.345468281616118
 10
8.160414024318365
 20
6.315812013493348
  0
LWPOLYLINE
  5
115
330
1F
100
AcDbEntity
  8
image
100
AcDbPolyline
 90
        2
 70
     0
 43
0.0
 10
8.005984683934793
 20
6.356181259971696
 10
8.008247583194838
 20
6.346555756764908
  0
LWPOLYLINE
  5
116
330
1F
100
AcDbEntity
  8
image
100
AcDbPolyline
 90
        2
 70
     0
 43
0.0
 10
8.149847174295773
 20
6.356181259971696
 10
8.147573537710277
 20
6.345468281616118
  0
LWPOLYLINE
  5
147
330
1F
100
AcDbEntity
  8
image
100
AcDbPolyline
 90
        2
 70
     0
 43
0.0
 10
7.946249881216546
 20
6.356181259971696
 10
7.946249881216546
 20
6.445082575574406
  0
LWPOLYLINE
  5
149
330
1F
100
AcDbEntity
  8
image
100
AcDbPolyline
 90
        2
 70
     0
 43
0.0
 10
7.950497068453154
 20
6.356181259971696
 10
7.950497068453154
 20
6.436918169039462
  0
LWPOLYLINE
  5
150
330
1F
100
AcDbEntity
  8
image
100
AcDbPolyline
 90
        3
 70
     0
 43
0.0
 10
7.950497068453154
 20
6.356181259971696
 10
7.96929895690925
 20
6.347471041423063
 42
-0.1605067082650773
 10
7.984068280312952
 20
6.350017879580177
 42
-0.1605067082650773
  0
LWPOLYLINE
  5
151
330
1F
100
AcDbEntity
  8
image
100
AcDbPolyline
 90
        3
 70
     0
 43
0.0
 10
8.191283644403336
 20
6.349895901652129
 10
8.18646180031772
 20
6.347662119875836
 42
0.1355963515963773
 10
8.171782956320308
 20
6.350076283203001
  0
LWPOLYLINE
  5
155
330
1F
100
AcDbEntity
  8
image
100
AcDbPolyline
 90
        2
 70
     0
 43
0.0
 10
8.013571896236124
 20
6.238004369132206
 10
8.013571896236124
 20
5.79088536964802
  0
LWPOLYLINE
  5
156
330
1F
100
AcDbEntity
  8
image
100
AcDbPolyline
 90
        2
 70
     0
 43
0.0
 10
8.147641317045463
 20
6.238011756646314
 10
8.147641317045463
 20
5.79088536964802
  0
LWPOLYLINE
  5
175
330
1F
100
AcDbEntity
  8
image
100
AcDbPolyline
 90
        3
 70
     0
 43
0.0
 10
7.992144446213815
 20
6.237998976475334
 10
8.077674147522079
 20
6.238011756646314
 10
8.163203848830344
 20
6.237998976475334
  0
LWPOLYLINE
  5
194
330
1F
100
AcDbEntity
  8
image
100
AcDbPolyline
 90
        8
 70
     1
 43
0.0
 10
8.831634412116995
 20
7.629375101281923
 10
7.795208360320105
 20
7.629375101281923
 42
-0.4142135623730951
 10
7.766859726518221
 20
7.657723735083808
 10
7.766859726518221
 20
8.678274551951643
 42
-0.4142135623730951
 10
7.795208360320105
 20
8.706623185753526
 10
8.831634412116995
 20
8.706623185753526
 42
-0.4142135623730951
 10
8.859983045918879
 20
8.678274551951643
 10
8.859983045918879
 20
7.657723735083808
 42
-0.4142135623730951
  0
ARC
  5
195
330
1F
100
AcDbEntity
  8
image
100
AcDbCircle
 10
7.81879314793994
 20
8.660310105409669
 30
0.0
 40
0.0397554187262173
100
AcDbArc
 50
186.9889378682583
 51
328.9487888685856
  0
LWPOLYLINE
  5
1A1
330
1F
100
AcDbEntity
  8
image
100
AcDbPolyline
 90
        2
 70
     0
 43
0.0
 10
7.899304543640623
 20
7.629375101281923
 10
7.899304543640623
 20
7.594903162578833
  0
LWPOLYLINE
  5
1A4
330
1F
100
AcDbEntity
  8
image
100
AcDbPolyline
 90
        2
 70
     0
 43
0.0
 10
8.105229019577508
 20
7.629375101281923
 10
8.105229019577508
 20
7.594903162578833
  0
ARC
  5
1B0
330
1F
100
AcDbEntity
  8
image
100
AcDbCircle
 10
8.313421386218548
 20
8.505688069365771
 30
0.0
 40
0.0828914052367097
100
AcDbArc
 50
221.5654140769894
 51
126.8437630312169
  0
ARC
  5
1B2
330
1F
100
AcDbEntity
  8
image
100
AcDbCircle
 10
8.313421386218548
 20
8.505688069365771
 30
0.0
 40
0.077675256617163
100
AcDbArc
 50
225.0747907822823
 51
121.3489582100535
  0
ARC
  5
1B3
330
1F
100
AcDbEntity
  8
image
100
AcDbCircle
 10
8.313421386218548
 20
8.505688069365771
 30
0.0
 40
0.0663358030964093
100
AcDbArc
 50
236.0022805035775
 51
90.0
  0
CIRCLE
  5
1B4
330
1F
100
AcDbEntity
  8
image
100
AcDbCircle
 10
8.313421386218548
 20
8.505688069365771
 30
0.0
 40
0.0345853332382989
  0
LWPOLYLINE
  5
1B9
330
1F
100
AcDbEntity
  8
image
100
AcDbPolyline
 90
        2
 70
     0
 43
0.0
 10
8.313421386218548
 20
8.57202387246218
 10
8.18131675270177
 20
8.57202387246218
  0
LWPOLYLINE
  5
1BD
330
1F
100
AcDbEntity
  8
image
100
AcDbPolyline
 90
        2
 70
     0
 43
0.0
 10
8.18131675270177
 20
8.450691719790114
 10
8.27632906483261
 20
8.450691719790114
  0
LWPOLYLINE
  5
1BE
330
1F
100
AcDbEntity
  8
image
100
AcDbPolyline
 90
        2
 70
     0
 43
0.0
 10
8.18131675270177
 20
8.57202387246218
 42
0.0815300725954402
 10
8.18131675270177
 20
8.450691719790114
 42
-1.177534549935305
  0
CIRCLE
  5
1C0
330
1F
100
AcDbEntity
  8
image
100
AcDbCircle
 10
8.313421386218548
 20
8.505688069365771
 30
0.0
 40
0.0232458797175451
  0
LWPOLYLINE
  5
1CA
330
1F
100
AcDbEntity
  8
image
100
AcDbPolyline
 90
        2
 70
     0
 43
0.0
 10
8.325388017028137
 20
8.485758928117096
 10
8.295158612157736
 20
8.52007007226684
  0
LWPOLYLINE
  5
1CB
330
1F
100
AcDbEntity
  8
image
100
AcDbPolyline
 90
        2
 70
     0
 43
0.0
 10
8.33168416027936
 20
8.4913060664647
 10
8.301454755408959
 20
8.525617210614445
  0
CIRCLE
  5
1CD
330
1F
100
AcDbEntity
  8
image
100
AcDbCircle
 10
7.816068123710158
 20
8.65736603241139
 30
0.0
 40
0.0193904655204889
  0
LWPOLYLINE
  5
1D8
330
1F
100
AcDbEntity
  8
image
100
AcDbPolyline
 90
        4
 70
     0
 43
0.0
 10
7.779333125391049
 20
8.167999143517725
 10
7.779333125391049
 20
8.522583855111694
 42
-0.4142135623730982
 10
7.790672578911804
 20
8.533923308632447
 10
7.829519526947327
 20
8.533923308632447
  0
LWPOLYLINE
  5
1EF
330
1F
100
AcDbEntity
  8
image
100
AcDbPolyline
 90
        4
 70
     0
 43
0.0
 10
7.810856806178746
 20
8.167999143517725
 10
7.810856806178746
 20
8.490606596183168
 42
-0.4142135623730982
 10
7.822196259699497
 20
8.501946049703922
 10
7.828483927389006
 20
8.501946049703922
  0
LWPOLYLINE
  5
1F9
330
1F
100
AcDbEntity
  8
image
100
AcDbPolyline
 90
        2
 70
     0
 43
0.0
 10
7.852851878179466
 20
8.639804101104383
 10
7.852851878179466
 20
8.560224518838904
  0
LWPOLYLINE
  5
1FF
330
1F
100
AcDbEntity
  8
image
100
AcDbPolyline
 90
        4
 70
     0
 43
0.0
 10
8.313421386218548
 20
8.671697668909605
 10
7.894807856206254
 20
8.671697668909605
 42
0.4142135623730982
 10
7.883468402685499
 20
8.660358215388852
 10
7.883468402685499
 20
8.559254334010654
  0
LWPOLYLINE
  5
202
330
1F
100
AcDbEntity
  8
image
100
AcDbPolyline
 90
        2
 70
     0
 43
0.0
 10
7.779333125391049
 20
8.539050941094652
 10
7.779333125391049
 20
8.655472757113566
  0
LWPOLYLINE
  5
20A
330
1F
100
AcDbEntity
  8
image
100
AcDbPolyline
 90
        2
 70
     0
 43
0.0
 10
7.779333125391049
 20
8.539050941094652
 42
-0.3320947812220898
 10
7.784502671714447
 20
8.54208771516739
 42
-0.8955074625313821
  0
LWPOLYLINE
  5
20E
330
1F
100
AcDbEntity
  8
image
100
AcDbPolyline
 90
        2
 70
     0
 43
0.0
 10
7.826605985323782
 20
8.54208771516739
 42
0.3406673134582034
 10
7.852851878179466
 20
8.560224518838904
 42
1.77461573843564
  0
LWPOLYLINE
  5
20F
330
1F
100
AcDbEntity
  8
image
100
AcDbPolyline
 90
        2
 70
     0
 43
0.0
 10
7.826605985323782
 20
8.54208771516739
 10
7.783401026626291
 20
8.54208771516739
  0
LWPOLYLINE
  5
210
330
1F
100
AcDbEntity
  8
image
100
AcDbPolyline
 90
        2
 70
     0
 43
0.0
 10
7.82618170915442
 20
8.533934340172953
 42
0.3517521342995656
 10
7.861016284714407
 20
8.559039400672686
 42
0.3406673134582024
  0
LWPOLYLINE
  5
211
330
1F
100
AcDbEntity
  8
image
100
AcDbPolyline
 90
        4
 70
     0
 43
0.0
 10
7.861016284714407
 20
8.559039400672686
 10
7.861016284714407
 20
8.682810333359945
 42
-0.4142135623730982
 10
7.872355738235158
 20
8.694149786880698
 10
8.313421386218548
 20
8.694149786880698
  0
LWPOLYLINE
  5
212
330
1F
100
AcDbEntity
  8
image
100
AcDbPolyline
 90
        2
 70
     0
 43
0.0
 10
7.825049435335222
 20
8.511017612520525
 42
0.3825966011250665
 10
7.883468402685499
 20
8.559254334010654
 42
0.3517521342995731
  0
LWPOLYLINE
  5
213
330
1F
100
AcDbEntity
  8
image
100
AcDbPolyline
 90
        4
 70
     0
 43
0.0
 10
7.828360726351879
 20
8.511017612520525
 10
7.813124696882896
 20
8.511017612520525
 42
0.4142135623730982
 10
7.801785243362141
 20
8.49967815899977
 10
7.801785243362141
 20
8.167999143517725
  0
LWPOLYLINE
  5
214
330
1F
100
AcDbEntity
  8
image
100
AcDbPolyline
 90
        2
 70
     0
 43
0.0
 10
7.824926234298095
 20
8.501946049703922
 42
0.3850164487632343
 10
7.892539965502104
 20
8.558639451301983
  0
LWPOLYLINE
  5
215
330
1F
100
AcDbEntity
  8
image
100
AcDbPolyline
 90
        4
 70
     0
 43
0.0
 10
7.892539965502104
 20
8.558639451301983
 10
7.892539965502104
 20
8.651286652572247
 42
-0.4142135623730982
 10
7.903879419022855
 20
8.662626106093002
 10
8.313421386218548
 20
8.662626106093002
  0
LWPOLYLINE
  5
218
330
1F
100
AcDbEntity
  8
image
100
AcDbPolyline
 90
        2
 70
     0
 43
0.0
 10
8.773990894257634
 20
8.639804101104383
 10
8.773990894257634
 20
8.560224518838904
  0
LWPOLYLINE
  5
219
330
1F
100
AcDbEntity
  8
image
100
AcDbPolyline
 90
        2
 70
     0
 43
0.0
 10
8.847509647046051
 20
8.539050941094652
 10
8.847509647046051
 20
8.655472757113566
  0
LWPOLYLINE
  5
21A
330
1F
100
AcDbEntity
  8
image
100
AcDbPolyline
 90
        4
 70
     0
 43
0.0
 10
8.847509647046051
 20
8.167999143517725
 10
8.847509647046051
 20
8.522583855111694
 42
0.4142135623730982
 10
8.836170193525296
 20
8.533923308632447
 10
8.797323245489769
 20
8.533923308632447
  0
LWPOLYLINE
  5
21B
330
1F
100
AcDbEntity
  8
image
100
AcDbPolyline
 90
        4
 70
     0
 43
0.0
 10
8.815985966258354
 20
8.167999143517725
 10
8.815985966258354
 20
8.490606596183168
 42
0.4142135623730982
 10
8.804646512737599
 20
8.501946049703922
 10
8.79835884504809
 20
8.501946049703922
  0
LWPOLYLINE
  5
21C
330
1F
100
AcDbEntity
  8
image
100
AcDbPolyline
 90
        4
 70
     0
 43
0.0
 10
8.798482046085217
 20
8.511017612520525
 10
8.813718075554204
 20
8.511017612520525
 42
-0.4142135623730982
 10
8.825057529074955
 20
8.49967815899977
 10
8.825057529074955
 20
8.167999143517725
  0
LWPOLYLINE
  5
21D
330
1F
100
AcDbEntity
  8
image
100
AcDbPolyline
 90
        2
 70
     0
 43
0.0
 10
8.801793337101875
 20
8.511017612520525
 42
-0.3825966011250665
 10
8.743374369751601
 20
8.559254334010654
 42
-0.3517521342995731
  0
LWPOLYLINE
  5
21E
330
1F
100
AcDbEntity
  8
image
100
AcDbPolyline
 90
        2
 70
     0
 43
0.0
 10
8.801916538139002
 20
8.501946049703922
 42
-0.3850164487632343
 10
8.734302806934996
 20
8.558639451301983
  0
LWPOLYLINE
  5
21F
330
1F
100
AcDbEntity
  8
image
100
AcDbPolyline
 90
        2
 70
     0
 43
0.0
 10
8.80066106328268
 20
8.533934340172953
 42
-0.3517521342995656
 10
8.765826487722693
 20
8.559039400672686
 42
-0.3406673134582024
  0
LWPOLYLINE
  5
220
330
1F
100
AcDbEntity
  8
image
100
AcDbPolyline
 90
        2
 70
     0
 43
0.0
 10
8.800236787113318
 20
8.54208771516739
 10
8.843441745810808
 20
8.54208771516739
  0
LWPOLYLINE
  5
221
330
1F
100
AcDbEntity
  8
image
100
AcDbPolyline
 90
        2
 70
     0
 43
0.0
 10
8.847509647046051
 20
8.539050941094652
 42
0.3320947812220898
 10
8.842340100722653
 20
8.54208771516739
 42
0.8955074625313821
  0
LWPOLYLINE
  5
222
330
1F
100
AcDbEntity
  8
image
100
AcDbPolyline
 90
        2
 70
     0
 43
0.0
 10
8.800236787113318
 20
8.54208771516739
 42
-0.3406673134582034
 10
8.773990894257634
 20
8.560224518838904
 42
-1.77461573843564
  0
ARC
  5
223
330
1F
100
AcDbEntity
  8
image
100
AcDbCircle
 10
8.808049624497156
 20
8.660310105409669
 30
0.0
 40
0.0397554187262173
100
AcDbArc
 50
211.0512111314143
 51
353.0110621317416
  0
CIRCLE
  5
224
330
1F
100
AcDbEntity
  8
image
100
AcDbCircle
 10
8.810774648726942
 20
8.65736603241139
 30
0.0
 40
0.0193904655204889
  0
LWPOLYLINE
  5
225
330
1F
100
AcDbEntity
  8
image
100
AcDbPolyline
 90
        4
 70
     0
 43
0.0
 10
8.734302806934996
 20
8.558639451301983
 10
8.734302806934996
 20
8.651286652572247
 42
0.4142135623730982
 10
8.722963353414241
 20
8.662626106093002
 10
8.313421386218548
 20
8.662626106093002
  0
LWPOLYLINE
  5
226
330
1F
100
AcDbEntity
  8
image
100
AcDbPolyline
 90
        4
 70
     0
 43
0.0
 10
8.313421386218548
 20
8.671697668909605
 10
8.732034916230846
 20
8.671697668909605
 42
-0.4142135623730982
 10
8.743374369751601
 20
8.660358215388852
 10
8.743374369751601
 20
8.559254334010654
  0
LWPOLYLINE
  5
227
330
1F
100
AcDbEntity
  8
image
100
AcDbPolyline
 90
        4
 70
     0
 43
0.0
 10
8.765826487722693
 20
8.559039400672686
 10
8.765826487722693
 20
8.682810333359945
 42
0.4142135623730982
 10
8.754487034201938
 20
8.694149786880698
 10
8.313421386218548
 20
8.694149786880698
  0
LWPOLYLINE
  5
228
330
1F
100
AcDbEntity
  8
image
100
AcDbPolyline
 90
        4
 70
     0
 43
0.0
 10
8.765826487722693
 20
7.776958886362764
 10
8.765826487722693
 20
7.653187953675506
 42
-0.4142135623730982
 10
8.754487034201938
 20
7.641848500154753
 10
8.313421386218548
 20
7.641848500154753
  0
LWPOLYLINE
  5
229
330
1F
100
AcDbEntity
  8
image
100
AcDbPolyline
 90
        4
 70
     0
 43
0.0
 10
8.313421386218548
 20
7.664300618125845
 10
8.732034916230846
 20
7.664300618125845
 42
0.4142135623730982
 10
8.743374369751601
 20
7.6756400716466
 10
8.743374369751601
 20
7.776743953024795
  0
LWPOLYLINE
  5
22A
330
1F
100
AcDbEntity
  8
image
100
AcDbPolyline
 90
        4
 70
     0
 43
0.0
 10
8.734302806934996
 20
7.777358835733468
 10
8.734302806934996
 20
7.684711634463202
 42
-0.4142135623730982
 10
8.722963353414241
 20
7.673372180942448
 10
8.313421386218548
 20
7.673372180942448
  0
LWPOLYLINE
  5
22B
330
1F
100
AcDbEntity
  8
image
100
AcDbPolyline
 90
        4
 70
     0
 43
0.0
 10
7.892539965502104
 20
7.777358835733468
 10
7.892539965502104
 20
7.684711634463202
 42
0.4142135623730982
 10
7.903879419022855
 20
7.673372180942448
 10
8.313421386218548
 20
7.673372180942448
  0
LWPOLYLINE
  5
22C
330
1F
100
AcDbEntity
  8
image
100
AcDbPolyline
 90
        4
 70
     0
 43
0.0
 10
8.313421386218548
 20
7.664300618125845
 10
7.894807856206254
 20
7.664300618125845
 42
-0.4142135623730982
 10
7.883468402685499
 20
7.6756400716466
 10
7.883468402685499
 20
7.776743953024795
  0
LWPOLYLINE
  5
22D
330
1F
100
AcDbEntity
  8
image
100
AcDbPolyline
 90
        4
 70
     0
 43
0.0
 10
7.861016284714407
 20
7.776958886362764
 10
7.861016284714407
 20
7.653187953675506
 42
0.4142135623730982
 10
7.872355738235158
 20
7.641848500154753
 10
8.313421386218548
 20
7.641848500154753
  0
LWPOLYLINE
  5
22E
330
1F
100
AcDbEntity
  8
image
100
AcDbPolyline
 90
        2
 70
     0
 43
0.0
 10
7.852851878179466
 20
7.696194185931067
 10
7.852851878179466
 20
7.775773768196548
  0
LWPOLYLINE
  5
22F
330
1F
100
AcDbEntity
  8
image
100
AcDbPolyline
 90
        2
 70
     0
 43
0.0
 10
7.779333125391049
 20
7.796947345940798
 10
7.779333125391049
 20
7.680525529921884
  0
LWPOLYLINE
  5
230
330
1F
100
AcDbEntity
  8
image
100
AcDbPolyline
 90
        4
 70
     0
 43
0.0
 10
7.779333125391049
 20
8.167999143517725
 10
7.779333125391049
 20
7.813414431923757
 42
0.4142135623730982
 10
7.790672578911804
 20
7.802074978403003
 10
7.829519526947327
 20
7.802074978403003
  0
LWPOLYLINE
  5
231
330
1F
100
AcDbEntity
  8
image
100
AcDbPolyline
 90
        4
 70
     0
 43
0.0
 10
7.810856806178746
 20
8.167999143517725
 10
7.810856806178746
 20
7.845391690852282
 42
0.4142135623730982
 10
7.822196259699497
 20
7.834052237331529
 10
7.828483927389006
 20
7.834052237331529
  0
LWPOLYLINE
  5
232
330
1F
100
AcDbEntity
  8
image
100
AcDbPolyline
 90
        4
 70
     0
 43
0.0
 10
7.828360726351879
 20
7.824980674514926
 10
7.813124696882896
 20
7.824980674514926
 42
-0.4142135623730982
 10
7.801785243362141
 20
7.836320128035679
 10
7.801785243362141
 20
8.167999143517725
  0
LWPOLYLINE
  5
233
330
1F
100
AcDbEntity
  8
image
100
AcDbPolyline
 90
        2
 70
     0
 43
0.0
 10
7.825049435335222
 20
7.824980674514926
 42
-0.3825966011250665
 10
7.883468402685499
 20
7.776743953024795
 42
-0.3517521342995731
  0
LWPOLYLINE
  5
234
330
1F
100
AcDbEntity
  8
image
100
AcDbPolyline
 90
        2
 70
     0
 43
0.0
 10
7.824926234298095
 20
7.834052237331529
 42
-0.3850164487632343
 10
7.892539965502104
 20
7.777358835733468
  0
LWPOLYLINE
  5
235
330
1F
100
AcDbEntity
  8
image
100
AcDbPolyline
 90
        2
 70
     0
 43
0.0
 10
7.82618170915442
 20
7.802063946862499
 42
-0.3517521342995656
 10
7.861016284714407
 20
7.776958886362764
 42
-0.3406673134582024
  0
LWPOLYLINE
  5
236
330
1F
100
AcDbEntity
  8
image
100
AcDbPolyline
 90
        2
 70
     0
 43
0.0
 10
7.826605985323782
 20
7.793910571868061
 10
7.783401026626291
 20
7.793910571868061
  0
LWPOLYLINE
  5
237
330
1F
100
AcDbEntity
  8
image
100
AcDbPolyline
 90
        2
 70
     0
 43
0.0
 10
7.779333125391049
 20
7.796947345940798
 42
0.3320947812220898
 10
7.784502671714447
 20
7.793910571868061
 42
0.8955074625313821
  0
LWPOLYLINE
  5
238
330
1F
100
AcDbEntity
  8
image
100
AcDbPolyline
 90
        2
 70
     0
 43
0.0
 10
7.826605985323782
 20
7.793910571868061
 42
-0.3406673134582034
 10
7.852851878179466
 20
7.775773768196548
 42
-1.77461573843564
  0
ARC
  5
239
330
1F
100
AcDbEntity
  8
image
100
AcDbCircle
 10
7.81879314793994
 20
7.675688181625782
 30
0.0
 40
0.0397554187262173
100
AcDbArc
 50
31.05121113141436
 51
173.0110621317416
  0
CIRCLE
  5
23A
330
1F
100
AcDbEntity
  8
image
100
AcDbCircle
 10
7.816068123710158
 20
7.678632254624059
 30
0.0
 40
0.0193904655204889
  0
CIRCLE
  5
23B
330
1F
100
AcDbEntity
  8
image
100
AcDbCircle
 10
8.810774648726942
 20
7.678632254624059
 30
0.0
 40
0.0193904655204889
  0
ARC
  5
23C
330
1F
100
AcDbEntity
  8
image
100
AcDbCircle
 10
8.808049624497156
 20
7.675688181625782
 30
0.0
 40
0.0397554187262173
100
AcDbArc
 50
6.988937868258382
 51
148.9487888685856
  0
LWPOLYLINE
  5
23D
330
1F
100
AcDbEntity
  8
image
100
AcDbPolyline
 90
        2
 70
     0
 43
0.0
 10
8.800236787113318
 20
7.793910571868061
 10
8.843441745810808
 20
7.793910571868061
  0
LWPOLYLINE
  5
23E
330
1F
100
AcDbEntity
  8
image
100
AcDbPolyline
 90
        4
 70
     0
 43
0.0
 10
8.798482046085217
 20
7.824980674514926
 10
8.813718075554204
 20
7.824980674514926
 42
0.4142135623730982
 10
8.825057529074955
 20
7.836320128035679
 10
8.825057529074955
 20
8.167999143517725
  0
LWPOLYLINE
  5
23F
330
1F
100
AcDbEntity
  8
image
100
AcDbPolyline
 90
        4
 70
     0
 43
0.0
 10
8.815985966258354
 20
8.167999143517725
 10
8.815985966258354
 20
7.845391690852282
 42
-0.4142135623730982
 10
8.804646512737599
 20
7.834052237331529
 10
8.79835884504809
 20
7.834052237331529
  0
LWPOLYLINE
  5
240
330
1F
100
AcDbEntity
  8
image
100
AcDbPolyline
 90
        4
 70
     0
 43
0.0
 10
8.847509647046051
 20
8.167999143517725
 10
8.847509647046051
 20
7.813414431923757
 42
-0.4142135623730982
 10
8.836170193525296
 20
7.802074978403003
 10
8.797323245489769
 20
7.802074978403003
  0
LWPOLYLINE
  5
241
330
1F
100
AcDbEntity
  8
image
100
AcDbPolyline
 90
        2
 70
     0
 43
0.0
 10
8.773990894257634
 20
7.696194185931067
 10
8.773990894257634
 20
7.775773768196548
  0
LWPOLYLINE
  5
242
330
1F
100
AcDbEntity
  8
image
100
AcDbPolyline
 90
        2
 70
     0
 43
0.0
 10
8.80066106328268
 20
7.802063946862499
 42
0.3517521342995656
 10
8.765826487722693
 20
7.776958886362764
 42
0.3406673134582024
  0
LWPOLYLINE
  5
243
330
1F
100
AcDbEntity
  8
image
100
AcDbPolyline
 90
        2
 70
     0
 43
0.0
 10
8.801916538139002
 20
7.834052237331529
 42
0.3850164487632343
 10
8.734302806934996
 20
7.777358835733468
  0
LWPOLYLINE
  5
244
330
1F
100
AcDbEntity
  8
image
100
AcDbPolyline
 90
        2
 70
     0
 43
0.0
 10
8.801793337101875
 20
7.824980674514926
 42
0.3825966011250665
 10
8.743374369751601
 20
7.776743953024795
 42
0.3517521342995731
  0
LWPOLYLINE
  5
245
330
1F
100
AcDbEntity
  8
image
100
AcDbPolyline
 90
        2
 70
     0
 43
0.0
 10
8.800236787113318
 20
7.793910571868061
 42
0.3406673134582034
 10
8.773990894257634
 20
7.775773768196548
 42
1.77461573843564
  0
LWPOLYLINE
  5
246
330
1F
100
AcDbEntity
  8
image
100
AcDbPolyline
 90
        2
 70
     0
 43
0.0
 10
8.847509647046051
 20
7.796947345940798
 10
8.847509647046051
 20
7.680525529921884
  0
LWPOLYLINE
  5
247
330
1F
100
AcDbEntity
  8
image
100
AcDbPolyline
 90
        2
 70
     0
 43
0.0
 10
8.847509647046051
 20
7.796947345940798
 42
-0.3320947812220898
 10
8.842340100722653
 20
7.793910571868061
 42
-0.8955074625313821
  0
LWPOLYLINE
  5
250
330
1F
100
AcDbEntity
  8
image
100
AcDbPolyline
 90
       10
 70
     0
 43
0.0
 10
8.458533767334253
 20
6.445082575574406
 10
8.831634412116995
 20
6.445082575574406
 42
0.4142135623730951
 10
8.859983045918879
 20
6.473431209376289
 10
8.859983045918879
 20
7.493982026244125
 42
0.4142135623730951
 10
8.831634412116995
 20
7.52233066004601
 10
7.795208360320105
 20
7.52233066004601
 42
0.4142135623730951
 10
7.766859726518221
 20
7.493982026244125
 10
7.766859726518221
 20
6.473431209376289
 42
0.4142135623730951
 10
7.795208360320105
 20
6.445082575574406
 10
8.18916242293463
 20
6.445082575574406
  0
LWPOLYLINE
  5
251
330
1F
100
AcDbEntity
  8
image
100
AcDbPolyline
 90
        4
 70
     0
 43
0.0
 10
7.828360726351879
 20
7.326725086813007
 10
7.813124696882896
 20
7.326725086813007
 42
0.4142135623730982
 10
7.801785243362141
 20
7.315385633292254
 10
7.801785243362141
 20
6.983706617810207
  0
LWPOLYLINE
  5
253
330
1F
100
AcDbEntity
  8
image
100
AcDbPolyline
 90
        4
 70
     0
 43
0.0
 10
7.779333125391049
 20
6.983706617810207
 10
7.779333125391049
 20
7.338291329404175
 42
-0.4142135623730982
 10
7.790672578911804
 20
7.34963078292493
 10
7.829519526947327
 20
7.34963078292493
  0
LWPOLYLINE
  5
254
330
1F
100
AcDbEntity
  8
image
100
AcDbPolyline
 90
        4
 70
     0
 43
0.0
 10
7.861016284714407
 20
7.374746874965169
 10
7.861016284714407
 20
7.498517807652427
 42
-0.4142135623730982
 10
7.872355738235158
 20
7.50985726117318
 10
8.313421386218548
 20
7.50985726117318
  0
LWPOLYLINE
  5
255
330
1F
100
AcDbEntity
  8
image
100
AcDbPolyline
 90
        4
 70
     0
 43
0.0
 10
8.313421386218548
 20
7.487405143202086
 10
7.894807856206254
 20
7.487405143202086
 42
0.4142135623730982
 10
7.883468402685499
 20
7.476065689681333
 10
7.883468402685499
 20
7.374961808303136
  0
LWPOLYLINE
  5
257
330
1F
100
AcDbEntity
  8
image
100
AcDbPolyline
 90
        2
 70
     0
 43
0.0
 10
7.957135756596466
 20
7.629375101281923
 10
8.047397806621665
 20
7.629375101281923
  0
LWPOLYLINE
  5
25A
330
1F
100
AcDbEntity
  8
image
100
AcDbPolyline
 90
        2
 70
     0
 43
0.0
 10
7.825049435335222
 20
7.326725086813007
 42
0.3825966011250665
 10
7.883468402685499
 20
7.374961808303138
 42
0.3517521342995731
  0
LWPOLYLINE
  5
25B
330
1F
100
AcDbEntity
  8
image
100
AcDbPolyline
 90
        2
 70
     0
 43
0.0
 10
7.82618170915442
 20
7.349641814465434
 42
0.3517521342995656
 10
7.861016284714407
 20
7.374746874965169
 42
0.3406673134582024
  0
CIRCLE
  5
25C
330
1F
100
AcDbEntity
  8
image
100
AcDbCircle
 10
7.816068123710158
 20
7.473073506703873
 30
0.0
 40
0.0193904655204889
  0
ARC
  5
25D
330
1F
100
AcDbEntity
  8
image
100
AcDbCircle
 10
7.820174705052727
 20
7.477282607915685
 30
0.0
 40
0.0412949588730466
100
AcDbArc
 50
188.4980260829393
 51
351.5019739170607
  0
LWPOLYLINE
  5
25F
330
1F
100
AcDbEntity
  8
image
100
AcDbPolyline
 90
        2
 70
     0
 43
0.0
 10
7.779333125391049
 20
7.338291329404175
 10
7.779333125391049
 20
7.471180231406049
  0
LWPOLYLINE
  5
263
330
1F
100
AcDbEntity
  8
image
100
AcDbPolyline
 90
        4
 70
     0
 43
0.0
 10
7.899304543640623
 20
7.52233066004601
 10
7.899304543640623
 20
7.593315639085926
 42
-0.4142135623731034
 10
7.904974270401
 20
7.598985365846304
 10
7.952911460439503
 20
7.598985365846304
  0
LWPOLYLINE
  5
264
330
1F
100
AcDbEntity
  8
image
100
AcDbPolyline
 90
        2
 70
     0
 43
0.0
 10
7.952911460439503
 20
7.52233066004601
 10
7.952911460439503
 20
7.598985365846304
  0
LWPOLYLINE
  5
265
330
1F
100
AcDbEntity
  8
image
100
AcDbPolyline
 90
        2
 70
     0
 43
0.0
 10
7.957135756596466
 20
7.552720395481629
 10
7.957135756596466
 20
7.629375101281923
  0
LWPOLYLINE
  5
266
330
1F
100
AcDbEntity
  8
image
100
AcDbPolyline
 90
        4
 70
     0
 43
0.0
 10
8.105229019577508
 20
7.52233066004601
 10
8.105229019577508
 20
7.593315639085926
 42
0.4142135623731034
 10
8.099559292817135
 20
7.598985365846304
 10
8.051622102778628
 20
7.598985365846304
  0
LWPOLYLINE
  5
267
330
1F
100
AcDbEntity
  8
image
100
AcDbPolyline
 90
        2
 70
     0
 43
0.0
 10
8.051622102778628
 20
7.52233066004601
 10
8.051622102778628
 20
7.598985365846304
  0
LWPOLYLINE
  5
268
330
1F
100
AcDbEntity
  8
image
100
AcDbPolyline
 90
        2
 70
     0
 43
0.0
 10
8.047397806621665
 20
7.552720395481629
 10
8.047397806621665
 20
7.629375101281923
  0
LWPOLYLINE
  5
2A5
330
1F
100
AcDbEntity
  8
image
100
AcDbPolyline
 90
        2
 70
     0
 43
0.0
 10
8.051622102778628
 20
7.552720395481629
 10
7.952911460439503
 20
7.552720395481629
  0
LWPOLYLINE
  5
2A7
330
1F
100
AcDbEntity
  8
image
100
AcDbPolyline
 90
        2
 70
     0
 43
0.0
 10
8.575220669658468
 20
7.552720395481629
 10
8.673931311997593
 20
7.552720395481629
  0
LWPOLYLINE
  5
2A8
330
1F
100
AcDbEntity
  8
image
100
AcDbPolyline
 90
        2
 70
     0
 43
0.0
 10
8.66970701584063
 20
7.629375101281923
 10
8.579444965815435
 20
7.629375101281923
  0
LWPOLYLINE
  5
2A9
330
1F
100
AcDbEntity
  8
image
100
AcDbPolyline
 90
        2
 70
     0
 43
0.0
 10
8.673931311997593
 20
7.52233066004601
 10
8.673931311997593
 20
7.598985365846304
  0
LWPOLYLINE
  5
2AA
330
1F
100
AcDbEntity
  8
image
100
AcDbPolyline
 90
        4
 70
     0
 43
0.0
 10
8.727538228796477
 20
7.52233066004601
 10
8.727538228796477
 20
7.593315639085926
 42
0.4142135623731034
 10
8.7218685020361
 20
7.598985365846304
 10
8.673931311997593
 20
7.598985365846304
  0
LWPOLYLINE
  5
2AB
330
1F
100
AcDbEntity
  8
image
100
AcDbPolyline
 90
        2
 70
     0
 43
0.0
 10
8.66970701584063
 20
7.552720395481629
 10
8.66970701584063
 20
7.629375101281923
  0
LWPOLYLINE
  5
2AC
330
1F
100
AcDbEntity
  8
image
100
AcDbPolyline
 90
        2
 70
     0
 43
0.0
 10
8.575220669658468
 20
7.52233066004601
 10
8.575220669658468
 20
7.598985365846304
  0
LWPOLYLINE
  5
2AD
330
1F
100
AcDbEntity
  8
image
100
AcDbPolyline
 90
        4
 70
     0
 43
0.0
 10
8.521613752859588
 20
7.52233066004601
 10
8.521613752859588
 20
7.593315639085926
 42
-0.4142135623731034
 10
8.527283479619965
 20
7.598985365846304
 10
8.575220669658468
 20
7.598985365846304
  0
LWPOLYLINE
  5
2AE
330
1F
100
AcDbEntity
  8
image
100
AcDbPolyline
 90
        2
 70
     0
 43
0.0
 10
8.579444965815435
 20
7.552720395481629
 10
8.579444965815435
 20
7.629375101281923
  0
LWPOLYLINE
  5
2B0
330
1F
100
AcDbEntity
  8
image
100
AcDbPolyline
 90
        2
 70
     0
 43
0.0
 10
8.727538228796477
 20
7.629375101281923
 10
8.727538228796477
 20
7.594903162578833
  0
LWPOLYLINE
  5
2B1
330
1F
100
AcDbEntity
  8
image
100
AcDbPolyline
 90
        2
 70
     0
 43
0.0
 10
8.521613752859588
 20
7.629375101281923
 10
8.521613752859588
 20
7.594903162578833
  0
LWPOLYLINE
  5
2B4
330
1F
100
AcDbEntity
  8
image
100
AcDbPolyline
 90
        2
 70
     0
 43
0.0
 10
7.950497068453154
 20
6.436918169039462
 10
7.98202326218862
 20
6.436918169039462
  0
LWPOLYLINE
  5
2B5
330
1F
100
AcDbEntity
  8
image
100
AcDbPolyline
 90
        2
 70
     0
 43
0.0
 10
8.005984683934793
 20
6.436918169039462
 10
8.149847174295773
 20
6.436918169039462
  0
LWPOLYLINE
  5
2B6
330
1F
100
AcDbEntity
  8
image
100
AcDbPolyline
 90
        2
 70
     0
 43
0.0
 10
8.173808596041945
 20
6.436918169039462
 10
8.189344365571214
 20
6.436918169039462
  0
ARC
  5
2BE
330
1F
100
AcDbEntity
  8
image
100
AcDbCircle
 10
8.806668067384373
 20
7.477282607915685
 30
0.0
 40
0.0412949588730466
100
AcDbArc
 50
188.4980260829393
 51
351.5019739170606
  0
LWPOLYLINE
  5
2BF
330
1F
100
AcDbEntity
  8
image
100
AcDbPolyline
 90
        2
 70
     0
 43
0.0
 10
8.801793337101875
 20
7.326725086813007
 42
-0.3825966011250665
 10
8.743374369751601
 20
7.374961808303138
 42
-0.3517521342995731
  0
LWPOLYLINE
  5
2C0
330
1F
100
AcDbEntity
  8
image
100
AcDbPolyline
 90
        2
 70
     0
 43
0.0
 10
8.80066106328268
 20
7.349641814465434
 42
-0.3517521342995656
 10
8.765826487722693
 20
7.374746874965169
 42
-0.3406673134582024
  0
LWPOLYLINE
  5
2C1
330
1F
100
AcDbEntity
  8
image
100
AcDbPolyline
 90
        2
 70
     0
 43
0.0
 10
8.847509647046051
 20
7.338291329404175
 10
8.847509647046051
 20
7.471180231406049
  0
CIRCLE
  5
2C2
330
1F
100
AcDbEntity
  8
image
100
AcDbCircle
 10
8.810774648726942
 20
7.473073506703873
 30
0.0
 40
0.0193904655204889
  0
LWPOLYLINE
  5
2C3
330
1F
100
AcDbEntity
  8
image
100
AcDbPolyline
 90
        4
 70
     0
 43
0.0
 10
8.765826487722693
 20
7.374746874965169
 10
8.765826487722693
 20
7.498517807652427
 42
0.4142135623730982
 10
8.754487034201938
 20
7.50985726117318
 10
8.313421386218548
 20
7.50985726117318
  0
LWPOLYLINE
  5
2C4
330
1F
100
AcDbEntity
  8
image
100
AcDbPolyline
 90
        4
 70
     0
 43
0.0
 10
8.313421386218548
 20
7.487405143202086
 10
8.732034916230846
 20
7.487405143202086
 42
-0.4142135623730982
 10
8.743374369751601
 20
7.476065689681333
 10
8.743374369751601
 20
7.374961808303136
  0
LWPOLYLINE
  5
2C5
330
1F
100
AcDbEntity
  8
image
100
AcDbPolyline
 90
        4
 70
     0
 43
0.0
 10
8.798482046085217
 20
7.326725086813007
 10
8.813718075554204
 20
7.326725086813007
 42
-0.4142135623730982
 10
8.825057529074955
 20
7.315385633292254
 10
8.825057529074955
 20
6.983706617810207
  0
LWPOLYLINE
  5
2C6
330
1F
100
AcDbEntity
  8
image
100
AcDbPolyline
 90
        4
 70
     0
 43
0.0
 10
8.847509647046051
 20
6.983706617810207
 10
8.847509647046051
 20
7.338291329404175
 42
0.4142135623730982
 10
8.836170193525296
 20
7.34963078292493
 10
8.797323245489769
 20
7.34963078292493
  0
LWPOLYLINE
  5
2C7
330
1F
100
AcDbEntity
  8
image
100
AcDbPolyline
 90
        4
 70
     0
 43
0.0
 10
8.847509647046051
 20
6.983706617810207
 10
8.847509647046051
 20
6.629121906216238
 42
-0.4142135623730982
 10
8.836170193525296
 20
6.617782452695483
 10
8.797323245489769
 20
6.617782452695483
  0
LWPOLYLINE
  5
2C8
330
1F
100
AcDbEntity
  8
image
100
AcDbPolyline
 90
        4
 70
     0
 43
0.0
 10
8.798482046085217
 20
6.640688148807407
 10
8.813718075554204
 20
6.640688148807407
 42
0.4142135623730982
 10
8.825057529074955
 20
6.652027602328161
 10
8.825057529074955
 20
6.983706617810207
  0
LWPOLYLINE
  5
2C9
330
1F
100
AcDbEntity
  8
image
100
AcDbPolyline
 90
        4
 70
     0
 43
0.0
 10
7.828360726351879
 20
6.640688148807407
 10
7.813124696882896
 20
6.640688148807407
 42
-0.4142135623730982
 10
7.801785243362141
 20
6.652027602328161
 10
7.801785243362141
 20
6.983706617810207
  0
LWPOLYLINE
  5
2CA
330
1F
100
AcDbEntity
  8
image
100
AcDbPolyline
 90
        4
 70
     0
 43
0.0
 10
7.779333125391049
 20
6.983706617810207
 10
7.779333125391049
 20
6.629121906216238
 42
0.4142135623730982
 10
7.790672578911804
 20
6.617782452695483
 10
7.829519526947327
 20
6.617782452695483
  0
LWPOLYLINE
  5
2CB
330
1F
100
AcDbEntity
  8
image
100
AcDbPolyline
 90
        4
 70
     0
 43
0.0
 10
8.45769040892276
 20
6.480008092418327
 10
8.732034916230846
 20
6.480008092418327
 42
0.4142135623730982
 10
8.743374369751601
 20
6.49134754593908
 10
8.743374369751601
 20
6.592451427317278
  0
LWPOLYLINE
  5
2CC
330
1F
100
AcDbEntity
  8
image
100
AcDbPolyline
 90
        4
 70
     0
 43
0.0
 10
8.765826487722693
 20
6.592666360655246
 10
8.765826487722693
 20
6.468895427967988
 42
-0.4142135623730982
 10
8.754487034201938
 20
6.457555974447234
 10
8.458232567901577
 20
6.457555974447234
  0
LWPOLYLINE
  5
2CD
330
1F
100
AcDbEntity
  8
image
100
AcDbPolyline
 90
        4
 70
     0
 43
0.0
 10
7.861016284714407
 20
6.592666360655246
 10
7.861016284714407
 20
6.468895427967988
 42
0.4142135623730982
 10
7.872355738235158
 20
6.457555974447234
 10
8.188884455017623
 20
6.457555974447234
  0
LWPOLYLINE
  5
2CE
330
1F
100
AcDbEntity
  8
image
100
AcDbPolyline
 90
        4
 70
     0
 43
0.0
 10
8.188384112767016
 20
6.480008092418327
 10
7.894807856206254
 20
6.480008092418327
 42
-0.4142135623730982
 10
7.883468402685499
 20
6.49134754593908
 10
7.883468402685499
 20
6.592451427317278
  0
ARC
  5
2CF
330
1F
100
AcDbEntity
  8
image
100
AcDbCircle
 10
7.820174705052727
 20
6.490130627704728
 30
0.0
 40
0.0412949588730466
100
AcDbArc
 50
8.498026082939325
 51
171.5019739170606
  0
LWPOLYLINE
  5
2D0
330
1F
100
AcDbEntity
  8
image
100
AcDbPolyline
 90
        2
 70
     0
 43
0.0
 10
7.825049435335222
 20
6.640688148807407
 42
-0.3825966011250665
 10
7.883468402685499
 20
6.592451427317278
 42
-0.3517521342995731
  0
LWPOLYLINE
  5
2D1
330
1F
100
AcDbEntity
  8
image
100
AcDbPolyline
 90
        2
 70
     0
 43
0.0
 10
7.82618170915442
 20
6.617771421154979
 42
-0.3517521342995656
 10
7.861016284714407
 20
6.592666360655246
 42
-0.3406673134582024
  0
LWPOLYLINE
  5
2D2
330
1F
100
AcDbEntity
  8
image
100
AcDbPolyline
 90
        2
 70
     0
 43
0.0
 10
7.779333125391049
 20
6.629121906216238
 10
7.779333125391049
 20
6.496233004214365
  0
CIRCLE
  5
2D3
330
1F
100
AcDbEntity
  8
image
100
AcDbCircle
 10
7.816068123710158
 20
6.494339728916541
 30
0.0
 40
0.0193904655204889
  0
CIRCLE
  5
2D4
330
1F
100
AcDbEntity
  8
image
100
AcDbCircle
 10
8.810774648726942
 20
6.494339728916541
 30
0.0
 40
0.0193904655204889
  0
ARC
  5
2D5
330
1F
100
AcDbEntity
  8
image
100
AcDbCircle
 10
8.806668067384373
 20
6.490130627704728
 30
0.0
 40
0.0412949588730466
100
AcDbArc
 50
8.498026082939375
 51
171.5019739170606
  0
LWPOLYLINE
  5
2D6
330
1F
100
AcDbEntity
  8
image
100
AcDbPolyline
 90
        2
 70
     0
 43
0.0
 10
8.80066106328268
 20
6.617771421154979
 42
0.3517521342995656
 10
8.765826487722693
 20
6.592666360655246
 42
0.3406673134582024
  0
LWPOLYLINE
  5
2D7
330
1F
100
AcDbEntity
  8
image
100
AcDbPolyline
 90
        2
 70
     0
 43
0.0
 10
8.801793337101875
 20
6.640688148807407
 42
0.3825966011250665
 10
8.743374369751601
 20
6.592451427317278
 42
0.3517521342995731
  0
LWPOLYLINE
  5
2D8
330
1F
100
AcDbEntity
  8
image
100
AcDbPolyline
 90
        2
 70
     0
 43
0.0
 10
8.847509647046051
 20
6.629121906216238
 10
8.847509647046051
 20
6.496233004214365
  0
LWPOLYLINE
  5
3AC
330
1F
100
AcDbEntity
  8
image
100
AcDbPolyline
 90
        2
 70
     0
 43
0.0
 10
8.736609791613078
 20
7.455714693736299
 10
7.890232980824022
 20
7.455714693736299
  0
LWPOLYLINE
  5
3AD
330
1F
100
AcDbEntity
  8
image
100
AcDbPolyline
 90
        2
 70
     0
 43
0.0
 10
7.918876113170652
 20
7.426876814221954
 10
7.926104239312541
 20
7.422322968927862
  0
LWPOLYLINE
  5
3AE
330
1F
100
AcDbEntity
  8
image
100
AcDbPolyline
 90
        2
 70
     0
 43
0.0
 10
7.917505238463776
 20
7.424700882747321
 10
7.924733364605666
 20
7.42014703745323
  0
CIRCLE
  5
3AF
330
1F
100
AcDbEntity
  8
image
100
AcDbCircle
 10
7.917102710079896
 20
7.426474285838074
 30
0.0
 40
0.0193904655204889
  0
LWPOLYLINE
  5
3B0
330
1F
100
AcDbEntity
  8
image
100
AcDbPolyline
 90
        2
 70
     0
 43
0.0
 10
7.917505238463776
 20
7.424700882747321
 10
7.912951393169686
 20
7.417472756605428
  0
LWPOLYLINE
  5
3B1
330
1F
100
AcDbEntity
  8
image
100
AcDbPolyline
 90
        2
 70
     0
 43
0.0
 10
7.923429958464742
 20
7.434104940363845
 10
7.918876113170652
 20
7.426876814221954
  0
LWPOLYLINE
  5
3B2
330
1F
100
AcDbEntity
  8
image
100
AcDbPolyline
 90
        2
 70
     0
 43
0.0
 10
7.92125402699011
 20
7.435475815070721
 10
7.916700181696016
 20
7.428247688928828
  0
LWPOLYLINE
  5
3B3
330
1F
100
AcDbEntity
  8
image
100
AcDbPolyline
 90
        2
 70
     0
 43
0.0
 10
7.92125402699011
 20
7.435475815070721
 10
7.923429958464742
 20
7.434104940363845
  0
LWPOLYLINE
  5
3B4
330
1F
100
AcDbEntity
  8
image
100
AcDbPolyline
 90
        2
 70
     0
 43
0.0
 10
7.908101180847252
 20
7.430625602748285
 10
7.909472055554127
 20
7.432801534222918
  0
LWPOLYLINE
  5
3B5
330
1F
100
AcDbEntity
  8
image
100
AcDbPolyline
 90
        2
 70
     0
 43
0.0
 10
7.909472055554127
 20
7.432801534222918
 10
7.916700181696016
 20
7.428247688928828
  0
LWPOLYLINE
  5
3B6
330
1F
100
AcDbEntity
  8
image
100
AcDbPolyline
 90
        2
 70
     0
 43
0.0
 10
7.908101180847252
 20
7.430625602748285
 10
7.915329306989141
 20
7.426071757454194
  0
LWPOLYLINE
  5
3B7
330
1F
100
AcDbEntity
  8
image
100
AcDbPolyline
 90
        2
 70
     0
 43
0.0
 10
7.915329306989141
 20
7.426071757454194
 10
7.910775461695054
 20
7.418843631312303
  0
LWPOLYLINE
  5
3B8
330
1F
100
AcDbEntity
  8
image
100
AcDbPolyline
 90
        2
 70
     0
 43
0.0
 10
7.910775461695054
 20
7.418843631312303
 10
7.912951393169686
 20
7.417472756605428
  0
LWPOLYLINE
  5
3B9
330
1F
100
AcDbEntity
  8
image
100
AcDbPolyline
 90
        2
 70
     0
 43
0.0
 10
7.924733364605666
 20
7.42014703745323
 10
7.926104239312541
 20
7.422322968927862
  0
LWPOLYLINE
  5
3BA
330
1F
100
AcDbEntity
  8
image
100
AcDbPolyline
 90
        2
 70
     0
 43
0.0
 10
7.890232980824022
 20
7.455714693736299
 10
7.890232980824022
 20
6.511698541884114
  0
LWPOLYLINE
  5
3D6
330
1F
100
AcDbEntity
  8
image
100
AcDbPolyline
 90
        2
 70
     0
 43
0.0
 10
8.736609791613078
 20
6.511698541884114
 10
8.736609791613078
 20
7.455714693736299
  0
LWPOLYLINE
  5
3D7
330
1F
100
AcDbEntity
  8
image
100
AcDbPolyline
 90
        2
 70
     0
 43
0.0
 10
8.716067310742049
 20
7.418843631312303
 10
8.713891379267414
 20
7.417472756605428
  0
LWPOLYLINE
  5
3D8
330
1F
100
AcDbEntity
  8
image
100
AcDbPolyline
 90
        2
 70
     0
 43
0.0
 10
8.711513465447959
 20
7.426071757454194
 10
8.716067310742049
 20
7.418843631312303
  0
LWPOLYLINE
  5
3D9
330
1F
100
AcDbEntity
  8
image
100
AcDbPolyline
 90
        2
 70
     0
 43
0.0
 10
8.718741591589848
 20
7.430625602748285
 10
8.711513465447959
 20
7.426071757454194
  0
LWPOLYLINE
  5
3DA
330
1F
100
AcDbEntity
  8
image
100
AcDbPolyline
 90
        2
 70
     0
 43
0.0
 10
8.717370716882973
 20
7.432801534222918
 10
8.710142590741083
 20
7.428247688928828
  0
LWPOLYLINE
  5
3DB
330
1F
100
AcDbEntity
  8
image
100
AcDbPolyline
 90
        2
 70
     0
 43
0.0
 10
8.718741591589848
 20
7.430625602748285
 10
8.717370716882973
 20
7.432801534222918
  0
LWPOLYLINE
  5
3DC
330
1F
100
AcDbEntity
  8
image
100
AcDbPolyline
 90
        2
 70
     0
 43
0.0
 10
8.709337533973323
 20
7.424700882747321
 10
8.713891379267414
 20
7.417472756605428
  0
LWPOLYLINE
  5
3DD
330
1F
100
AcDbEntity
  8
image
100
AcDbPolyline
 90
        2
 70
     0
 43
0.0
 10
8.70558874544699
 20
7.435475815070721
 10
8.703412813972358
 20
7.434104940363845
  0
LWPOLYLINE
  5
3DE
330
1F
100
AcDbEntity
  8
image
100
AcDbPolyline
 90
        2
 70
     0
 43
0.0
 10
8.70210940783143
 20
7.42014703745323
 10
8.700738533124559
 20
7.422322968927862
  0
LWPOLYLINE
  5
3DF
330
1F
100
AcDbEntity
  8
image
100
AcDbPolyline
 90
        2
 70
     0
 43
0.0
 10
8.703412813972358
 20
7.434104940363845
 10
8.707966659266448
 20
7.426876814221954
  0
LWPOLYLINE
  5
3E0
330
1F
100
AcDbEntity
  8
image
100
AcDbPolyline
 90
        2
 70
     0
 43
0.0
 10
8.707966659266448
 20
7.426876814221954
 10
8.700738533124559
 20
7.422322968927862
  0
LWPOLYLINE
  5
3E1
330
1F
100
AcDbEntity
  8
image
100
AcDbPolyline
 90
        2
 70
     0
 43
0.0
 10
8.70558874544699
 20
7.435475815070721
 10
8.710142590741083
 20
7.428247688928828
  0
LWPOLYLINE
  5
3E2
330
1F
100
AcDbEntity
  8
image
100
AcDbPolyline
 90
        2
 70
     0
 43
0.0
 10
8.709337533973323
 20
7.424700882747321
 10
8.70210940783143
 20
7.42014703745323
  0
CIRCLE
  5
3E3
330
1F
100
AcDbEntity
  8
image
100
AcDbCircle
 10
8.7097400623572
 20
7.426474285838074
 30
0.0
 40
0.0193904655204889
  0
LWPOLYLINE
  5
3EC
330
1F
100
AcDbEntity
  8
image
100
AcDbPolyline
 90
        2
 70
     0
 43
0.0
 10
8.736609791613078
 20
7.123703544865606
 10
7.890232980824022
 20
7.123703544865606
  0
LWPOLYLINE
  5
3EE
330
1F
100
AcDbEntity
  8
image
100
AcDbPolyline
 90
        2
 70
     0
 43
0.0
 10
8.736609791613078
 20
6.511698541884114
 10
8.456925168790727
 20
6.511698541884114
  0
LWPOLYLINE
  5
3EF
330
1F
100
AcDbEntity
  8
image
100
AcDbPolyline
 90
        2
 70
     0
 43
0.0
 10
7.917505238463776
 20
6.542712352873095
 10
7.912951393169686
 20
6.549940479014986
  0
LWPOLYLINE
  5
3F0
330
1F
100
AcDbEntity
  8
image
100
AcDbPolyline
 90
        2
 70
     0
 43
0.0
 10
7.915329306989141
 20
6.541341478166219
 10
7.910775461695054
 20
6.54856960430811
  0
CIRCLE
  5
3F1
330
1F
100
AcDbEntity
  8
image
100
AcDbCircle
 10
7.917102710079896
 20
6.540938949782339
 30
0.0
 40
0.0193904655204889
  0
LWPOLYLINE
  5
3F2
330
1F
100
AcDbEntity
  8
image
100
AcDbPolyline
 90
        2
 70
     0
 43
0.0
 10
7.910775461695054
 20
6.54856960430811
 10
7.912951393169686
 20
6.549940479014986
  0
LWPOLYLINE
  5
3F3
330
1F
100
AcDbEntity
  8
image
100
AcDbPolyline
 90
        2
 70
     0
 43
0.0
 10
7.918876113170652
 20
6.540536421398461
 10
7.926104239312541
 20
6.545090266692551
  0
LWPOLYLINE
  5
3F4
330
1F
100
AcDbEntity
  8
image
100
AcDbPolyline
 90
        2
 70
     0
 43
0.0
 10
7.917505238463776
 20
6.542712352873095
 10
7.924733364605666
 20
6.547266198167185
  0
LWPOLYLINE
  5
3F5
330
1F
100
AcDbEntity
  8
image
100
AcDbPolyline
 90
        2
 70
     0
 43
0.0
 10
7.923429958464742
 20
6.533308295256568
 10
7.918876113170652
 20
6.540536421398461
  0
LWPOLYLINE
  5
3F6
330
1F
100
AcDbEntity
  8
image
100
AcDbPolyline
 90
        2
 70
     0
 43
0.0
 10
7.92125402699011
 20
6.531937420549694
 10
7.916700181696016
 20
6.539165546691585
  0
LWPOLYLINE
  5
3F7
330
1F
100
AcDbEntity
  8
image
100
AcDbPolyline
 90
        2
 70
     0
 43
0.0
 10
7.908101180847252
 20
6.536787632872129
 10
7.909472055554127
 20
6.534611701397495
  0
LWPOLYLINE
  5
3F8
330
1F
100
AcDbEntity
  8
image
100
AcDbPolyline
 90
        2
 70
     0
 43
0.0
 10
7.909472055554127
 20
6.534611701397495
 10
7.916700181696016
 20
6.539165546691585
  0
LWPOLYLINE
  5
3F9
330
1F
100
AcDbEntity
  8
image
100
AcDbPolyline
 90
        2
 70
     0
 43
0.0
 10
7.908101180847252
 20
6.536787632872129
 10
7.915329306989141
 20
6.541341478166219
  0
LWPOLYLINE
  5
3FA
330
1F
100
AcDbEntity
  8
image
100
AcDbPolyline
 90
        2
 70
     0
 43
0.0
 10
7.92125402699011
 20
6.531937420549694
 10
7.923429958464742
 20
6.533308295256568
  0
LWPOLYLINE
  5
3FB
330
1F
100
AcDbEntity
  8
image
100
AcDbPolyline
 90
        2
 70
     0
 43
0.0
 10
7.924733364605666
 20
6.547266198167185
 10
7.926104239312541
 20
6.545090266692551
  0
CIRCLE
  5
3FC
330
1F
100
AcDbEntity
  8
image
100
AcDbCircle
 10
8.7097400623572
 20
6.540938949782339
 30
0.0
 40
0.0193904655204889
  0
LWPOLYLINE
  5
3FD
330
1F
100
AcDbEntity
  8
image
100
AcDbPolyline
 90
        2
 70
     0
 43
0.0
 10
8.711513465447959
 20
6.541341478166219
 10
8.716067310742049
 20
6.54856960430811
  0
LWPOLYLINE
  5
3FE
330
1F
100
AcDbEntity
  8
image
100
AcDbPolyline
 90
        2
 70
     0
 43
0.0
 10
8.709337533973323
 20
6.542712352873095
 10
8.713891379267414
 20
6.549940479014986
  0
LWPOLYLINE
  5
3FF
330
1F
100
AcDbEntity
  8
image
100
AcDbPolyline
 90
        2
 70
     0
 43
0.0
 10
8.716067310742049
 20
6.54856960430811
 10
8.713891379267414
 20
6.549940479014986
  0
LWPOLYLINE
  5
400
330
1F
100
AcDbEntity
  8
image
100
AcDbPolyline
 90
        2
 70
     0
 43
0.0
 10
8.718741591589848
 20
6.536787632872129
 10
8.711513465447959
 20
6.541341478166219
  0
LWPOLYLINE
  5
401
330
1F
100
AcDbEntity
  8
image
100
AcDbPolyline
 90
        2
 70
     0
 43
0.0
 10
8.718741591589848
 20
6.536787632872129
 10
8.717370716882973
 20
6.534611701397495
  0
LWPOLYLINE
  5
402
330
1F
100
AcDbEntity
  8
image
100
AcDbPolyline
 90
        2
 70
     0
 43
0.0
 10
8.717370716882973
 20
6.534611701397495
 10
8.710142590741083
 20
6.539165546691585
  0
LWPOLYLINE
  5
403
330
1F
100
AcDbEntity
  8
image
100
AcDbPolyline
 90
        2
 70
     0
 43
0.0
 10
8.70558874544699
 20
6.531937420549694
 10
8.703412813972358
 20
6.533308295256568
  0
LWPOLYLINE
  5
404
330
1F
100
AcDbEntity
  8
image
100
AcDbPolyline
 90
        2
 70
     0
 43
0.0
 10
8.70210940783143
 20
6.547266198167185
 10
8.700738533124559
 20
6.545090266692551
  0
LWPOLYLINE
  5
405
330
1F
100
AcDbEntity
  8
image
100
AcDbPolyline
 90
        2
 70
     0
 43
0.0
 10
8.703412813972358
 20
6.533308295256568
 10
8.707966659266448
 20
6.540536421398461
  0
LWPOLYLINE
  5
406
330
1F
100
AcDbEntity
  8
image
100
AcDbPolyline
 90
        2
 70
     0
 43
0.0
 10
8.707966659266448
 20
6.540536421398461
 10
8.700738533124559
 20
6.545090266692551
  0
LWPOLYLINE
  5
407
330
1F
100
AcDbEntity
  8
image
100
AcDbPolyline
 90
        2
 70
     0
 43
0.0
 10
8.70558874544699
 20
6.531937420549694
 10
8.710142590741083
 20
6.539165546691585
  0
LWPOLYLINE
  5
408
330
1F
100
AcDbEntity
  8
image
100
AcDbPolyline
 90
        2
 70
     0
 43
0.0
 10
8.709337533973323
 20
6.542712352873095
 10
8.70210940783143
 20
6.547266198167185
  0
ELLIPSE
  5
41A
330
1F
100
AcDbEntity
  8
image
100
AcDbEllipse
 10
8.071572085080218
 20
6.927251293755024
 30
0.0
 11
0.0661090140259942
 21
0.0
 31
0.0
210
0.0
220
0.0
230
1.0
 40
0.6265499817481992
 41
5.611264700624202
 42
10.35622429147252
  0
LWPOLYLINE
  5
5AB
330
1F
100
AcDbEntity
  8
image
100
AcDbPolyline
 90
        2
 70
     0
 43
0.0
 10
8.223121672406376
 20
6.852523234652118
 10
8.123310820839888
 20
6.852523234652118
  0
LWPOLYLINE
  5
5AC
330
1F
100
AcDbEntity
  8
image
100
AcDbPolyline
 90
        2
 70
     0
 43
0.0
 10
8.736609791613078
 20
7.383408260339742
 10
7.890232980824022
 20
7.383408260339742
  0
LWPOLYLINE
  5
5C9
330
1F
100
AcDbEntity
  8
image
100
AcDbPolyline
 90
        2
 70
     0
 43
0.0
 10
8.736609791613078
 20
6.852523234652118
 10
8.418077174463713
 20
6.852523234652118
  0
LWPOLYLINE
  5
5CA
330
1F
100
AcDbEntity
  8
image
100
AcDbPolyline
 90
        2
 70
     0
 43
0.0
 10
8.736609791613078
 20
7.134628700311382
 10
7.890232980824022
 20
7.134628700311382
  0
LWPOLYLINE
  5
5E7
330
1F
100
AcDbEntity
  8
image
100
AcDbPolyline
 90
        2
 70
     0
 43
0.0
 10
8.127114164872567
 20
6.480008092418327
 10
8.127114164872567
 20
6.633507836289509
  0
LWPOLYLINE
  5
5E8
330
1F
100
AcDbEntity
  8
image
100
AcDbPolyline
 90
        2
 70
     0
 43
0.0
 10
8.028234130171592
 20
6.480008092418327
 10
8.028234130171592
 20
6.633507836289509
  0
LWPOLYLINE
  5
5F0
330
1F
100
AcDbEntity
  8
image
100
AcDbPolyline
 90
        2
 70
     0
 43
0.0
 10
8.028234130171592
 20
6.633507836289509
 42
-0.3225535830498355
 10
8.077674147522079
 20
6.633507836289509
 42
1.241112081957635
  0
LWPOLYLINE
  5
5FA
330
1F
100
AcDbEntity
  8
image
100
AcDbPolyline
 90
        2
 70
     0
 43
0.0
 10
8.127114164872567
 20
6.633507836289509
 42
-0.3225535830498355
 10
8.077674147522079
 20
6.633507836289509
 42
1.241112081957635
  0
LWPOLYLINE
  5
5FC
330
1F
100
AcDbEntity
  8
image
100
AcDbPolyline
 90
        2
 70
     0
 43
0.0
 10
8.028234130171592
 20
6.480008092418327
 10
8.127114164872567
 20
6.480008092418327
  0
LWPOLYLINE
  5
603
330
1F
100
AcDbEntity
  8
image
100
AcDbPolyline
 90
        2
 70
     0
 43
0.0
 10
8.028234130171592
 20
6.511698541884114
 10
7.890232980824022
 20
6.511698541884114
  0
LWPOLYLINE
  5
605
330
1F
100
AcDbEntity
  8
image
100
AcDbPolyline
 90
        2
 70
     0
 43
0.0
 10
8.0321265585598
 20
6.852523234652118
 10
7.890232980824022
 20
6.852523234652118
  0
LWPOLYLINE
  5
607
330
1F
100
AcDbEntity
  8
image
100
AcDbPolyline
 90
        2
 70
     0
 43
0.0
 10
8.078731845312434
 20
6.863448390097894
 10
8.076705534087258
 20
6.863448390097894
  0
LWPOLYLINE
  5
608
330
1F
100
AcDbEntity
  8
image
100
AcDbPolyline
 90
        2
 70
     0
 43
0.0
 10
8.078731845312434
 20
6.852523234652118
 10
8.076705534087258
 20
6.852523234652118
  0
ELLIPSE
  5
609
330
1F
100
AcDbEntity
  8
image
100
AcDbEllipse
 10
8.071572085080218
 20
6.927251293755024
 30
0.0
 11
0.0661090140259942
 21
0.0
 31
0.0
210
0.0
220
0.0
230
1.0
 40
0.6265499817481992
 41
11.07330380762809
 42
11.10408946274875
  0
LWPOLYLINE
  5
612
330
1F
100
AcDbEntity
  8
image
100
AcDbPolyline
 90
        2
 70
     0
 43
0.0
 10
2.730648010597748
 20
7.60074568941235
 10
3.569388810172137
 20
7.60074568941235
  0
LWPOLYLINE
  5
613
330
1F
100
AcDbEntity
  8
image
100
AcDbPolyline
 90
        2
 70
     0
 43
0.0
 10
2.730648010597748
 20
8.485554065558389
 10
4.141276028579513
 20
8.485554065558389
  0
LWPOLYLINE
  5
614
330
1F
100
AcDbEntity
  8
image
100
AcDbPolyline
 90
        2
 70
     0
 43
0.0
 10
2.730648010597748
 20
7.032704534799008
 10
3.911274113000226
 20
7.032704534799008
  0
LWPOLYLINE
  5
615
330
1F
100
AcDbEntity
  8
image
100
AcDbPolyline
 90
        2
 70
     0
 43
0.0
 10
2.730648010597748
 20
7.618954281821976
 10
3.586847764383948
 20
7.618954281821976
  0
LWPOLYLINE
  5
616
330
1F
100
AcDbEntity
  8
image
100
AcDbPolyline
 90
        2
 70
     0
 43
0.0
 10
2.730648010597748
 20
8.052712873101492
 10
3.400891817244763
 20
8.052712873101492
  0
LWPOLYLINE
  5
617
330
1F
100
AcDbEntity
  8
image
100
AcDbPolyline
 90
        2
 70
     0
 43
0.0
 10
2.730648010597748
 20
8.606064787885983
 10
4.141276028579513
 20
8.606064787885983
  0
LWPOLYLINE
  5
618
330
1F
100
AcDbEntity
  8
image
100
AcDbPolyline
 90
        2
 70
     0
 43
0.0
 10
2.730648010597748
 20
8.467345473148764
 10
4.141276028579513
 20
8.467345473148764
  0
LWPOLYLINE
  5
62F
330
1F
100
AcDbEntity
  8
image
100
AcDbPolyline
 90
        2
 70
     0
 43
0.0
 10
4.141276028579513
 20
8.606064787885983
 10
4.141276028579513
 20
7.032704534799008
  0
LWPOLYLINE
  5
67F
330
1F
100
AcDbEntity
  8
image
100
AcDbPolyline
 90
        2
 70
     0
 43
0.0
 10
3.911274113000226
 20
7.032704534799008
 10
4.141276028579513
 20
7.032704534799008
  0
CIRCLE
  5
680
330
1F
100
AcDbEntity
  8
image
100
AcDbCircle
 10
4.096493146486389
 20
7.081438547962718
 30
0.0
 40
0.0323174425341481
  0
LWPOLYLINE
  5
683
330
1F
100
AcDbEntity
  8
image
100
AcDbPolyline
 90
        2
 70
     0
 43
0.0
 10
4.083775388943438
 20
7.091983961937459
 10
4.081490597765311
 20
7.088357409479736
  0
LWPOLYLINE
  5
684
330
1F
100
AcDbEntity
  8
image
100
AcDbPolyline
 90
        2
 70
     0
 43
0.0
 10
4.089574284969367
 20
7.066435999241641
 10
4.085947732511643
 20
7.068720790419766
  0
LWPOLYLINE
  5
685
330
1F
100
AcDbEntity
  8
image
100
AcDbPolyline
 90
        2
 70
     0
 43
0.0
 10
4.111495695207461
 20
7.074519686445699
 10
4.099448818304312
 20
7.082109428602517
  0
LWPOLYLINE
  5
686
330
1F
100
AcDbEntity
  8
image
100
AcDbPolyline
 90
        2
 70
     0
 43
0.0
 10
4.109210904029341
 20
7.070893133987977
 10
4.097164027126185
 20
7.078482876144794
  0
LWPOLYLINE
  5
687
330
1F
100
AcDbEntity
  8
image
100
AcDbPolyline
 90
        2
 70
     0
 43
0.0
 10
4.111495695207461
 20
7.074519686445699
 10
4.109210904029341
 20
7.070893133987977
  0
LWPOLYLINE
  5
688
330
1F
100
AcDbEntity
  8
image
100
AcDbPolyline
 90
        2
 70
     0
 43
0.0
 10
4.089574284969367
 20
7.066435999241641
 10
4.097164027126185
 20
7.078482876144794
  0
LWPOLYLINE
  5
689
330
1F
100
AcDbEntity
  8
image
100
AcDbPolyline
 90
        2
 70
     0
 43
0.0
 10
4.085947732511643
 20
7.068720790419766
 10
4.09353747466846
 20
7.080767667322919
  0
LWPOLYLINE
  5
68A
330
1F
100
AcDbEntity
  8
image
100
AcDbPolyline
 90
        2
 70
     0
 43
0.0
 10
4.095822265846587
 20
7.084394219780642
 10
4.083775388943438
 20
7.091983961937459
  0
LWPOLYLINE
  5
68B
330
1F
100
AcDbEntity
  8
image
100
AcDbPolyline
 90
        2
 70
     0
 43
0.0
 10
4.09353747466846
 20
7.080767667322919
 10
4.081490597765311
 20
7.088357409479736
  0
LWPOLYLINE
  5
68C
330
1F
100
AcDbEntity
  8
image
100
AcDbPolyline
 90
        2
 70
     0
 43
0.0
 10
4.107038560461129
 20
7.09415630550567
 10
4.103412008003404
 20
7.096441096683794
  0
LWPOLYLINE
  5
68D
330
1F
100
AcDbEntity
  8
image
100
AcDbPolyline
 90
        2
 70
     0
 43
0.0
 10
4.099448818304312
 20
7.082109428602517
 10
4.107038560461129
 20
7.09415630550567
  0
LWPOLYLINE
  5
68E
330
1F
100
AcDbEntity
  8
image
100
AcDbPolyline
 90
        2
 70
     0
 43
0.0
 10
4.095822265846587
 20
7.084394219780642
 10
4.103412008003404
 20
7.096441096683794
  0
LWPOLYLINE
  5
691
330
1F
100
AcDbEntity
  8
image
100
AcDbPolyline
 90
        2
 70
     0
 43
0.0
 10
3.90478673235321
 20
7.618954281821976
 10
4.141276028579513
 20
7.618954281821976
  0
LWPOLYLINE
  5
692
330
1F
100
AcDbEntity
  8
image
100
AcDbPolyline
 90
        2
 70
     0
 43
0.0
 10
3.7528129618864
 20
7.60074568941235
 10
4.141276028579513
 20
7.60074568941235
  0
LWPOLYLINE
  5
699
330
1F
100
AcDbEntity
  8
image
100
AcDbPolyline
 90
        2
 70
     0
 43
0.0
 10
3.569388810172137
 20
7.60074568941235
 10
3.7528129618864
 20
7.60074568941235
  0
LWPOLYLINE
  5
69A
330
1F
100
AcDbEntity
  8
image
100
AcDbPolyline
 90
        2
 70
     0
 43
0.0
 10
3.586847764383948
 20
7.618954281821976
 10
3.90478673235321
 20
7.618954281821976
  0
CIRCLE
  5
6CF
330
1F
100
AcDbEntity
  8
image
100
AcDbCircle
 10
4.096493146486389
 20
8.557330774722274
 30
0.0
 40
0.0323174425341481
  0
LWPOLYLINE
  5
6D2
330
1F
100
AcDbEntity
  8
image
100
AcDbPolyline
 90
        2
 70
     0
 43
0.0
 10
4.083775388943438
 20
8.546785360747533
 10
4.081490597765311
 20
8.550411913205255
  0
LWPOLYLINE
  5
6D3
330
1F
100
AcDbEntity
  8
image
100
AcDbPolyline
 90
        2
 70
     0
 43
0.0
 10
4.107038560461129
 20
8.544613017179322
 10
4.103412008003404
 20
8.542328226001197
  0
LWPOLYLINE
  5
6D4
330
1F
100
AcDbEntity
  8
image
100
AcDbPolyline
 90
        2
 70
     0
 43
0.0
 10
4.099448818304312
 20
8.556659894082475
 10
4.107038560461129
 20
8.544613017179322
  0
LWPOLYLINE
  5
6D5
330
1F
100
AcDbEntity
  8
image
100
AcDbPolyline
 90
        2
 70
     0
 43
0.0
 10
4.111495695207461
 20
8.564249636239292
 10
4.099448818304312
 20
8.556659894082475
  0
LWPOLYLINE
  5
6D6
330
1F
100
AcDbEntity
  8
image
100
AcDbPolyline
 90
        2
 70
     0
 43
0.0
 10
4.109210904029341
 20
8.567876188697015
 10
4.097164027126185
 20
8.560286446540198
  0
LWPOLYLINE
  5
6D7
330
1F
100
AcDbEntity
  8
image
100
AcDbPolyline
 90
        2
 70
     0
 43
0.0
 10
4.111495695207461
 20
8.564249636239292
 10
4.109210904029341
 20
8.567876188697015
  0
LWPOLYLINE
  5
6D8
330
1F
100
AcDbEntity
  8
image
100
AcDbPolyline
 90
        2
 70
     0
 43
0.0
 10
4.089574284969367
 20
8.57233332344335
 10
4.085947732511643
 20
8.570048532265225
  0
LWPOLYLINE
  5
6D9
330
1F
100
AcDbEntity
  8
image
100
AcDbPolyline
 90
        2
 70
     0
 43
0.0
 10
4.089574284969367
 20
8.57233332344335
 10
4.097164027126185
 20
8.560286446540198
  0
LWPOLYLINE
  5
6DA
330
1F
100
AcDbEntity
  8
image
100
AcDbPolyline
 90
        2
 70
     0
 43
0.0
 10
4.085947732511643
 20
8.570048532265225
 10
4.09353747466846
 20
8.558001655362073
  0
LWPOLYLINE
  5
6DB
330
1F
100
AcDbEntity
  8
image
100
AcDbPolyline
 90
        2
 70
     0
 43
0.0
 10
4.095822265846587
 20
8.55437510290435
 10
4.103412008003404
 20
8.542328226001197
  0
LWPOLYLINE
  5
6DC
330
1F
100
AcDbEntity
  8
image
100
AcDbPolyline
 90
        2
 70
     0
 43
0.0
 10
4.095822265846587
 20
8.55437510290435
 10
4.083775388943438
 20
8.546785360747533
  0
LWPOLYLINE
  5
6DD
330
1F
100
AcDbEntity
  8
image
100
AcDbPolyline
 90
        2
 70
     0
 43
0.0
 10
4.09353747466846
 20
8.558001655362073
 10
4.081490597765311
 20
8.550411913205255
  0
LWPOLYLINE
  5
713
330
1F
100
AcDbEntity
  8
image
100
AcDbPolyline
 90
        2
 70
     0
 43
0.0
 10
2.730648010597748
 20
7.032704534799008
 10
2.730648010597748
 20
8.606064787885983
  0
CIRCLE
  5
71B
330
1F
100
AcDbEntity
  8
image
100
AcDbCircle
 10
2.775430892690875
 20
7.081438547962718
 30
0.0
 40
0.0323174425341481
  0
LWPOLYLINE
  5
71C
330
1F
100
AcDbEntity
  8
image
100
AcDbPolyline
 90
        2
 70
     0
 43
0.0
 10
2.776101773330674
 20
7.084394219780642
 10
2.788148650233827
 20
7.091983961937459
  0
LWPOLYLINE
  5
71D
330
1F
100
AcDbEntity
  8
image
100
AcDbPolyline
 90
        2
 70
     0
 43
0.0
 10
2.782349754207894
 20
7.066435999241641
 10
2.774760012051077
 20
7.078482876144794
  0
LWPOLYLINE
  5
71E
330
1F
100
AcDbEntity
  8
image
100
AcDbPolyline
 90
        2
 70
     0
 43
0.0
 10
2.778386564508801
 20
7.080767667322919
 10
2.79043344141195
 20
7.088357409479736
  0
LWPOLYLINE
  5
71F
330
1F
100
AcDbEntity
  8
image
100
AcDbPolyline
 90
        2
 70
     0
 43
0.0
 10
2.785976306665618
 20
7.068720790419766
 10
2.778386564508801
 20
7.080767667322919
  0
LWPOLYLINE
  5
720
330
1F
100
AcDbEntity
  8
image
100
AcDbPolyline
 90
        2
 70
     0
 43
0.0
 10
2.788148650233827
 20
7.091983961937459
 10
2.79043344141195
 20
7.088357409479736
  0
LWPOLYLINE
  5
721
330
1F
100
AcDbEntity
  8
image
100
AcDbPolyline
 90
        2
 70
     0
 43
0.0
 10
2.782349754207894
 20
7.066435999241641
 10
2.785976306665618
 20
7.068720790419766
  0
LWPOLYLINE
  5
722
330
1F
100
AcDbEntity
  8
image
100
AcDbPolyline
 90
        2
 70
     0
 43
0.0
 10
2.762713135147924
 20
7.070893133987977
 10
2.774760012051077
 20
7.078482876144794
  0
LWPOLYLINE
  5
723
330
1F
100
AcDbEntity
  8
image
100
AcDbPolyline
 90
        2
 70
     0
 43
0.0
 10
2.760428343969801
 20
7.074519686445699
 10
2.762713135147924
 20
7.070893133987977
  0
LWPOLYLINE
  5
724
330
1F
100
AcDbEntity
  8
image
100
AcDbPolyline
 90
        2
 70
     0
 43
0.0
 10
2.760428343969801
 20
7.074519686445699
 10
2.77247522087295
 20
7.082109428602517
  0
LWPOLYLINE
  5
725
330
1F
100
AcDbEntity
  8
image
100
AcDbPolyline
 90
        2
 70
     0
 43
0.0
 10
2.764885478716132
 20
7.09415630550567
 10
2.768512031173857
 20
7.096441096683794
  0
LWPOLYLINE
  5
726
330
1F
100
AcDbEntity
  8
image
100
AcDbPolyline
 90
        2
 70
     0
 43
0.0
 10
2.776101773330674
 20
7.084394219780642
 10
2.768512031173857
 20
7.096441096683794
  0
LWPOLYLINE
  5
727
330
1F
100
AcDbEntity
  8
image
100
AcDbPolyline
 90
        2
 70
     0
 43
0.0
 10
2.77247522087295
 20
7.082109428602517
 10
2.764885478716132
 20
7.09415630550567
  0
CIRCLE
  5
730
330
1F
100
AcDbEntity
  8
image
100
AcDbCircle
 10
2.775430892690875
 20
8.557330774722274
 30
0.0
 40
0.0323174425341481
  0
LWPOLYLINE
  5
731
330
1F
100
AcDbEntity
  8
image
100
AcDbPolyline
 90
        2
 70
     0
 43
0.0
 10
2.776101773330674
 20
8.55437510290435
 10
2.788148650233827
 20
8.546785360747533
  0
LWPOLYLINE
  5
732
330
1F
100
AcDbEntity
  8
image
100
AcDbPolyline
 90
        2
 70
     0
 43
0.0
 10
2.782349754207894
 20
8.57233332344335
 10
2.774760012051077
 20
8.560286446540198
  0
LWPOLYLINE
  5
733
330
1F
100
AcDbEntity
  8
image
100
AcDbPolyline
 90
        2
 70
     0
 43
0.0
 10
2.778386564508801
 20
8.558001655362073
 10
2.79043344141195
 20
8.550411913205255
  0
LWPOLYLINE
  5
734
330
1F
100
AcDbEntity
  8
image
100
AcDbPolyline
 90
        2
 70
     0
 43
0.0
 10
2.785976306665618
 20
8.570048532265225
 10
2.778386564508801
 20
8.558001655362073
  0
LWPOLYLINE
  5
735
330
1F
100
AcDbEntity
  8
image
100
AcDbPolyline
 90
        2
 70
     0
 43
0.0
 10
2.788148650233827
 20
8.546785360747533
 10
2.79043344141195
 20
8.550411913205255
  0
LWPOLYLINE
  5
736
330
1F
100
AcDbEntity
  8
image
100
AcDbPolyline
 90
        2
 70
     0
 43
0.0
 10
2.782349754207894
 20
8.57233332344335
 10
2.785976306665618
 20
8.570048532265225
  0
LWPOLYLINE
  5
737
330
1F
100
AcDbEntity
  8
image
100
AcDbPolyline
 90
        2
 70
     0
 43
0.0
 10
2.776101773330674
 20
8.55437510290435
 10
2.768512031173857
 20
8.542328226001197
  0
LWPOLYLINE
  5
738
330
1F
100
AcDbEntity
  8
image
100
AcDbPolyline
 90
        2
 70
     0
 43
0.0
 10
2.760428343969801
 20
8.564249636239292
 10
2.762713135147924
 20
8.567876188697015
  0
LWPOLYLINE
  5
739
330
1F
100
AcDbEntity
  8
image
100
AcDbPolyline
 90
        2
 70
     0
 43
0.0
 10
2.762713135147924
 20
8.567876188697015
 10
2.774760012051077
 20
8.560286446540198
  0
LWPOLYLINE
  5
73A
330
1F
100
AcDbEntity
  8
image
100
AcDbPolyline
 90
        2
 70
     0
 43
0.0
 10
2.760428343969801
 20
8.564249636239292
 10
2.77247522087295
 20
8.556659894082475
  0
LWPOLYLINE
  5
73B
330
1F
100
AcDbEntity
  8
image
100
AcDbPolyline
 90
        2
 70
     0
 43
0.0
 10
2.77247522087295
 20
8.556659894082475
 10
2.764885478716132
 20
8.544613017179322
  0
LWPOLYLINE
  5
73C
330
1F
100
AcDbEntity
  8
image
100
AcDbPolyline
 90
        2
 70
     0
 43
0.0
 10
2.764885478716132
 20
8.544613017179322
 10
2.768512031173857
 20
8.542328226001197
  0
ELLIPSE
  5
78E
102
{ACAD_REACTORS
330
807
102
}
330
1F
100
AcDbEntity
  8
image
100
AcDbEllipse
 10
3.842551621359598
 20
7.766019579939579
 30
0.0
 11
0.1156551435296908
 21
0.0
 31
0.0
210
0.0
220
0.0
230
1.0
 40
0.8490820986986719
 41
2.977464380036559
 42
7.601892230217777
  0
ELLIPSE
  5
78F
330
1F
100
AcDbEntity
  8
image
100
AcDbEllipse
 10
3.427963702472522
 20
7.895486469381057
 30
0.0
 11
0.1702838552874926
 21
0.0003179592288294
 31
0.0
210
0.0
220
0.0
230
0.9999999999999998
 40
0.776552908147047
 41
0.0757284301343864
 42
1.163863958496645
  0
ELLIPSE
  5
790
330
1F
100
AcDbEntity
  8
image
100
AcDbEllipse
 10
3.427963702472522
 20
7.796577763445826
 30
0.0
 11
-0.1703073119120054
 21
0.0
 31
0.0
210
0.0
220
0.0
230
1.0
 40
0.7686610185175341
 41
6.171403385634026
 42
9.571737468442169
  0
LWPOLYLINE
  5
791
330
1F
100
AcDbEntity
  8
image
100
AcDbPolyline
 90
        2
 70
     0
 43
0.0
 10
3.258719294892307
 20
7.781975004621187
 10
3.258719294892307
 20
7.910089228205698
  0
LWPOLYLINE
  5
792
330
1F
100
AcDbEntity
  8
image
100
AcDbPolyline
 90
        2
 70
     0
 43
0.0
 10
3.596435250128218
 20
7.777408674935255
 10
3.596435250128218
 20
7.838741010930299
  0
LWPOLYLINE
  5
794
330
1F
100
AcDbEntity
  8
image
100
AcDbPolyline
 90
        2
 70
     0
 43
0.0
 10
3.310412024356972
 20
7.928542403983212
 10
3.352159729195948
 20
7.970259184616578
  0
LWPOLYLINE
  5
795
330
1F
100
AcDbEntity
  8
image
100
AcDbPolyline
 90
        2
 70
     0
 43
0.0
 10
3.352159729195948
 20
7.970259184616578
 42
-0.0212808645319997
 10
3.354187324866879
 20
7.972706746761734
 42
-0.0212808645319997
  0
LWPOLYLINE
  5
79A
330
1F
100
AcDbEntity
  8
image
100
AcDbPolyline
 90
        3
 70
     0
 43
0.0
 10
3.299353796228681
 20
7.936216043440551
 10
3.360676788810442
 20
7.893662161384734
 10
3.41177930985483
 20
7.944726828734553
 42
0.9494554115462147
  0
LWPOLYLINE
  5
79B
330
1F
100
AcDbEntity
  8
image
100
AcDbPolyline
 90
        2
 70
     0
 43
0.0
 10
3.299353796228681
 20
7.936216043440551
 10
3.342680478618015
 20
7.979510632012042
  0
LWPOLYLINE
  5
79C
330
1F
100
AcDbEntity
  8
image
100
AcDbPolyline
 90
        2
 70
     0
 43
0.0
 10
3.412971564124442
 20
7.979128874074664
 42
-0.2431140860872058
 10
3.41177930985483
 20
7.944726828734553
  0
LWPOLYLINE
  5
7A5
330
1F
100
AcDbEntity
  8
image
100
AcDbPolyline
 90
        2
 70
     0
 43
0.0
 10
3.428782483699082
 20
7.961316225314261
 10
3.487808503866434
 20
7.919681662258976
  0
LWPOLYLINE
  5
7A6
330
1F
100
AcDbEntity
  8
image
100
AcDbPolyline
 90
        2
 70
     0
 43
0.0
 10
3.428782483699082
 20
7.961316225314261
 10
3.482896329644164
 20
8.012686271097347
  0
LWPOLYLINE
  5
7A7
330
1F
100
AcDbEntity
  8
image
100
AcDbPolyline
 90
        2
 70
     0
 43
0.0
 10
3.482896329644164
 20
8.012686271097347
 10
3.541922349811512
 20
7.971051708042063
  0
LWPOLYLINE
  5
7A8
330
1F
100
AcDbEntity
  8
image
100
AcDbPolyline
 90
        2
 70
     0
 43
0.0
 10
3.541922349811512
 20
7.971051708042063
 42
-0.8594886948515281
 10
3.487808503866434
 20
7.919681662258976
 42
1.125341683117791
  0
LWPOLYLINE
  5
7A9
330
1F
100
AcDbEntity
  8
image
100
AcDbPolyline
 90
        2
 70
     0
 43
0.0
 10
3.543358198235155
 20
7.953116323844688
 42
-0.072109062517233
 10
3.548209632847077
 20
7.943436059456129
 42
-0.072109062517233
  0
LWPOLYLINE
  5
7AB
330
1F
100
AcDbEntity
  8
image
100
AcDbPolyline
 90
        2
 70
     0
 43
0.0
 10
3.440445595312334
 20
7.953089538939235
 10
3.484332178067804
 20
7.994750886899973
  0
LWPOLYLINE
  5
7AC
102
{ACAD_REACTORS
330
E82
102
}
330
1F
100
AcDbEntity
  8
image
100
AcDbPolyline
 90
        2
 70
     0
 43
0.0
 10
3.484332178067804
 20
7.994750886899973
 10
3.543358198235155
 20
7.953116323844688
  0
ELLIPSE
  5
7AD
330
1F
100
AcDbEntity
  8
image
100
AcDbEllipse
 10
3.518546076276779
 20
7.936921806057893
 30
0.0
 11
0.0100512003376951
 21
0.0121960370928837
 31
0.0
210
0.0
220
0.0
230
1.0
 40
0.8121560276025924
 41
0.0
 42
6.283185307179586
  0
LWPOLYLINE
  5
7B0
330
1F
100
AcDbEntity
  8
image
100
AcDbPolyline
 90
        2
 70
     0
 43
0.0
 10
3.500902801806434
 20
7.807791550544532
 10
3.538777646816152
 20
7.844128931999081
  0
LWPOLYLINE
  5
7B5
102
{ACAD_REACTORS
330
E85
102
}
330
1F
100
AcDbEntity
  8
image
100
AcDbPolyline
 90
        2
 70
     0
 43
0.0
 10
3.438691555122419
 20
7.836964749027587
 42
0.5662332001932958
 10
3.500902801806434
 20
7.807791550544532
  0
LWPOLYLINE
  5
7B8
330
1F
100
AcDbEntity
  8
image
100
AcDbPolyline
 90
        2
 70
     0
 43
0.0
 10
3.439579809224669
 20
7.831692634456331
 10
3.445970220359358
 20
7.838078311956231
  0
ELLIPSE
  5
7BA
330
1F
100
AcDbEntity
  8
image
100
AcDbEllipse
 10
3.463505938811126
 20
7.821176476251562
 30
0.0
 11
0.0100512003376951
 21
-0.0078915534130414
 31
0.0
210
0.0
220
0.0
230
0.9999999999999998
 40
0.9053939085650345
 41
0.0
 42
6.283185307179586
  0
LWPOLYLINE
  5
7C6
330
1F
100
AcDbEntity
  8
image
100
AcDbPolyline
 90
        2
 70
     0
 43
0.0
 10
3.312217160113329
 20
7.840043384887871
 42
-0.427109981140908
 10
3.359810170679915
 20
7.868376895422192
 42
-0.427109981140908
  0
LWPOLYLINE
  5
7C7
330
1F
100
AcDbEntity
  8
image
100
AcDbPolyline
 90
        3
 70
     0
 43
0.0
 10
3.414440581601104
 20
7.832565814808345
 10
3.375607618469734
 20
7.789397449322999
 10
3.315985549701567
 20
7.830173874048628
  0
LWPOLYLINE
  5
7C8
330
1F
100
AcDbEntity
  8
image
100
AcDbPolyline
 90
        2
 70
     0
 43
0.0
 10
3.315985549701567
 20
7.830173874048628
 42
-0.6154646840810819
 10
3.354659495094152
 20
7.886648099375061
 42
-0.6154646840810819
  0
LWPOLYLINE
  5
7D1
102
{ACAD_REACTORS
330
807
102
}
330
1F
100
AcDbEntity
  8
image
100
AcDbPolyline
 90
        3
 70
     0
 43
0.0
 10
3.832784687182334
 20
7.668169658298623
 42
0.2312067736842742
 10
3.574943356449027
 20
7.842445899433191
 42
0.0883603713783031
 10
3.372753106741599
 20
7.822463884479416
 42
5.998078069121745
  0
LWPOLYLINE
  5
7D2
102
{ACAD_REACTORS
330
807
102
}
330
1F
100
AcDbEntity
  8
image
100
AcDbPolyline
 90
        3
 70
     0
 43
0.0
 10
3.900882036063125
 20
7.681223204332732
 42
0.2467500675532481
 10
3.582099966762422
 20
7.90823240087902
 42
0.0891508108386539
 10
3.354805729199563
 20
7.886129357101295
 42
0.0891508108386539
  0
LWPOLYLINE
  5
7D3
102
{ACAD_REACTORS
330
807
102
}
330
1F
100
AcDbEntity
  8
image
100
AcDbPolyline
 90
        2
 70
     0
 43
0.0
 10
3.354805729199563
 20
7.886129357101295
 10
3.372753106741599
 20
7.822463884479416
  0
LWPOLYLINE
  5
7D5
330
1F
100
AcDbEntity
  8
image
 62
   253
100
AcDbPolyline
 90
        2
 70
     0
 43
0.0281626447184086
 10
3.363779417970578
 20
7.854296620790356
 10
3.330537568716055
 20
7.846886349832652
  0
LWPOLYLINE
  5
7D6
330
1F
100
AcDbEntity
  8
image
100
AcDbPolyline
 90
        2
 70
     0
 43
0.0
 10
3.596435250128218
 20
7.906033350974985
 10
3.596435250128218
 20
7.91465555789163
  0
HATCH
  5
807
330
1F
100
AcDbEntity
  8
image
100
AcDbHatch
 10
0.0
 20
0.0
 30
0.0
210
0.0
220
0.0
230
1.0
  2
SOLID
 70
     1
 71
     1
 91
        1
 92
        5
 93
        6
 72
     2
 10
3.525495512062034
 20
7.491411945352462
 40
0.3544995433453646
 50
278.0181241467191
 51
330.0917894240615
 73
     0
 72
     3
 10
3.842551621359598
 20
7.766019579939579
 11
0.1156551435296908
 21
0.0
 40
0.8490820986986719
 50
264.2998761720253
 51
304.5236184603956
 73
     1
 72
     2
 10
3.525495512062033
 20
7.491411945352459
 40
0.4206463555497636
 50
26.82308540003837
 51
82.26650884398305
 73
     1
 72
     2
 10
3.529942394507806
 20
7.264859840474037
 40
0.6454832792765114
 50
85.3652240571831
 51
105.7432116314546
 73
     1
 72
     1
 10
3.354805729199563
 20
7.886129357101295
 11
3.372753106741599
 21
7.822463884479416
 72
     2
 10
3.529942394507813
 20
7.264859840474018
 40
0.5793364670721355
 50
254.2567883685449
 51
274.4550364792294
 73
     0
 97
        4
330
7D2
330
7D3
330
7D1
330
78E
 75
     0
 76
     1
 47
0.0025583866018307
 98
        1
 10
3.494332279309292
 20
7.874704643227301
  0
ELLIPSE
  5
80A
330
1F
100
AcDbEntity
  8
image
100
AcDbEllipse
 10
3.842551621359598
 20
7.766019579939579
 30
0.0
 11
0.1156551435296908
 21
0.0
 31
0.0
210
0.0
220
0.0
230
1.0
 40
0.8490820986986719
 41
8.228698230728882
 42
8.602141723124551
  0
LWPOLYLINE
  5
80E
330
1F
100
AcDbEntity
  8
image
100
AcDbPolyline
 90
        2
 70
     0
 43
0.0
 10
3.694303517103259
 20
8.052712873101492
 10
4.141276028579513
 20
8.052712873101492
  0
ELLIPSE
  5
810
330
1F
100
AcDbEntity
  8
image
100
AcDbEllipse
 10
3.427963702472522
 20
7.895486469381057
 30
0.0
 11
0.1702838552874926
 21
0.0003179592288294
 31
0.0
210
0.0
220
0.0
230
0.9999999999999998
 40
0.776552908147047
 41
2.005607634387626
 42
5.857657153342278
  0
LWPOLYLINE
  5
811
330
1F
100
AcDbEntity
  8
image
100
AcDbPolyline
 90
        2
 70
     0
 43
0.0
 10
3.333762845803301
 20
7.984783540771183
 10
3.390700885321729
 20
7.951116636835691
  0
LWPOLYLINE
  5
812
330
1F
100
AcDbEntity
  8
image
100
AcDbPolyline
 90
        2
 70
     0
 43
0.0
 10
3.408139270651156
 20
7.974274732141243
 42
-0.1025666546297141
 10
3.416552656851026
 20
7.961656604151822
  0
LWPOLYLINE
  5
813
330
1F
100
AcDbEntity
  8
image
 62
   253
100
AcDbPolyline
 90
        2
 70
     0
 43
0.0281626447184086
 10
3.361968977293011
 20
7.968702158989986
 10
3.341165984986259
 20
7.941736103130579
  0
HATCH
  5
82B
330
1F
100
AcDbEntity
  8
image
 62
     1
100
AcDbHatch
 10
0.0
 20
0.0
 30
0.0
210
0.0
220
0.0
230
1.0
  2
SOLID
 70
     1
 71
     0
 91
        1
 92
        7
 72
     1
 73
     1
 93
        8
 10
3.747933229718064
 20
7.92693182899081
 42
-0.1539614408360703
 10
3.825232377032621
 20
7.786541015785891
 42
-0.0688895357287385
 10
3.894136236320749
 20
7.694013457822892
 42
0.2336765559094784
 10
3.796401678129702
 20
7.972080266011765
 42
0.3236833602771078
 10
3.422858312785482
 20
8.064224150686705
 42
0.1555525074852637
 10
3.333762845803301
 20
7.984783540771183
 42
0.0
 10
3.390700885321729
 20
7.951116636835691
 42
-0.1533651067482248
 10
3.448787425198876
 20
8.00335583220318
 42
-0.3256815454713574
 97
        0
 75
     0
 76
     1
 47
0.0038368345942721
 98
        1
 10
3.536574346617621
 20
8.049018738981693
  0
HATCH
  5
863
330
1F
100
AcDbEntity
  8
image
 62
     1
100
AcDbHatch
 10
0.0
 20
0.0
 30
0.0
210
0.0
220
0.0
230
1.0
  2
SOLID
 70
     1
 71
     0
 91
        1
 92
        5
 93
        4
 72
     3
 10
8.071572085080218
 20
6.927251293755024
 11
0.0661090140259942
 21
0.0
 40
0.6265499817481992
 50
442.913911454447
 51
499.8803370806064
 73
     1
 72
     1
 10
8.032126558559797
 20
6.960490654135766
 11
8.0321265585598
 21
6.635999397196044
 72
     2
 10
8.052954138846837
 20
6.5991753718309
 40
0.0423059918298306
 50
240.5076038637716
 51
304.1540004174358
 73
     0
 72
     1
 10
8.076705534087258
 20
6.634184915798782
 11
8.076705534087258
 21
6.968546829158395
 97
        0
 75
     0
 76
     1
 47
0.0057796070788673
 98
        1
 10
8.060792017264956
 20
6.780771671690117
  0
HATCH
  5
89B
330
1F
100
AcDbEntity
  8
image
100
AcDbHatch
 10
0.0
 20
0.0
 30
0.0
210
0.0
220
0.0
230
1.0
  2
SOLID
 70
     1
 71
     0
 91
        1
 92
        5
 93
        4
 72
     3
 10
8.071572085080218
 20
6.927251293755024
 11
0.0661090140259942
 21
0.0
 40
0.6265499817481992
 50
386.4893014675831
 51
440.1361530562682
 73
     1
 72
     1
 10
8.078731845312434
 20
6.968428259463623
 11
8.078731845312434
 21
6.632770484833392
 72
     2
 10
8.102394156197325
 20
6.667840300748116
 40
0.0423059918298306
 50
235.9916674326066
 51
299.6311006722622
 73
     1
 72
     1
 10
8.123310820839888
 20
6.631066803702878
 11
8.123310820839888
 21
6.953035214515524
 97
        0
 75
     0
 76
     1
 47
0.0057796070788673
 98
        1
 10
8.1080140622169
 20
6.753245886768264
  0
HATCH
  5
8BE
330
1F
100
AcDbEntity
  8
image
 62
     1
100
AcDbHatch
 10
0.0
 20
0.0
 30
0.0
210
0.0
220
0.0
230
1.0
  2
SOLID
 70
     1
 71
     0
 91
        2
 92
        7
 72
     1
 73
     1
 93
        5
 10
3.90478673235321
 20
5.879418705850267
 42
-0.2850763761396029
 10
3.830488439807451
 20
5.882442841512373
 42
0.0
 10
3.830488439807451
 20
5.660264811263687
 42
0.4476989384303776
 10
3.867637586080329
 20
5.660264811263687
 42
-0.4476989384303776
 10
3.90478673235321
 20
5.660264811263687
 42
0.0
 97
        0
 92
       23
 72
     1
 73
     1
 93
        3
 10
3.879544012277124
 20
5.652858367667925
 42
0.2856488130105618
 10
3.90478673235321
 20
5.660264811263687
 42
0.2856488130105542
 10
3.879544012277124
 20
5.667671254859452
 42
0.0
 97
        0
 75
     0
 76
     1
 47
0.0032725635427391
 98
        2
 10
3.869040059078416
 20
5.73353333679353
 10
3.88637047641769
 20
5.659315168574936
  0
HATCH
  5
8BF
330
1F
100
AcDbEntity
  8
image
100
AcDbHatch
 10
0.0
 20
0.0
 30
0.0
210
0.0
220
0.0
230
1.0
  2
SOLID
 70
     1
 71
     1
 91
        1
 92
        7
 72
     1
 73
     1
 93
        5
 10
3.7528129618864
 20
5.704532648494168
 42
-0.4476989384303776
 10
3.789962108159281
 20
5.704532648494168
 42
0.4476989384303776
 10
3.827111254432159
 20
5.704532648494168
 42
0.0
 10
3.827111254432159
 20
5.884800226454686
 42
0.285043524037669
 10
3.7528129618864
 20
5.887639695005542
 42
0.0
 97
        5
330
8EF
330
8C0
330
8C7
330
8CC
330
8C1
 75
     0
 76
     1
 47
0.0032725635427391
 98
        1
 10
3.78115015699546
 20
5.799092722667883
  0
LWPOLYLINE
  5
8C0
102
{ACAD_REACTORS
330
8BF
330
907
102
}
330
1F
100
AcDbEntity
  8
image
100
AcDbPolyline
 90
        2
 70
     0
 43
0.0
 10
3.827111254432159
 20
5.884800226454685
 10
3.827111254432159
 20
5.704532648494168
  0
LWPOLYLINE
  5
8C1
102
{ACAD_REACTORS
330
8BF
330
907
102
}
330
1F
100
AcDbEntity
  8
image
100
AcDbPolyline
 90
        2
 70
     0
 43
0.0
 10
3.7528129618864
 20
5.887639695005544
 10
3.7528129618864
 20
5.704532648494168
  0
LWPOLYLINE
  5
8C2
330
1F
100
AcDbEntity
  8
image
100
AcDbPolyline
 90
        2
 70
     0
 43
0.0
 10
3.90478673235321
 20
5.879418705850267
 10
3.90478673235321
 20
5.660264811263687
  0
LWPOLYLINE
  5
8C3
330
1F
100
AcDbEntity
  8
image
100
AcDbPolyline
 90
        2
 70
     0
 43
0.0
 10
3.830488439807451
 20
5.882442841512373
 10
3.830488439807451
 20
5.660264811263687
  0
LWPOLYLINE
  5
8C4
330
1F
100
AcDbEntity
  8
image
100
AcDbPolyline
 90
        2
 70
     0
 43
0.0
 10
3.90478673235321
 20
5.660264811263687
 42
0.4476989384303776
 10
3.867637586080329
 20
5.660264811263687
 42
-0.1491617116393516
  0
LWPOLYLINE
  5
8C5
330
1F
100
AcDbEntity
  8
image
100
AcDbPolyline
 90
        2
 70
     0
 43
0.0
 10
3.90478673235321
 20
5.660264811263687
 42
-0.2856488130105543
 10
3.879544012277124
 20
5.652858367667924
 42
-0.2856488130105543
  0
HATCH
  5
8C6
330
1F
100
AcDbEntity
  8
image
 62
   253
100
AcDbHatch
 10
0.0
 20
0.0
 30
0.0
210
0.0
220
0.0
230
1.0
  2
SOLID
 70
     1
 71
     0
 91
        2
 92
        7
 72
     1
 73
     1
 93
        5
 10
3.879544012277124
 20
5.667671254859452
 42
0.1436761485283069
 10
3.867637586080329
 20
5.660264811263687
 42
-0.1436761485283069
 10
3.855731159883541
 20
5.652858367667924
 42
0.0
 10
3.855731159883541
 20
5.536100263081141
 42
0.2260866952957589
 10
3.879544012277124
 20
5.536100263081141
 42
0.0
 97
        0
 92
        7
 72
     1
 73
     1
 93
        5
 10
3.778055681962486
 20
5.580368100311621
 42
0.2260866952957589
 10
3.801868534356069
 20
5.580368100311621
 42
0.0
 10
3.801868534356069
 20
5.697126204898405
 42
-0.1436761485283069
 10
3.789962108159281
 20
5.704532648494168
 42
0.1436761485283069
 10
3.778055681962486
 20
5.711939092089932
 42
0.0
 97
        0
 75
     0
 76
     1
 47
0.0031364014020618
 98
        2
 10
3.871063995051551
 20
5.606781441815161
 10
3.78801727709199
 20
5.635233496461273
  0
LWPOLYLINE
  5
8C7
102
{ACAD_REACTORS
330
8BF
330
907
102
}
330
1F
100
AcDbEntity
  8
image
100
AcDbPolyline
 90
        2
 70
     0
 43
0.0
 10
3.827111254432159
 20
5.704532648494168
 42
-0.4476989384303776
 10
3.789962108159281
 20
5.704532648494168
 42
0.1491617116393516
  0
LWPOLYLINE
  5
8C8
330
1F
100
AcDbEntity
  8
image
100
AcDbPolyline
 90
        2
 70
     0
 43
0.0
 10
3.830488439807451
 20
5.660264811263687
 42
0.4476989384303776
 10
3.867637586080329
 20
5.660264811263687
 42
-0.1491617116393516
  0
LWPOLYLINE
  5
8C9
330
1F
100
AcDbEntity
  8
image
100
AcDbPolyline
 90
        2
 70
     0
 43
0.0
 10
3.879544012277124
 20
5.667671254859452
 10
3.879544012277124
 20
5.536100263081141
  0
LWPOLYLINE
  5
8CA
330
1F
100
AcDbEntity
  8
image
100
AcDbPolyline
 90
        2
 70
     0
 43
0.0
 10
3.879544012277124
 20
5.536100263081141
 42
-0.226086695295759
 10
3.855731159883541
 20
5.536100263081141
 42
0.2260866952957473
  0
LWPOLYLINE
  5
8CB
330
1F
100
AcDbEntity
  8
image
100
AcDbPolyline
 90
        2
 70
     0
 43
0.0
 10
3.855731159883541
 20
5.652858367667924
 10
3.855731159883541
 20
5.536100263081141
  0
LWPOLYLINE
  5
8CC
102
{ACAD_REACTORS
330
8BF
330
907
102
}
330
1F
100
AcDbEntity
  8
image
100
AcDbPolyline
 90
        2
 70
     0
 43
0.0
 10
3.7528129618864
 20
5.704532648494168
 42
-0.4476989384303776
 10
3.789962108159281
 20
5.704532648494168
 42
0.1491617116393516
  0
LWPOLYLINE
  5
8CD
330
1F
100
AcDbEntity
  8
image
100
AcDbPolyline
 90
        2
 70
     0
 43
0.0
 10
3.801868534356069
 20
5.697126204898405
 10
3.801868534356069
 20
5.580368100311621
  0
LWPOLYLINE
  5
8CE
330
1F
100
AcDbEntity
  8
image
100
AcDbPolyline
 90
        2
 70
     0
 43
0.0
 10
3.801868534356069
 20
5.580368100311621
 42
-0.226086695295759
 10
3.778055681962486
 20
5.580368100311621
 42
0.2260866952957473
  0
LWPOLYLINE
  5
8CF
330
1F
100
AcDbEntity
  8
image
100
AcDbPolyline
 90
        2
 70
     0
 43
0.0
 10
3.778055681962486
 20
5.711939092089932
 10
3.778055681962486
 20
5.580368100311621
  0
LWPOLYLINE
  5
8D0
330
1F
100
AcDbEntity
  8
image
100
AcDbPolyline
 90
        2
 70
     0
 43
0.0
 10
3.7528129618864
 20
5.704532648494168
 42
0.2856488130105542
 10
3.778055681962486
 20
5.697126204898405
 42
0.2856488130105542
  0
LWPOLYLINE
  5
8D9
330
1F
100
AcDbEntity
  8
image
100
AcDbPolyline
 90
        2
 70
     0
 43
0.0
 10
3.911274113000226
 20
5.883571307361161
 42
-0.3225535830498355
 10
3.82887408408275
 20
5.883571307361161
 42
1.241112081957635
  0
LWPOLYLINE
  5
8E0
330
1F
100
AcDbEntity
  8
image
100
AcDbPolyline
 90
        2
 70
     0
 43
0.0
 10
3.911274113000226
 20
7.032704534799008
 10
3.911274113000226
 20
6.576547580212496
  0
LWPOLYLINE
  5
8EE
330
1F
100
AcDbEntity
  8
image
100
AcDbPolyline
 90
        2
 70
     0
 43
0.0
 10
3.746474055165274
 20
7.032704534799008
 10
3.746474055165274
 20
6.921677924282827
  0
LWPOLYLINE
  5
8EF
102
{ACAD_REACTORS
330
8BF
330
907
102
}
330
1F
100
AcDbEntity
  8
image
100
AcDbPolyline
 90
        2
 70
     0
 43
0.0
 10
3.746474055165274
 20
5.883571307361161
 42
-0.3225535830498355
 10
3.82887408408275
 20
5.883571307361161
 42
1.241112081957635
  0
LWPOLYLINE
  5
8F0
330
1F
100
AcDbEntity
  8
image
100
AcDbPolyline
 90
        2
 70
     0
 43
0.0
 10
3.746474055165274
 20
5.883571307361161
 42
0.0267250979145935
 10
3.7528129618864
 20
5.879502919716778
 42
0.0267250979145935
  0
LWPOLYLINE
  5
900
330
1F
100
AcDbEntity
  8
image
100
AcDbPolyline
 90
        2
 70
     0
 43
0.0
 10
3.746474055165274
 20
6.921677924282827
 10
3.746474055165274
 20
5.883571307361161
  0
LWPOLYLINE
  5
901
330
1F
100
AcDbEntity
  8
image
100
AcDbPolyline
 90
        2
 70
     0
 43
0.0
 10
3.911274113000226
 20
6.576547580212496
 10
3.911274113000226
 20
5.883571307361161
  0
HATCH
  5
907
330
1F
100
AcDbEntity
  8
image
100
AcDbHatch
 10
0.0
 20
0.0
 30
0.0
210
0.0
220
0.0
230
1.0
  2
SOLID
 70
     1
 71
     1
 91
        1
 92
        7
 72
     1
 73
     1
 93
        5
 10
3.7528129618864
 20
5.704532648494168
 42
-0.4476989384303776
 10
3.789962108159281
 20
5.704532648494168
 42
0.4476989384303776
 10
3.827111254432159
 20
5.704532648494168
 42
0.0
 10
3.827111254432159
 20
5.884800226454686
 42
0.285043524037669
 10
3.7528129618864
 20
5.887639695005542
 42
0.0
 97
        5
330
8EF
330
8C1
330
8CC
330
8C7
330
8C0
 75
     0
 76
     1
 47
0.006186590879256
 98
        1
 10
3.788044938987825
 20
5.758573645343245
  0
LWPOLYLINE
  5
918
330
1F
100
AcDbEntity
  8
image
100
AcDbPolyline
 90
        2
 70
     0
 43
0.0
 10
8.187677895615076
 20
6.511698541884114
 10
8.127114164872567
 20
6.511698541884114
  0
TEXT
  5
97D
330
1F
100
AcDbEntity
  8
image
100
AcDbText
 10
7.546428823835883
 20
2.92740566248539
 30
0.0
 40
0.125
  1
%%UINSIDE FRONT
  7
ROMANS
100
AcDbText
  0
TEXT
  5
97E
330
1F
100
AcDbEntity
  8
image
100
AcDbText
 10
2.827344726449632
 20
4.964792359550586
 30
0.0
 40
0.125
  1
%%UINSIDE BACK
  7
ROMANS
100
AcDbText
  0
TEXT
  5
97F
330
1F
100
AcDbEntity
  8
image
100
AcDbText
 10
2.206086895296829
 20
4.685234359443367
 30
0.0
 40
0.125
  1
TWO WIRE CONNECTION
  7
ROMANS
100
AcDbText
  0
LWPOLYLINE
  5
AF1
330
1F
100
AcDbEntity
  8
image
100
AcDbPolyline
 90
        2
 70
     0
 43
0.0
 10
7.285076475929384
 20
4.008603941603973
 10
8.013571896236124
 20
4.008603941603973
  0
LWPOLYLINE
  5
BEB
330
1F
100
AcDbEntity
  8
image
100
AcDbPolyline
 90
        2
 70
     0
 43
0.0
 10
8.147641317045463
 20
4.008603941603973
 10
8.639824308387398
 20
4.008603941603973
  0
LWPOLYLINE
  5
E5A
330
1F
100
AcDbEntity
  8
image
100
AcDbPolyline
 90
        4
 70
     0
 43
0.0
 10
8.174318982634583
 20
5.79088536964802
 10
7.841670733348069
 20
5.79088536964802
 10
7.841670733348069
 20
5.708809074134262
 10
8.174318982634583
 20
5.708809074134262
  0
LWPOLYLINE
  5
E5B
330
1F
100
AcDbEntity
  8
image
100
AcDbPolyline
 90
        2
 70
     0
 43
0.0
 10
8.174318982634583
 20
5.79088536964802
 10
8.174318982634583
 20
5.708809074134262
  0
CIRCLE
  5
E5C
330
1F
100
AcDbEntity
  8
image
100
AcDbCircle
 10
7.858907192791876
 20
5.749966838676717
 30
0.0
 40
0.0123206095682136
  0
LWPOLYLINE
  5
E5D
330
1F
100
AcDbEntity
  8
image
100
AcDbPolyline
 90
        2
 70
     0
 43
0.0
 10
8.147641317045463
 20
5.708809074134262
 10
8.147641317045463
 20
3.98479814569736
  0
LWPOLYLINE
  5
E5E
330
1F
100
AcDbEntity
  8
image
100
AcDbPolyline
 90
        2
 70
     0
 43
0.0
 10
8.013571896236124
 20
5.708809074134262
 10
8.013571896236124
 20
3.98479814569736
  0
LWPOLYLINE
  5
E5F
330
1F
100
AcDbEntity
  8
image
100
AcDbPolyline
 90
        2
 70
     0
 43
0.0
 10
7.986548824228288
 20
5.79088536964802
 10
7.986548824228288
 20
5.708809074134262
  0
LEADER
  5
E80
102
{ACAD_XDICTIONARY
360
E81
102
}
102
{ACAD_REACTORS
330
E82
102
}
330
1F
100
AcDbEntity
  8
TEXT_BUBBLES
100
AcDbLeader
  3
Standard
 76
     3
 10
3.497546757443757
 20
7.985429858026312
 30
0.0
 10
3.854359098964815
 20
8.401476561333725
 30
0.0
 10
4.406117443522157
 20
8.401476561333725
 30
0.0
1001
ACAD
1000
DSTYLE
1002
{
1070
   147
1040
0.09
1070
    77
1070
     0
1002
}
  0
LEADER
  5
E83
102
{ACAD_XDICTIONARY
360
E84
102
}
102
{ACAD_REACTORS
330
E85
102
}
330
1F
100
AcDbEntity
  8
TEXT_BUBBLES
100
AcDbLeader
  3
Standard
 76
     3
 10
3.494971799741211
 20
7.804495983305445
 30
0.0
 10
3.849519117424671
 20
7.448705629191809
 30
0.0
 10
4.406117443522157
 20
7.448705629191809
 30
0.0
1001
ACAD
1000
DSTYLE
1002
{
1070
   147
1040
0.09
1070
    77
1070
     0
1002
}
  0
LEADER
  5
E87
330
1F
100
AcDbEntity
  8
TEXT_BUBBLES
100
AcDbLeader
  3
Standard
 76
     3
 10
3.343072336584981
 20
7.804495983305445
 30
0.0
 10
2.988525018901521
 20
7.448705629191809
 30
0.0
 10
2.431926692804035
 20
7.448705629191809
 30
0.0
211
-1.0
221
0.0
231
0.0
210
0.0
220
0.0
230
-1.0
1001
ACAD
1000
DSTYLE
1002
{
1070
   147
1040
0.09
1070
    77
1070
     0
1002
}
  0
LEADER
  5
E8A
330
1F
100
AcDbEntity
  8
TEXT_BUBBLES
100
AcDbLeader
  3
Standard
 76
     3
 10
3.340497378882435
 20
7.985429858026312
 30
0.0
 10
2.983685037361377
 20
8.401476561333725
 30
0.0
 10
2.431926692804035
 20
8.401476561333725
 30
0.0
211
-1.0
221
0.0
231
0.0
210
0.0
220
0.0
230
-1.0
1001
ACAD
1000
DSTYLE
1002
{
1070
   147
1040
0.09
1070
    77
1070
     0
1002
}
  0
TEXT
  5
E8E
330
1F
100
AcDbEntity
  8
TEXT_BUBBLES
100
AcDbText
 10
4.429863200752189
 20
8.17579513499202
 30
0.0
 40
0.125
  1
CONNECTION
  7
ROMANS
100
AcDbText
  0
TEXT
  5
E8F
330
1F
100
AcDbEntity
  8
TEXT_BUBBLES
100
AcDbText
 10
4.429863200752189
 20
8.362245426964189
 30
0.0
 40
0.125
  1
GROUNDING
  7
ROMANS
100
AcDbText
  0
TEXT
  5
E91
330
1F
100
AcDbEntity
  8
TEXT_BUBBLES
100
AcDbText
 10
4.429863200752189
 20
7.407903623270681
 30
0.0
 40
0.125
  1
CONNECTION 3
  7
ROMANS
100
AcDbText
  0
TEXT
  5
E92
330
1F
100
AcDbEntity
  8
TEXT_BUBBLES
100
AcDbText
 10
0.9845849012225134
 20
7.407903623270681
 30
0.0
 40
0.125
  1
CONNECTION 2
  7
ROMANS
100
AcDbText
  0
TEXT
  5
E93
330
1F
100
AcDbEntity
  8
TEXT_BUBBLES
100
AcDbText
 10
0.9707193948017351
 20
8.373883740154717
 30
0.0
 40
0.125
  1
CONNECTION 1
  7
ROMANS
100
AcDbText
  0
MTEXT
  5
E99
330
1F
100
AcDbEntity
  8
TEXT_BUBBLES
100
AcDbMText
 10
0.8462653348339461
 20
2.232224272253541
 30
0.0
 40
0.125
 41
8.28036612710467
 71
     1
 72
     5
  1
NOTE:\PDO NOT INSTALL FIELD TRANSMITTER BOX BELOW GROUND.
  7
ROMANS
 73
     1
 44
1.0
  0
LWPOLYLINE
  5
1059
330
1F
100
AcDbEntity
  8
image
100
AcDbPolyline
 90
        8
 70
     1
 43
0.0
 10
9.775295764266898
 20
7.809721475409626
 10
10.26126786048025
 20
7.809721475409626
 42
-0.4142135623730951
 10
10.27352731993971
 20
7.797462015950167
 10
10.27352731993971
 20
6.985579557855957
 42
-0.4142135623730951
 10
10.26126786048025
 20
6.973320098396497
 10
9.775295764266894
 20
6.973320098396498
 42
-0.4142135623730953
 10
9.763036304807437
 20
6.985579557855957
 10
9.763036304807437
 20
7.797462015950167
 42
-0.4142135623730951
  0
TEXT
  5
105A
330
1F
100
AcDbEntity
  8
image
100
AcDbText
 10
9.766271532398841
 20
6.941855700145761
 30
0.0
 40
0.0171632432432433
  1
Field Transmitter FT 210
  7
ARIALN
100
AcDbText
  0
LWPOLYLINE
  5
105B
330
1F
100
AcDbEntity
  8
image
100
AcDbPolyline
 90
        4
 70
     1
 43
0.0
 10
9.716078275411129
 20
8.235475496234954
 10
9.716078275411129
 20
6.897478090829549
 10
10.47591957270842
 20
6.897478090829549
 10
10.47591957270842
 20
8.235475496234954
  0
LWPOLYLINE
  5
105C
330
1F
100
AcDbEntity
  8
image
100
AcDbPolyline
 90
        2
 70
     0
 43
0.0
 10
9.747094707843563
 20
6.928617117856576
 10
10.44490314027599
 20
6.928617117856576
  0
LWPOLYLINE
  5
105D
330
1F
100
AcDbEntity
  8
image
100
AcDbPolyline
 90
        3
 70
     0
 43
0.0
 10
9.747094707843563
 20
8.204336469207927
 10
10.44490314027599
 20
8.204336469207927
 10
10.44490314027599
 20
6.928617117856576
  0
LWPOLYLINE
  5
105E
330
1F
100
AcDbEntity
  8
image
100
AcDbPolyline
 90
        9
 70
     0
 43
0.0
 10
10.50693600514086
 20
6.878598523261982
 42
-0.4142135623730982
 10
10.4946765456814
 20
6.866339063802522
 10
9.69732130243816
 20
6.866339063802522
 42
-0.4142135623730948
 10
9.685061842978699
 20
6.878598523261981
 10
9.685061842978699
 20
8.25435506380252
 42
-0.4142135623730951
 10
9.697321302438156
 20
8.266614523261981
 10
10.4946765456814
 20
8.266614523261981
 42
-0.4142135623730982
 10
10.50693600514086
 20
8.25435506380252
 10
10.50693600514086
 20
6.878598523261982
  0
LWPOLYLINE
  5
1060
330
1F
100
AcDbEntity
  8
image
100
AcDbPolyline
 90
        2
 70
     0
 43
0.0
 10
9.747094707843563
 20
8.204336469207927
 10
9.747094707843563
 20
6.928617117856576
  0
SPLINE
  5
1069
330
1F
100
AcDbEntity
  8
image
100
AcDbSpline
210
0.0
220
0.0
230
1.0
 70
     8
 71
     3
 72
    21
 73
    17
 74
     0
 42
0.0000000001
 43
0.0000000001
 40
6.120478341642533
 40
6.120478341642533
 40
6.120478341642533
 40
6.120478341642533
 40
6.283185307179586
 40
6.283185307179586
 40
6.283185307179586
 40
6.6423428623711
 40
6.6423428623711
 40
7.326823678892538
 40
7.326823678892538
 40
8.011304495413977
 40
8.011304495413977
 40
8.64088476304753
 40
8.64088476304753
 40
9.270465030681084
 40
9.270465030681084
 40
9.540847111087249
 40
9.540847111087249
 40
9.540847111087249
 40
9.540847111087249
 10
8.465725735559546
 20
6.521748821768185
 30
0.0
 10
8.467791456712989
 20
6.529443375982276
 30
0.0
 10
8.468945733161911
 20
6.537559881096471
 30
0.0
 10
8.468945733161911
 20
6.546003576293128
 30
0.0
 10
8.468945733161911
 20
6.564642095631277
 30
0.0
 10
8.46342280774269
 20
6.581865839320815
 30
0.0
 10
8.437802025402435
 20
6.624426885864385
 30
0.0
 10
8.412325485872647
 20
6.640217600317746
 30
0.0
 10
8.359140928999606
 20
6.659425493245531
 30
0.0
 10
8.330471609701733
 20
6.662452529813477
 30
0.0
 10
8.276707422649375
 20
6.65715666047989
 30
0.0
 10
8.251345744658381
 20
6.649842914042413
 30
0.0
 10
8.206294688291565
 20
6.621746627648408
 30
0.0
 10
8.185459553667962
 20
6.599163140612279
 30
0.0
 10
8.174472819852342
 20
6.556291103871621
 30
0.0
 10
8.174193405815914
 20
6.541943054581511
 30
0.0
 10
8.176612212991114
 20
6.528528054535018
 30
0.0
  0
LWPOLYLINE
  5
106A
330
1F
100
AcDbEntity
  8
image
100
AcDbPolyline
 90
        8
 70
     1
 43
0.0
 10
10.28578677939917
 20
7.809721475409626
 10
10.41533497553271
 20
7.809721475409626
 42
-0.4142135623730956
 10
10.42759443499216
 20
7.797462015950167
 10
10.42759443499216
 20
6.985579557855957
 42
-0.4142135623730953
 10
10.4153349755327
 20
6.973320098396497
 10
10.28578677939917
 20
6.973320098396497
 42
-0.4142135623730948
 10
10.27352731993971
 20
6.985579557855957
 10
10.27352731993971
 20
7.797462015950167
 42
-0.4142135623730951
  0
TEXT
  5
106B
330
1F
100
AcDbEntity
  8
image
100
AcDbText
 10
10.16386436160185
 20
7.709425282460874
 30
0.0
 40
0.0578646486486487
  1
3
  7
ARIALN
100
AcDbText
  0
TEXT
  5
106C
330
1F
100
AcDbEntity
  8
image
100
AcDbText
 10
9.990515604845098
 20
7.709425282460874
 30
0.0
 40
0.0578646486486487
  1
2
  7
ARIALN
100
AcDbText
  0
TEXT
  5
106D
330
1F
100
AcDbEntity
  8
image
100
AcDbText
 10
9.817166848088342
 20
7.709425282460874
 30
0.0
 40
0.0578646486486487
  1
1
  7
ARIALN
100
AcDbText
  0
LWPOLYLINE
  5
106E
330
1F
100
AcDbEntity
  8
image
100
AcDbPolyline
 90
        8
 70
     1
 43
0.0
 10
10.31004908622194
 20
7.795138569938425
 10
10.40150465378951
 20
7.795138569938425
 42
-0.4142135623730951
 10
10.41376411324896
 20
7.782879110478966
 10
10.41376411324896
 20
7.691423542911398
 42
-0.4142135623730925
 10
10.40150465378951
 20
7.679164083451939
 10
10.31004908622194
 20
7.679164083451939
 42
-0.4142135623730946
 10
10.29778962676248
 20
7.691423542911398
 10
10.29778962676248
 20
7.782879110478966
 42
-0.4142135623730951
  0
LWPOLYLINE
  5
106F
330
1F
100
AcDbEntity
  8
image
100
AcDbPolyline
 90
        8
 70
     1
 43
0.0
 10
10.13670032946518
 20
7.795138569938425
 10
10.22815589703275
 20
7.795138569938425
 42
-0.4142135623730951
 10
10.24041535649221
 20
7.782879110478966
 10
10.24041535649221
 20
7.691423542911398
 42
-0.4142135623730951
 10
10.22815589703275
 20
7.679164083451939
 10
10.13670032946518
 20
7.679164083451939
 42
-0.4142135623730946
 10
10.12444087000572
 20
7.691423542911398
 10
10.12444087000572
 20
7.782879110478966
 42
-0.4142135623730951
  0
LWPOLYLINE
  5
1070
330
1F
100
AcDbEntity
  8
image
100
AcDbPolyline
 90
        8
 70
     1
 43
0.0
 10
9.963351572708427
 20
7.795138569938425
 10
10.05480714027599
 20
7.795138569938425
 42
-0.4142135623730951
 10
10.06706659973545
 20
7.782879110478966
 10
10.06706659973545
 20
7.691423542911398
 42
-0.4142135623730951
 10
10.05480714027599
 20
7.679164083451939
 10
9.963351572708427
 20
7.679164083451939
 42
-0.4142135623730946
 10
9.95109211324897
 20
7.691423542911398
 10
9.95109211324897
 20
7.782879110478966
 42
-0.4142135623730951
  0
LWPOLYLINE
  5
1071
330
1F
100
AcDbEntity
  8
image
100
AcDbPolyline
 90
        8
 70
     1
 43
0.0
 10
9.790002815951671
 20
7.795138569938425
 10
9.881458383519239
 20
7.795138569938425
 42
-0.4142135623730951
 10
9.893717842978697
 20
7.782879110478966
 10
9.893717842978697
 20
7.691423542911398
 42
-0.4142135623730951
 10
9.881458383519239
 20
7.679164083451939
 10
9.790002815951671
 20
7.679164083451939
 42
-0.4142135623730946
 10
9.77774335649221
 20
7.691423542911398
 10
9.77774335649221
 20
7.782879110478966
 42
-0.4142135623730951
  0
LWPOLYLINE
  5
1072
330
1F
100
AcDbEntity
  8
image
100
AcDbPolyline
 90
        2
 70
     0
 43
0.0
 10
10.30311399777341
 20
6.664548361099819
 10
10.30311399777341
 20
6.287414535731636
  0
LWPOLYLINE
  5
1073
330
1F
100
AcDbEntity
  8
image
100
AcDbPolyline
 90
        2
 70
     0
 43
0.0
 10
10.25162426804368
 20
6.664548361099819
 10
10.25162426804368
 20
6.287414535731636
  0
LWPOLYLINE
  5
1074
330
1F
100
AcDbEntity
  8
image
100
AcDbPolyline
 90
        2
 70
     0
 43
0.0107883243243243
 10
10.3934069760732
 20
7.736011876605361
 10
10.35368632742455
 20
7.736011876605361
  0
TEXT
  5
1075
330
1F
100
AcDbEntity
  8
image
100
AcDbText
 10
10.37040631012222
 20
7.188290362722232
 30
0.0
 40
0.0266421283937476
  1
2
  7
ARIALN
100
AcDbText
  0
TEXT
  5
1076
330
1F
100
AcDbEntity
  8
image
100
AcDbText
 10
10.37040631012222
 20
7.361997026476315
 30
0.0
 40
0.0266421283937476
  1
1
  7
ARIALN
100
AcDbText
  0
TEXT
  5
1077
330
1F
100
AcDbEntity
  8
image
100
AcDbText
 10
10.33721311835861
 20
7.016030255433846
 30
0.0
 40
0.0578646486486487
  1
E
  7
ARIALN
100
AcDbText
  0
TEXT
  5
1078
330
1F
100
AcDbEntity
  8
image
100
AcDbText
 10
10.33721311835861
 20
7.189379012190603
 30
0.0
 40
0.0578646486486487
  1
F
  7
ARIALN
100
AcDbText
  0
TEXT
  5
1079
330
1F
100
AcDbEntity
  8
image
100
AcDbText
 10
10.33721311835861
 20
7.362727768947361
 30
0.0
 40
0.0578646486486487
  1
F
  7
ARIALN
100
AcDbText
  0
LWPOLYLINE
  5
107A
330
1F
100
AcDbEntity
  8
image
100
AcDbPolyline
 90
        8
 70
     1
 43
0.0
 10
10.31004908622194
 20
7.101743542911397
 10
10.40150465378951
 20
7.101743542911397
 42
-0.4142135623730951
 10
10.41376411324896
 20
7.089484083451938
 10
10.41376411324896
 20
6.99802851588437
 42
-0.4142135623730925
 10
10.40150465378951
 20
6.985769056424911
 10
10.31004908622194
 20
6.985769056424911
 42
-0.4142135623730946
 10
10.29778962676248
 20
6.99802851588437
 10
10.29778962676248
 20
7.089484083451938
 42
-0.4142135623730951
  0
LWPOLYLINE
  5
107B
330
1F
100
AcDbEntity
  8
image
100
AcDbPolyline
 90
        8
 70
     1
 43
0.0
 10
10.31004908622194
 20
7.275092299668155
 10
10.40150465378951
 20
7.275092299668155
 42
-0.4142135623730951
 10
10.41376411324896
 20
7.262832840208695
 10
10.41376411324896
 20
7.171377272641127
 42
-0.4142135623730925
 10
10.40150465378951
 20
7.159117813181667
 10
10.31004908622194
 20
7.159117813181667
 42
-0.4142135623730946
 10
10.29778962676248
 20
7.171377272641128
 10
10.29778962676248
 20
7.262832840208695
 42
-0.4142135623730951
  0
LWPOLYLINE
  5
107C
330
1F
100
AcDbEntity
  8
image
100
AcDbPolyline
 90
        8
 70
     1
 43
0.0
 10
10.31004908622194
 20
7.448441056424911
 10
10.40150465378951
 20
7.448441056424911
 42
-0.4142135623730951
 10
10.41376411324896
 20
7.436181596965452
 10
10.41376411324896
 20
7.344726029397884
 42
-0.4142135623730925
 10
10.40150465378951
 20
7.332466569938425
 10
10.31004908622194
 20
7.332466569938425
 42
-0.4142135623730946
 10
10.29778962676248
 20
7.344726029397884
 10
10.29778962676248
 20
7.436181596965452
 42
-0.4142135623730951
  0
LWPOLYLINE
  5
107D
330
1F
100
AcDbEntity
  8
image
100
AcDbPolyline
 90
        8
 70
     1
 43
0.0
 10
10.31004908622194
 20
7.621789813181668
 10
10.40150465378951
 20
7.621789813181668
 42
-0.4142135623730951
 10
10.41376411324896
 20
7.609530353722209
 10
10.41376411324896
 20
7.518074786154641
 42
-0.4142135623730925
 10
10.40150465378951
 20
7.505815326695182
 10
10.31004908622194
 20
7.505815326695182
 42
-0.4142135623730946
 10
10.29778962676248
 20
7.518074786154642
 10
10.29778962676248
 20
7.609530353722209
 42
-0.4142135623730951
  0
LWPOLYLINE
  5
107E
330
1F
100
AcDbEntity
  8
image
100
AcDbPolyline
 90
        8
 70
     1
 43
0.0
 10
10.13670032946518
 20
7.101743542911397
 10
10.22815589703275
 20
7.101743542911397
 42
-0.4142135623730951
 10
10.24041535649221
 20
7.089484083451938
 10
10.24041535649221
 20
6.99802851588437
 42
-0.4142135623730951
 10
10.22815589703275
 20
6.985769056424911
 10
10.13670032946518
 20
6.985769056424911
 42
-0.4142135623730946
 10
10.12444087000572
 20
6.99802851588437
 10
10.12444087000572
 20
7.089484083451938
 42
-0.4142135623730951
  0
LWPOLYLINE
  5
107F
330
1F
100
AcDbEntity
  8
image
100
AcDbPolyline
 90
        8
 70
     1
 43
0.0
 10
9.963351572708427
 20
7.101743542911397
 10
10.05480714027599
 20
7.101743542911397
 42
-0.4142135623730951
 10
10.06706659973545
 20
7.089484083451938
 10
10.06706659973545
 20
6.99802851588437
 42
-0.4142135623730951
 10
10.05480714027599
 20
6.985769056424911
 10
9.963351572708427
 20
6.985769056424911
 42
-0.4142135623730946
 10
9.95109211324897
 20
6.99802851588437
 10
9.95109211324897
 20
7.089484083451938
 42
-0.4142135623730951
  0
LWPOLYLINE
  5
1080
330
1F
100
AcDbEntity
  8
image
100
AcDbPolyline
 90
        8
 70
     1
 43
0.0
 10
9.790002815951671
 20
7.101743542911397
 10
9.881458383519239
 20
7.101743542911397
 42
-0.4142135623730951
 10
9.893717842978697
 20
7.089484083451938
 10
9.893717842978697
 20
6.99802851588437
 42
-0.4142135623730951
 10
9.881458383519239
 20
6.985769056424911
 10
9.790002815951671
 20
6.985769056424911
 42
-0.4142135623730946
 10
9.77774335649221
 20
6.99802851588437
 10
9.77774335649221
 20
7.089484083451938
 42
-0.4142135623730951
  0
TEXT
  5
1081
330
1F
100
AcDbEntity
  8
image
100
AcDbText
 10
9.817166848088342
 20
7.016030255433846
 30
0.0
 40
0.0578646486486487
  1
T
  7
ARIALN
100
AcDbText
  0
TEXT
  5
1082
330
1F
100
AcDbEntity
  8
image
100
AcDbText
 10
9.990515604845098
 20
7.016030255433846
 30
0.0
 40
0.0578646486486487
  1
F
  7
ARIALN
100
AcDbText
  0
LWPOLYLINE
  5
1083
330
1F
100
AcDbEntity
  8
image
100
AcDbPolyline
 90
        2
 70
     0
 43
0.0
 10
10.3420112782645
 20
6.713586198937657
 10
10.3420112782645
 20
6.787142955694414
  0
LWPOLYLINE
  5
1084
330
1F
100
AcDbEntity
  8
image
100
AcDbPolyline
 90
        2
 70
     0
 43
0.0
 10
10.21272698755259
 20
6.787142955694414
 10
10.21272698755259
 20
6.713586198937657
  0
LWPOLYLINE
  5
1085
330
1F
100
AcDbEntity
  8
image
100
AcDbPolyline
 90
        2
 70
     0
 43
0.0
 10
10.28689671728232
 20
6.787142955694414
 10
10.28689671728232
 20
6.713586198937657
  0
LWPOLYLINE
  5
1086
330
1F
100
AcDbEntity
  8
image
100
AcDbPolyline
 90
        2
 70
     0
 43
0.0
 10
10.26784154853477
 20
6.787142955694414
 10
10.26784154853477
 20
6.713586198937657
  0
LWPOLYLINE
  5
1087
330
1F
100
AcDbEntity
  8
image
100
AcDbPolyline
 90
        2
 70
     0
 43
0.0
 10
10.27736913290854
 20
6.787142955694414
 10
10.27736913290854
 20
6.713586198937657
  0
LWPOLYLINE
  5
1088
330
1F
100
AcDbEntity
  8
image
100
AcDbPolyline
 90
        6
 70
     0
 43
0.0
 10
10.20319940317881
 20
6.787142955694414
 10
10.20319940317881
 20
6.689067280018738
 42
0.4142135623730995
 10
10.22771832209773
 20
6.664548361099819
 10
10.32701994371935
 20
6.664548361099819
 42
0.4142135623730995
 10
10.35153886263827
 20
6.689067280018738
 10
10.35153886263827
 20
6.787142955694414
  0
LWPOLYLINE
  5
1089
330
1F
100
AcDbEntity
  8
image
100
AcDbPolyline
 90
        2
 70
     0
 43
0.0
 10
10.21272698755259
 20
6.71929339229786
 42
0.1889685462937582
 10
10.26784154853477
 20
6.718266556593465
 42
-0.179338220834367
  0
LWPOLYLINE
  5
108A
330
1F
100
AcDbEntity
  8
image
100
AcDbPolyline
 90
        2
 70
     0
 43
0.0
 10
10.20319940317881
 20
6.713586198937657
 10
10.35153886263827
 20
6.713586198937657
  0
LWPOLYLINE
  5
108B
330
1F
100
AcDbEntity
  8
image
100
AcDbPolyline
 90
        2
 70
     0
 43
0.0
 10
10.28689671728232
 20
6.71929339229786
 42
0.1889685462937582
 10
10.3420112782645
 20
6.718266556593465
 42
-0.179338220834367
  0
LWPOLYLINE
  5
108C
330
1F
100
AcDbEntity
  8
image
100
AcDbPolyline
 90
        2
 70
     0
 43
0.0
 10
10.22146599777341
 20
6.791037676981585
 10
10.28122748934831
 20
6.787142955694414
  0
LWPOLYLINE
  5
108D
330
1F
100
AcDbEntity
  8
image
100
AcDbPolyline
 90
        2
 70
     0
 43
0.0
 10
10.22146599777341
 20
6.795548390149279
 10
10.33327226804368
 20
6.788261854131096
  0
LWPOLYLINE
  5
108E
330
1F
100
AcDbEntity
  8
image
100
AcDbPolyline
 90
        2
 70
     0
 43
0.0
 10
10.22146599777341
 20
6.800406078066343
 10
10.33327226804368
 20
6.79311954204816
  0
LWPOLYLINE
  5
108F
330
1F
100
AcDbEntity
  8
image
100
AcDbPolyline
 90
        2
 70
     0
 43
0.0
 10
10.22146599777341
 20
6.804916791234036
 10
10.33327226804368
 20
6.797630255215852
  0
LWPOLYLINE
  5
1090
330
1F
100
AcDbEntity
  8
image
100
AcDbPolyline
 90
        2
 70
     0
 43
0.0
 10
10.22146599777341
 20
6.8097744791511
 10
10.33327226804368
 20
6.802487943132917
  0
LWPOLYLINE
  5
1091
330
1F
100
AcDbEntity
  8
image
100
AcDbPolyline
 90
        2
 70
     0
 43
0.0
 10
10.20319940317881
 20
6.787142955694414
 10
10.35153886263827
 20
6.787142955694414
  0
LWPOLYLINE
  5
1092
330
1F
100
AcDbEntity
  8
image
100
AcDbPolyline
 90
        2
 70
     0
 43
0.0
 10
10.20319940317881
 20
6.813133009748468
 10
10.35153886263827
 20
6.813133009748468
  0
LWPOLYLINE
  5
1093
330
1F
100
AcDbEntity
  8
image
100
AcDbPolyline
 90
        2
 70
     0
 43
0.0
 10
10.21272698755259
 20
6.866339063802522
 10
10.21272698755259
 20
6.813133009748468
  0
LWPOLYLINE
  5
1094
330
1F
100
AcDbEntity
  8
image
100
AcDbPolyline
 90
        2
 70
     0
 43
0.0
 10
10.22146599777341
 20
6.813133009748468
 10
10.22146599777341
 20
6.787142955694414
  0
LWPOLYLINE
  5
1095
330
1F
100
AcDbEntity
  8
image
100
AcDbPolyline
 90
        2
 70
     0
 43
0.0
 10
10.20319940317881
 20
6.866339063802522
 10
10.20319940317881
 20
6.813133009748468
  0
TEXT
  5
1096
330
1F
100
AcDbEntity
  8
image
100
AcDbText
 10
10.16386436160185
 20
7.016030255433846
 30
0.0
 40
0.0578646486486487
  1
G
  7
ARIALN
100
AcDbText
  0
LWPOLYLINE
  5
1097
330
1F
100
AcDbEntity
  8
image
100
AcDbPolyline
 90
        2
 70
     0
 43
0.0
 10
10.23914534987389
 20
6.813133009748468
 10
10.33327226804368
 20
6.806998656300609
  0
LWPOLYLINE
  5
1098
330
1F
100
AcDbEntity
  8
image
100
AcDbPolyline
 90
        2
 70
     0
 43
0.0
 10
10.28689671728232
 20
6.813133009748468
 10
10.28689671728232
 20
6.866339063802522
  0
LWPOLYLINE
  5
1099
330
1F
100
AcDbEntity
  8
image
100
AcDbPolyline
 90
        2
 70
     0
 43
0.0
 10
10.26784154853477
 20
6.813133009748468
 10
10.26784154853477
 20
6.866339063802522
  0
LWPOLYLINE
  5
109A
330
1F
100
AcDbEntity
  8
image
100
AcDbPolyline
 90
        2
 70
     0
 43
0.0
 10
10.27736913290854
 20
6.813133009748468
 10
10.27736913290854
 20
6.866339063802522
  0
LWPOLYLINE
  5
109B
330
1F
100
AcDbEntity
  8
image
100
AcDbPolyline
 90
        2
 70
     0
 43
0.0
 10
10.3420112782645
 20
6.866339063802522
 10
10.3420112782645
 20
6.813133009748468
  0
LWPOLYLINE
  5
109C
330
1F
100
AcDbEntity
  8
image
100
AcDbPolyline
 90
        2
 70
     0
 43
0.0
 10
10.33327226804368
 20
6.813133009748468
 10
10.33327226804368
 20
6.787142955694414
  0
LWPOLYLINE
  5
109D
330
1F
100
AcDbEntity
  8
image
100
AcDbPolyline
 90
        2
 70
     0
 43
0.0
 10
10.35153886263827
 20
6.866339063802522
 10
10.35153886263827
 20
6.813133009748468
  0
LWPOLYLINE
  5
109E
330
1F
100
AcDbEntity
  8
image
100
AcDbPolyline
 90
        8
 70
     1
 43
0.0
 10
9.963351572708427
 20
7.448441056424911
 10
10.05480714027599
 20
7.448441056424911
 42
-0.4142135623730951
 10
10.06706659973545
 20
7.436181596965452
 10
10.06706659973545
 20
7.344726029397884
 42
-0.4142135623730951
 10
10.05480714027599
 20
7.332466569938425
 10
9.963351572708427
 20
7.332466569938425
 42
-0.4142135623730946
 10
9.95109211324897
 20
7.344726029397884
 10
9.95109211324897
 20
7.436181596965452
 42
-0.4142135623730951
  0
LWPOLYLINE
  5
109F
330
1F
100
AcDbEntity
  8
image
100
AcDbPolyline
 90
        8
 70
     1
 43
0.0
 10
9.790002815951671
 20
7.448441056424911
 10
9.881458383519239
 20
7.448441056424911
 42
-0.4142135623730951
 10
9.893717842978697
 20
7.436181596965452
 10
9.893717842978697
 20
7.344726029397884
 42
-0.4142135623730951
 10
9.881458383519239
 20
7.332466569938425
 10
9.790002815951671
 20
7.332466569938425
 42
-0.4142135623730946
 10
9.77774335649221
 20
7.344726029397884
 10
9.77774335649221
 20
7.436181596965452
 42
-0.4142135623730951
  0
LWPOLYLINE
  5
10A0
330
1F
100
AcDbEntity
  8
image
100
AcDbPolyline
 90
        8
 70
     1
 43
0.0
 10
9.790002815951671
 20
7.275092299668155
 10
9.881458383519239
 20
7.275092299668155
 42
-0.4142135623730951
 10
9.893717842978697
 20
7.262832840208695
 10
9.893717842978697
 20
7.171377272641127
 42
-0.4142135623730951
 10
9.881458383519239
 20
7.159117813181667
 10
9.790002815951671
 20
7.159117813181667
 42
-0.4142135623730946
 10
9.77774335649221
 20
7.171377272641128
 10
9.77774335649221
 20
7.262832840208695
 42
-0.4142135623730951
  0
TEXT
  5
10A1
330
1F
100
AcDbEntity
  8
image
100
AcDbText
 10
9.817166848088342
 20
7.189379012190603
 30
0.0
 40
0.0578646486486487
  1
C
  7
ARIALN
100
AcDbText
  0
TEXT
  5
10A2
330
1F
100
AcDbEntity
  8
image
100
AcDbText
 10
9.817166848088342
 20
7.362727768947361
 30
0.0
 40
0.0578646486486487
  1
7
  7
ARIALN
100
AcDbText
  0
LWPOLYLINE
  5
10A3
330
1F
100
AcDbEntity
  8
image
100
AcDbPolyline
 90
        8
 70
     1
 43
0.0
 10
9.963351572708427
 20
7.275092299668155
 10
10.05480714027599
 20
7.275092299668155
 42
-0.4142135623730951
 10
10.06706659973545
 20
7.262832840208695
 10
10.06706659973545
 20
7.171377272641127
 42
-0.4142135623730951
 10
10.05480714027599
 20
7.159117813181667
 10
9.963351572708427
 20
7.159117813181667
 42
-0.4142135623730946
 10
9.95109211324897
 20
7.171377272641128
 10
9.95109211324897
 20
7.262832840208695
 42
-0.4142135623730951
  0
TEXT
  5
10A4
330
1F
100
AcDbEntity
  8
image
100
AcDbText
 10
9.990515604845098
 20
7.189379012190603
 30
0.0
 40
0.0578646486486487
  1
V
  7
ARIALN
100
AcDbText
  0
TEXT
  5
10A5
330
1F
100
AcDbEntity
  8
image
100
AcDbText
 10
9.990515604845098
 20
7.362727768947361
 30
0.0
 40
0.0578646486486487
  1
8
  7
ARIALN
100
AcDbText
  0
LWPOLYLINE
  5
10A6
330
1F
100
AcDbEntity
  8
image
100
AcDbPolyline
 90
        8
 70
     1
 43
0.0
 10
9.790002815951671
 20
7.621789813181668
 10
9.881458383519239
 20
7.621789813181668
 42
-0.4142135623730951
 10
9.893717842978697
 20
7.609530353722209
 10
9.893717842978697
 20
7.518074786154641
 42
-0.4142135623730951
 10
9.881458383519239
 20
7.505815326695182
 10
9.790002815951671
 20
7.505815326695182
 42
-0.4142135623730946
 10
9.77774335649221
 20
7.518074786154642
 10
9.77774335649221
 20
7.609530353722209
 42
-0.4142135623730951
  0
TEXT
  5
10A7
330
1F
100
AcDbEntity
  8
image
100
AcDbText
 10
9.817166848088342
 20
7.536076525704118
 30
0.0
 40
0.0578646486486487
  1
4
  7
ARIALN
100
AcDbText
  0
LWPOLYLINE
  5
10A8
330
1F
100
AcDbEntity
  8
image
100
AcDbPolyline
 90
        8
 70
     1
 43
0.0
 10
9.963351572708427
 20
7.621789813181668
 10
10.05480714027599
 20
7.621789813181668
 42
-0.4142135623730951
 10
10.06706659973545
 20
7.609530353722209
 10
10.06706659973545
 20
7.518074786154641
 42
-0.4142135623730951
 10
10.05480714027599
 20
7.505815326695182
 10
9.963351572708427
 20
7.505815326695182
 42
-0.4142135623730946
 10
9.95109211324897
 20
7.518074786154642
 10
9.95109211324897
 20
7.609530353722209
 42
-0.4142135623730951
  0
TEXT
  5
10A9
330
1F
100
AcDbEntity
  8
image
100
AcDbText
 10
9.990515604845098
 20
7.536076525704118
 30
0.0
 40
0.0578646486486487
  1
5
  7
ARIALN
100
AcDbText
  0
LWPOLYLINE
  5
10AA
330
1F
100
AcDbEntity
  8
image
100
AcDbPolyline
 90
        8
 70
     1
 43
0.0
 10
10.13670032946518
 20
7.448441056424911
 10
10.22815589703275
 20
7.448441056424911
 42
-0.4142135623730951
 10
10.24041535649221
 20
7.436181596965452
 10
10.24041535649221
 20
7.344726029397884
 42
-0.4142135623730951
 10
10.22815589703275
 20
7.332466569938425
 10
10.13670032946518
 20
7.332466569938425
 42
-0.4142135623730946
 10
10.12444087000572
 20
7.344726029397884
 10
10.12444087000572
 20
7.436181596965452
 42
-0.4142135623730951
  0
LWPOLYLINE
  5
10AB
330
1F
100
AcDbEntity
  8
image
100
AcDbPolyline
 90
        8
 70
     1
 43
0.0
 10
10.13670032946518
 20
7.275092299668155
 10
10.22815589703275
 20
7.275092299668155
 42
-0.4142135623730951
 10
10.24041535649221
 20
7.262832840208695
 10
10.24041535649221
 20
7.171377272641127
 42
-0.4142135623730951
 10
10.22815589703275
 20
7.159117813181667
 10
10.13670032946518
 20
7.159117813181667
 42
-0.4142135623730946
 10
10.12444087000572
 20
7.171377272641128
 10
10.12444087000572
 20
7.262832840208695
 42
-0.4142135623730951
  0
TEXT
  5
10AC
330
1F
100
AcDbEntity
  8
image
100
AcDbText
 10
10.16386436160185
 20
7.189379012190603
 30
0.0
 40
0.0578646486486487
  1
0
  7
ARIALN
100
AcDbText
  0
TEXT
  5
10AD
330
1F
100
AcDbEntity
  8
image
100
AcDbText
 10
10.16386436160185
 20
7.362727768947361
 30
0.0
 40
0.0578646486486487
  1
9
  7
ARIALN
100
AcDbText
  0
LWPOLYLINE
  5
10AE
330
1F
100
AcDbEntity
  8
image
100
AcDbPolyline
 90
        8
 70
     1
 43
0.0
 10
10.13670032946518
 20
7.621789813181668
 10
10.22815589703275
 20
7.621789813181668
 42
-0.4142135623730951
 10
10.24041535649221
 20
7.609530353722209
 10
10.24041535649221
 20
7.518074786154641
 42
-0.4142135623730951
 10
10.22815589703275
 20
7.505815326695182
 10
10.13670032946518
 20
7.505815326695182
 42
-0.4142135623730946
 10
10.12444087000572
 20
7.518074786154642
 10
10.12444087000572
 20
7.609530353722209
 42
-0.4142135623730951
  0
TEXT
  5
10AF
330
1F
100
AcDbEntity
  8
image
100
AcDbText
 10
10.16386436160185
 20
7.536076525704118
 30
0.0
 40
0.0578646486486487
  1
6
  7
ARIALN
100
AcDbText
  0
LWPOLYLINE
  5
10B0
330
1F
100
AcDbEntity
  8
image
100
AcDbPolyline
 90
        2
 70
     0
 10
10.35900805806017
 20
7.555838569328105
 40
0.0313842162162162
 41
0.0
 10
10.35900805806017
 20
7.527887001760537
 40
0.0
 41
0.0
  0
LWPOLYLINE
  5
10B1
330
1F
100
AcDbEntity
  8
image
100
AcDbPolyline
 90
        2
 70
     0
 43
0.0107883243243243
 10
10.35900805806017
 20
7.595559217976753
 10
10.35900805806017
 20
7.555838569328105
  0
LWPOLYLINE
  5
10B2
330
1F
100
AcDbEntity
  8
image
100
AcDbPolyline
 90
        2
 70
     0
 10
10.35368632742455
 20
7.736011876605361
 40
0.0313842162162162
 41
0.0
 10
10.32573475985698
 20
7.736011876605361
 40
0.0
 41
0.0
  0
LWPOLYLINE
  5
10B3
330
1F
100
AcDbEntity
  8
image
100
AcDbPolyline
 90
        2
 70
     0
 43
0.0
 10
8.441085587909631
 20
6.002513633958408
 10
8.417648800689535
 20
5.857343243456425
  0
LWPOLYLINE
  5
10B4
330
1F
100
AcDbEntity
  8
image
100
AcDbPolyline
 90
        2
 70
     0
 43
0.0
 10
8.212121431758271
 20
6.002966662125932
 10
8.23498285474359
 20
5.857343243456425
  0
ELLIPSE
  5
10B5
330
1F
100
AcDbEntity
  8
image
100
AcDbEllipse
 10
8.326315827716564
 20
5.857343243456425
 30
0.0
 11
0.0913329729729727
 21
0.0
 31
0.0
210
0.0
220
0.0
230
1.0
 40
0.62022018581813
 41
5.637321398910723
 42
10.07064186903824
  0
ELLIPSE
  5
10B7
330
1F
100
AcDbEntity
  8
image
100
AcDbEllipse
 10
8.326315827716564
 20
5.857343243456425
 30
0.0
 11
0.0729366936402938
 21
0.0
 31
0.0
210
0.0
220
0.0
230
1.0
 40
0.5309726489560383
 41
8.111928146359925
 42
9.424777960769379
  0
ELLIPSE
  5
10B8
330
1F
100
AcDbEntity
  8
image
100
AcDbEllipse
 10
8.326315827716564
 20
5.813392445827755
 30
0.0
 11
0.0729366936402938
 21
0.0
 31
0.0
210
0.0
220
0.0
230
1.0
 40
0.5309726489560383
 41
1.839506841533956
 42
2.665010296775105
  0
ELLIPSE
  5
10B9
330
1F
100
AcDbEntity
  8
image
100
AcDbEllipse
 10
8.326315827716564
 20
5.813392445827755
 30
0.0
 11
0.0729366936402938
 21
0.0
 31
0.0
210
0.0
220
0.0
230
1.0
 40
0.5309726489560383
 41
3.141592653589793
 42
4.32353191545198
  0
LWPOLYLINE
  5
10BA
330
1F
100
AcDbEntity
  8
image
100
AcDbPolyline
 90
        2
 70
     0
 43
0.0
 10
8.25337913407627
 20
5.857343243456425
 10
8.25337913407627
 20
5.813392445827755
  0
LWPOLYLINE
  5
10BB
330
1F
100
AcDbEntity
  8
image
100
AcDbPolyline
 90
        2
 70
     0
 43
0.0
 10
8.261506620390891
 20
5.875109241750469
 10
8.261506620390891
 20
5.8311584441218
  0
LWPOLYLINE
  5
10BC
330
1F
100
AcDbEntity
  8
image
100
AcDbPolyline
 90
        2
 70
     0
 43
0.0
 10
8.261506620390891
 20
5.8311584441218
 10
8.25337913407627
 20
5.813392445827755
  0
ELLIPSE
  5
10BD
330
1F
100
AcDbEntity
  8
image
100
AcDbEllipse
 10
8.326315827716564
 20
5.813392445827755
 30
0.0
 11
0.0729366936402938
 21
0.0
 31
0.0
210
0.0
220
0.0
230
1.0
 40
0.5309726489560383
 41
5.056068066125608
 42
6.283185307179586
  0
LWPOLYLINE
  5
10BE
330
1F
100
AcDbEntity
  8
image
100
AcDbPolyline
 90
        2
 70
     0
 43
0.0
 10
8.298663262033047
 20
5.777556327641424
 10
8.302644696531627
 20
5.777508565652002
  0
LWPOLYLINE
  5
10BF
330
1F
100
AcDbEntity
  8
image
100
AcDbPolyline
 90
        2
 70
     0
 43
0.0
 10
8.307710002364027
 20
5.894789370199323
 10
8.349589602385444
 20
5.894046063630276
  0
LWPOLYLINE
  5
10C0
330
1F
100
AcDbEntity
  8
image
100
AcDbPolyline
 90
        2
 70
     0
 43
0.0
 10
8.306951978199217
 20
5.850730065756954
 10
8.348835722159522
 20
5.850227620988185
  0
ELLIPSE
  5
10C1
330
1F
100
AcDbEntity
  8
image
100
AcDbEllipse
 10
8.324403899840428
 20
5.815921764641261
 30
0.0
 11
0.0439320423117766
 21
0.0
 31
0.0
210
0.0
220
0.0
230
1.0
 40
0.4880953341997681
 41
5.454849986120501
 42
10.48051748921173
  0
LWPOLYLINE
  5
10C2
330
1F
100
AcDbEntity
  8
image
100
AcDbPolyline
 90
        2
 70
     0
 43
0.0
 10
8.306951978199217
 20
5.850730065756954
 10
8.307710002364027
 20
5.894789370199323
  0
LWPOLYLINE
  5
10C3
330
1F
100
AcDbEntity
  8
image
100
AcDbPolyline
 90
        2
 70
     0
 43
0.0
 10
8.399252521356858
 20
5.857343243456425
 10
8.399252521356858
 20
5.813392445827755
  0
LWPOLYLINE
  5
10C4
330
1F
100
AcDbEntity
  8
image
100
AcDbPolyline
 90
        2
 70
     0
 43
0.0
 10
8.387560101903057
 20
5.834423924312047
 10
8.399252521356858
 20
5.813392445827755
  0
LWPOLYLINE
  5
10C5
330
1F
100
AcDbEntity
  8
image
100
AcDbPolyline
 90
        2
 70
     0
 43
0.0
 10
8.387560101903057
 20
5.834423924312047
 10
8.387560101903057
 20
5.878374721940716
  0
LWPOLYLINE
  5
10C6
330
1F
100
AcDbEntity
  8
image
100
AcDbPolyline
 90
        2
 70
     0
 43
0.0
 10
8.348835722159522
 20
5.850227620988185
 10
8.349589602385444
 20
5.894046063630276
  0
ELLIPSE
  5
10C7
330
1F
100
AcDbEntity
  8
image
100
AcDbEllipse
 10
8.326315827716564
 20
5.857343243456425
 30
0.0
 11
0.0729366936402938
 21
0.0
 31
0.0
210
0.0
220
0.0
230
1.0
 40
0.5309726489560383
 41
6.283185307179586
 42
7.529206636398196
  0
ELLIPSE
  5
10C8
330
1F
100
AcDbEntity
  8
image
100
AcDbEllipse
 10
8.326315827716564
 20
5.813392445827755
 30
0.0
 11
0.0729366936402938
 21
0.0
 31
0.0
210
0.0
220
0.0
230
1.0
 40
0.5309726489560383
 41
6.857267933906484
 42
7.540093140043888
  0
SPLINE
  5
10C9
330
1F
100
AcDbEntity
  8
image
100
AcDbSpline
210
0.0
220
0.0
230
1.0
 70
     8
 71
     3
 72
    20
 73
    16
 74
     0
 42
0.0000000001
 43
0.0000000001
 40
6.236916054341074
 40
6.236916054341074
 40
6.236916054341074
 40
6.236916054341074
 40
6.31116511240453
 40
6.31116511240453
 40
6.905626336440614
 40
6.905626336440614
 40
7.500087560476698
 40
7.500087560476698
 40
8.094548784512781
 40
8.094548784512781
 40
8.699942138347097
 40
8.699942138347097
 40
9.305335492181413
 40
9.305335492181413
 40
9.47043403715612
 40
9.47043403715612
 40
9.47043403715612
 40
9.47043403715612
 10
8.456608092134361
 20
6.471245648204596
 30
0.0
 10
8.456852390779014
 20
6.474476118283527
 30
0.0
 10
8.456905894893589
 20
6.477754331890841
 30
0.0
 10
8.455531702430713
 20
6.507625185423075
 30
0.0
 10
8.441265209473472
 20
6.530678867281584
 30
0.0
 10
8.406427884799315
 20
6.561010599998026
 30
0.0
 10
8.384742582296391
 20
6.570231211776362
 30
0.0
 10
8.340193208479218
 20
6.58048944171015
 30
0.0
 10
8.316770146457608
 20
6.581153322118903
 30
0.0
 10
8.27094778558717
 20
6.574292591538719
 30
0.0
 10
8.248801331985633
 20
6.566663741930255
 30
0.0
 10
8.210252015331485
 20
6.53939284344334
 30
0.0
 10
8.193402151493197
 20
6.518592246496452
 30
0.0
 10
8.187210252149222
 20
6.486200157079255
 30
0.0
 10
8.186846987934055
 20
6.478841016384
 30
0.0
 10
8.187378958517244
 20
6.471529094826354
 30
0.0
  0
SPLINE
  5
10CA
330
1F
100
AcDbEntity
  8
image
100
AcDbSpline
210
0.0
220
0.0
230
1.0
 70
     8
 71
     3
 72
    22
 73
    18
 74
     0
 42
0.0000000001
 43
0.0000000001
 40
5.810506910959476
 40
5.810506910959476
 40
5.810506910959476
 40
5.810506910959476
 40
6.31116511240453
 40
6.31116511240453
 40
6.905626336440614
 40
6.905626336440614
 40
7.500087560476698
 40
7.500087560476698
 40
8.094548784512781
 40
8.094548784512781
 40
8.699942138347097
 40
8.699942138347097
 40
9.305335492181413
 40
9.305335492181413
 40
9.687251378264758
 40
9.687251378264758
 40
9.896274785344751
 40
9.896274785344751
 40
9.896274785344751
 40
9.896274785344751
 10
8.441085587909627
 20
6.21215435614969
 30
0.0
 10
8.45410920688459
 20
6.22817133355715
 30
0.0
 10
8.462450528906559
 20
6.248787479354273
 30
0.0
 10
8.460200070224031
 20
6.297705752086892
 30
0.0
 10
8.445933577266794
 20
6.320759433945401
 30
0.0
 10
8.411096252592637
 20
6.351091166661843
 30
0.0
 10
8.389410950089713
 20
6.36031177844018
 30
0.0
 10
8.344861576272537
 20
6.370570008373966
 30
0.0
 10
8.321438514250926
 20
6.371233888782719
 30
0.0
 10
8.275616153380484
 20
6.364373158202536
 30
0.0
 10
8.253469699778952
 20
6.356744308594072
 30
0.0
 10
8.214920383124807
 20
6.329473410107157
 30
0.0
 10
8.198070519286519
 20
6.308672813160269
 30
0.0
 10
8.190136212067455
 20
6.267165551070594
 30
0.0
 10
8.192222965284093
 20
6.24887128512659
 30
0.0
 10
8.202121773432233
 20
6.226017025359413
 30
0.0
 10
8.20675123531018
 20
6.218608406429374
 30
0.0
 10
8.212121431758271
 20
6.211998325133741
 30
0.0
  0
SPLINE
  5
10CB
330
1F
100
AcDbEntity
  8
image
100
AcDbSpline
210
0.0
220
0.0
230
1.0
 70
     8
 71
     3
 72
    20
 73
    16
 74
     0
 42
0.0000000001
 43
0.0000000001
 40
6.243766397295747
 40
6.243766397295747
 40
6.243766397295747
 40
6.243766397295747
 40
6.559405016101312
 40
6.559405016101312
 40
6.965817355194403
 40
6.965817355194403
 40
7.372229694287494
 40
7.372229694287494
 40
8.225374088225219
 40
8.225374088225219
 40
8.798904523177114
 40
8.798904523177114
 40
9.272571011387132
 40
9.272571011387132
 40
9.458538331516407
 40
9.458538331516407
 40
9.458538331516407
 40
9.458538331516407
 10
8.441085587909634
 20
6.263602343267254
 30
0.0
 10
8.441661108669654
 20
6.273930535330767
 30
0.0
 10
8.439764160115485
 20
6.284462744180174
 30
0.0
 10
8.429914392320904
 20
6.306136729206727
 30
0.0
 10
8.421125508129522
 20
6.316497199454214
 30
0.0
 10
8.400575984120839
 20
6.332244063564961
 30
0.0
 10
8.388417022810864
 20
6.338168537848337
 30
0.0
 10
8.347666714485184
 20
6.35117609395904
 30
0.0
 10
8.316629807410125
 20
6.352041341919853
 30
0.0
 10
8.269652451408378
 20
6.340928709887205
 30
0.0
 10
8.252433190727645
 20
6.333100094617574
 30
0.0
 10
8.226479467067759
 20
6.310443759248633
 30
0.0
 10
8.217249826177829
 20
6.297142606027184
 30
0.0
 10
8.212235726814357
 20
6.276756820448986
 30
0.0
 10
8.211758041505769
 20
6.270387163706209
 30
0.0
 10
8.212121431758811
 20
6.264055371425414
 30
0.0
  0
ELLIPSE
  5
10CC
330
1F
100
AcDbEntity
  8
image
100
AcDbEllipse
 10
8.326603509833953
 20
6.00274014804217
 30
0.0
 11
0.114482078075678
 21
-0.0002265140837617
 31
0.0
210
0.0
220
0.0
230
1.0
 40
0.7199636456176376
 41
0.0
 42
3.141592653589793
  0
LWPOLYLINE
  5
10CD
330
1F
100
AcDbEntity
  8
image
100
AcDbPolyline
 90
        2
 70
     0
 43
0.0
 10
8.192061160305838
 20
6.261422219394511
 10
8.187179624936115
 20
6.480473894258397
  0
LWPOLYLINE
  5
10CE
330
1F
100
AcDbEntity
  8
image
100
AcDbPolyline
 90
        2
 70
     0
 43
0.0
 10
8.212121431758271
 20
6.26405537143477
 10
8.212121431758271
 20
6.002966662125932
  0
LWPOLYLINE
  5
10CF
330
1F
100
AcDbEntity
  8
image
100
AcDbPolyline
 90
        2
 70
     0
 43
0.0
 10
8.238658777742175
 20
6.346127510636694
 10
8.233980890151025
 20
6.556040792843488
  0
LWPOLYLINE
  5
10D0
330
1F
100
AcDbEntity
  8
image
100
AcDbPolyline
 90
        2
 70
     0
 43
0.0
 10
8.261941608085246
 20
6.358096961467344
 10
8.257263668582849
 20
6.568012573114235
  0
LWPOLYLINE
  5
10D1
330
1F
100
AcDbEntity
  8
image
100
AcDbPolyline
 90
        2
 70
     0
 43
0.0
 10
8.176612212991146
 20
6.528528054534832
 10
8.187357916284605
 20
6.471825065986698
  0
LWPOLYLINE
  5
10D2
330
1F
100
AcDbEntity
  8
image
100
AcDbPolyline
 90
        2
 70
     0
 43
0.0
 10
8.204360769797977
 20
6.311659753800753
 10
8.199683085096358
 20
6.521563931640023
  0
LWPOLYLINE
  5
10D3
330
1F
100
AcDbEntity
  8
image
100
AcDbPolyline
 90
        2
 70
     0
 43
0.0
 10
8.221460633854926
 20
6.332654713521795
 10
8.216782809425255
 20
6.542565161450515
  0
LWPOLYLINE
  5
10D5
330
1F
100
AcDbEntity
  8
image
100
AcDbPolyline
 90
        2
 70
     0
 43
0.0
 10
8.392738630288457
 20
6.357451560106953
 10
8.388060517690311
 20
6.567374939169597
  0
LWPOLYLINE
  5
10D6
330
1F
100
AcDbEntity
  8
image
100
AcDbPolyline
 90
        2
 70
     0
 43
0.0
 10
8.41302896456157
 20
6.3469449394912
 10
8.408343576284879
 20
6.55719480386032
  0
LWPOLYLINE
  5
10D7
330
1F
100
AcDbEntity
  8
image
100
AcDbPolyline
 90
        2
 70
     0
 43
0.0
 10
8.286844178179054
 20
6.365656715021938
 10
8.282166200230561
 20
6.575574051880642
  0
LWPOLYLINE
  5
10D8
330
1F
100
AcDbEntity
  8
image
100
AcDbPolyline
 90
        2
 70
     0
 43
0.0
 10
8.311764025537557
 20
6.369331283369962
 10
8.307086018109474
 20
6.579249943081607
  0
LWPOLYLINE
  5
10D9
330
1F
100
AcDbEntity
  8
image
100
AcDbPolyline
 90
        2
 70
     0
 43
0.0
 10
8.341363812300949
 20
6.3693745920969
 10
8.336685770718579
 20
6.579294784431554
  0
LWPOLYLINE
  5
10DA
330
1F
100
AcDbEntity
  8
image
100
AcDbPolyline
 90
        2
 70
     0
 43
0.0
 10
8.370968927487586
 20
6.36451598779466
 10
8.366290848167841
 20
6.574437873538372
  0
LWPOLYLINE
  5
10DB
330
1F
100
AcDbEntity
  8
image
100
AcDbPolyline
 90
        2
 70
     0
 43
0.0
 10
8.461492878592634
 20
6.268954796056537
 10
8.456608092134365
 20
6.471245648204605
  0
LWPOLYLINE
  5
10DC
330
1F
100
AcDbEntity
  8
image
100
AcDbPolyline
 90
        2
 70
     0
 43
0.0
 10
8.441085587909631
 20
6.263602343267247
 10
8.441085587909631
 20
6.002513633958408
  0
LWPOLYLINE
  5
10DD
330
1F
100
AcDbEntity
  8
image
100
AcDbPolyline
 90
        2
 70
     0
 43
0.0
 10
8.468538018592257
 20
6.537326226091626
 10
8.456608092134365
 20
6.471245648204605
  0
LWPOLYLINE
  5
10DE
330
1F
100
AcDbEntity
  8
image
100
AcDbPolyline
 90
        2
 70
     0
 43
0.0
 10
8.434776699996577
 20
6.329983620003935
 10
8.430098447818688
 20
6.539913262500983
  0
LWPOLYLINE
  5
10DF
330
1F
100
AcDbEntity
  8
image
100
AcDbPolyline
 90
        2
 70
     0
 43
0.0
 10
8.451832492122226
 20
6.306305408305636
 10
8.447154030055459
 20
6.516244469255275
  0
LWPOLYLINE
  5
10E0
330
1F
100
AcDbEntity
  8
image
100
AcDbPolyline
 90
        8
 70
     1
 43
0.0
 10
9.787673518654374
 20
7.851264036775496
 42
-0.4142135623731365
 10
9.780808221357078
 20
7.858129334072791
 10
9.780808221357078
 20
7.984401766505226
 42
-0.4142135623731179
 10
9.787673518654374
 20
7.991267063802523
 10
10.40432432946518
 20
7.991267063802522
 42
-0.4142135623730251
 10
10.41118962676248
 20
7.984401766505224
 10
10.41118962676248
 20
7.858129334072793
 42
-0.4142135623731552
 10
10.40432432946518
 20
7.851264036775496
  0
LWPOLYLINE
  5
10E1
330
1F
100
AcDbEntity
  8
image
100
AcDbPolyline
 90
        9
 70
     0
 43
0.0
 10
9.787673518654374
 20
7.845869874613332
 42
-0.4142135623730982
 10
9.775414059194917
 20
7.858129334072793
 10
9.775414059194917
 20
7.984401766505224
 42
-0.4142135623730982
 10
9.787673518654374
 20
7.996661225964683
 10
10.40432432946518
 20
7.996661225964683
 42
-0.4142135623730951
 10
10.41658378892464
 20
7.984401766505224
 10
10.41658378892464
 20
7.858129334072793
 42
-0.4142135623730951
 10
10.40432432946518
 20
7.845869874613332
 10
9.787673518654374
 20
7.845869874613332
  0
LWPOLYLINE
  5
10E2
330
1F
100
AcDbEntity
  8
image
100
AcDbPolyline
 90
        9
 70
     0
 43
0.0
 10
10.38323805919491
 20
7.866956144883602
 42
0.4142135623730982
 10
10.39549751865437
 20
7.879215604343063
 10
10.39549751865437
 20
7.963315496234954
 42
0.4142135623730951
 10
10.38323805919491
 20
7.975574955694413
 10
9.808759788924644
 20
7.975574955694415
 42
0.4142135623730982
 10
9.796500329465184
 20
7.963315496234955
 10
9.796500329465184
 20
7.879215604343063
 42
0.4142135623730951
 10
9.808759788924644
 20
7.866956144883602
 10
10.38323805919491
 20
7.866956144883602
  0
LWPOLYLINE
  5
10EE
330
1F
100
AcDbEntity
  8
image
100
AcDbPolyline
 90
        8
 70
     1
 43
0.0
 10
10.27829708622194
 20
8.053652083249856
 42
0.4142135623730208
 10
10.28603617488271
 20
8.06139117191063
 10
10.28603617488271
 20
8.135438307045765
 42
0.4142135623731363
 10
10.27829708622194
 20
8.143177395706537
 10
9.913700761897617
 20
8.143177395706537
 42
0.4142135623731528
 10
9.905961673236843
 20
8.135438307045765
 10
9.905961673236843
 20
8.061391171910628
 42
0.4142135623731363
 10
9.913700761897617
 20
8.053652083249856
  0
LWPOLYLINE
  5
10EF
330
1F
100
AcDbEntity
  8
image
100
AcDbPolyline
 90
        9
 70
     0
 43
0.0
 10
10.27829708622194
 20
8.04913171245117
 42
0.4142135623730982
 10
10.29055654568139
 20
8.06139117191063
 10
10.29055654568139
 20
8.135438307045765
 42
0.4142135623730951
 10
10.27829708622194
 20
8.147697766505224
 10
9.913700761897617
 20
8.147697766505224
 42
0.4142135623730982
 10
9.90144130243816
 20
8.135438307045765
 10
9.901441302438156
 20
8.06139117191063
 42
0.4142135623730951
 10
9.913700761897617
 20
8.04913171245117
 10
10.27829708622194
 20
8.04913171245117
  0
LWPOLYLINE
  5
1202
330
1F
100
AcDbEntity
  8
image
100
AcDbPolyline
 90
        2
 70
     0
 43
0.0
 10
8.309256917696353
 20
5.923355165429787
 10
8.277242478695169
 20
6.069725206408857
  0
LWPOLYLINE
  5
1203
330
1F
100
AcDbEntity
  8
image
100
AcDbPolyline
 90
        2
 70
     0
 43
0.0
 10
8.277242478695169
 20
6.069725206408857
 10
8.37568731405865
 20
6.069725206408857
  0
LWPOLYLINE
  5
1204
330
1F
100
AcDbEntity
  8
image
100
AcDbPolyline
 90
        2
 70
     0
 43
0.0
 10
8.37568731405865
 20
6.069725206408857
 10
8.349994614445316
 20
5.924058211824271
  0
LWPOLYLINE
  5
1205
330
1F
100
AcDbEntity
  8
image
100
AcDbPolyline
 90
        2
 70
     0
 43
0.0
 10
8.277242478695169
 20
6.069725206408857
 42
-0.2257563870900457
 10
8.37568731405865
 20
6.069725206408857
 42
-0.6343456149211649
  0
LWPOLYLINE
  5
1206
330
1F
100
AcDbEntity
  8
image
100
AcDbPolyline
 90
        2
 70
     0
 43
0.0
 10
8.309256917696353
 20
5.923355165429786
 42
0.42724453809032
 10
8.349994614445316
 20
5.924058211824274
 42
0.3913183034803467
  0
LWPOLYLINE
  5
13BB
330
1F
100
AcDbEntity
  8
image
100
AcDbPolyline
 90
        2
 70
     0
 43
0.0
 10
8.207505730414942
 20
7.000145739781252
 10
8.201878480978981
 20
7.01282066780527
  0
LWPOLYLINE
  5
13BC
330
1F
100
AcDbEntity
  8
image
100
AcDbPolyline
 90
        2
 70
     0
 43
0.0
 10
8.207505730414942
 20
7.000145739781252
 10
8.211321349329827
 20
7.001839748563467
  0
ELLIPSE
  5
13BD
330
1F
100
AcDbEntity
  8
image
100
AcDbEllipse
 10
8.203924548905989
 20
7.017177845372914
 30
0.0
 11
-0.0295558577349113
 21
0.0
 31
0.0
210
0.0
220
0.0
230
1.0
 40
0.8961758344878488
 41
0.0
 42
6.283185307179586
  0
SPLINE
  5
13BE
330
1F
100
AcDbEntity
  8
image
100
AcDbSpline
210
0.0
220
0.0
230
1.0
 70
     8
 71
     3
 72
    14
 73
    10
 74
     0
 42
0.0000000001
 43
0.0000000001
 40
6.407621562771027
 40
6.407621562771027
 40
6.407621562771027
 40
6.407621562771027
 40
6.686492347321975
 40
6.686492347321975
 40
7.005425721367412
 40
7.005425721367412
 40
7.643292469458285
 40
7.643292469458285
 40
7.658251898773696
 40
7.658251898773696
 40
7.658251898773696
 40
7.658251898773696
 10
8.44930563077178
 20
6.899009116265296
 30
0.0
 10
8.448045836320966
 20
6.941081148532977
 30
0.0
 10
8.442630608151892
 20
6.953308421879486
 30
0.0
 10
8.428041768728435
 20
6.974787656878144
 30
0.0
 10
8.418498286623462
 20
6.983946512104232
 30
0.0
 10
8.387852231615473
 20
7.005475468879153
 30
0.0
 10
8.365664212024361
 20
7.01260992541228
 30
0.0
 10
8.342530540783675
 20
7.01557313937084
 30
0.0
 10
8.342000030311675
 20
7.015638613796634
 30
0.0
 10
8.34146911980614
 20
7.015701691450623
 30
0.0
  0
LWPOLYLINE
  5
13BF
330
1F
100
AcDbEntity
  8
image
100
AcDbPolyline
 90
        2
 70
     0
 43
0.0
 10
8.301301294218857
 20
7.037599522130761
 10
8.181388615196913
 20
6.945487985040029
  0
SPLINE
  5
13C0
330
1F
100
AcDbEntity
  8
image
100
AcDbSpline
210
0.0
220
0.0
230
1.0
 70
     8
 71
     3
 72
    12
 73
     8
 74
     0
 42
0.0000000001
 43
0.0000000001
 40
6.385295529200996
 40
6.385295529200996
 40
6.385295529200996
 40
6.385295529200996
 40
6.662576090568562
 40
6.662576090568562
 40
7.081214875266605
 40
7.081214875266605
 40
7.658251898773696
 40
7.658251898773696
 40
7.658251898773696
 40
7.658251898773696
 10
8.455846590830168
 20
6.914289168214435
 30
0.0
 10
8.454784412270422
 20
6.947979530632819
 30
0.0
 10
8.44943548642553
 20
6.9612147481339
 30
0.0
 10
8.432113685034705
 20
6.988436176702479
 30
0.0
 10
8.418346397570056
 20
7.000557528564188
 30
0.0
 10
8.384065595067118
 20
7.021011536509983
 30
0.0
 10
8.363331081155715
 20
7.027233635329454
 30
0.0
 10
8.342166630371243
 20
7.029748190776238
 30
0.0
  0
LWPOLYLINE
  5
13C1
330
1F
100
AcDbEntity
  8
image
100
AcDbPolyline
 90
        2
 70
     0
 43
0.0
 10
8.301301294218857
 20
7.021800294694544
 10
8.184447364257559
 20
6.932038351323582
  0
LWPOLYLINE
  5
13C2
330
1F
100
AcDbEntity
  8
image
100
AcDbPolyline
 90
        2
 70
     0
 43
0.0
 10
8.18615288931552
 20
6.922894019295669
 10
8.16541915435779
 20
7.0212211276285
  0
SPLINE
  5
13C3
330
1F
100
AcDbEntity
  8
image
100
AcDbSpline
210
0.0
220
0.0
230
1.0
 70
     8
 71
     3
 72
    15
 73
    11
 74
     0
 42
0.0000000001
 43
0.0000000001
 40
5.714520358672894
 40
5.714520358672894
 40
5.714520358672894
 40
5.714520358672894
 40
6.163607811828782
 40
6.163607811828782
 40
6.283185307179586
 40
6.283185307179586
 40
6.283185307179586
 40
6.622830079678048
 40
6.622830079678048
 40
6.782601425007309
 40
6.782601425007309
 40
6.782601425007309
 40
6.782601425007309
 10
8.428893408551642
 20
6.871673199441487
 30
0.0
 10
8.442923950596023
 20
6.885533835486608
 30
0.0
 10
8.454660411271758
 20
6.904052640416018
 30
0.0
 10
8.46035167425755
 20
6.93281545535781
 30
0.0
 10
8.461005599641802
 20
6.939157137677966
 30
0.0
 10
8.461005599641802
 20
6.94561176234696
 30
0.0
 10
8.461005599641802
 20
6.963945308478126
 30
0.0
 10
8.455836533454275
 20
6.980910845053751
 30
0.0
 10
8.443925375147061
 20
7.00194060147674
 30
0.0
 10
8.439628607605738
 20
7.007954995145921
 30
0.0
 10
8.434974443263724
 20
7.013337336942989
 30
0.0
  0
ELLIPSE
  5
13C4
330
1F
100
AcDbEntity
  8
image
100
AcDbEllipse
 10
8.300974238133731
 20
6.861577313991353
 30
0.0
 11
-0.0091195638517281
 21
0.0
 31
0.0
210
0.0
220
0.0
230
1.0
 40
0.705880460498301
 41
0.0
 42
6.283185307179586
  0
ELLIPSE
  5
13C5
330
1F
100
AcDbEntity
  8
image
100
AcDbEllipse
 10
8.300974238133731
 20
6.844561993896483
 30
0.0
 11
-0.0091195638517281
 21
0.0
 31
0.0
210
0.0
220
0.0
230
1.0
 40
0.705880460498301
 41
3.141592653589793
 42
6.283185307179586
  0
ELLIPSE
  5
13C6
330
1F
100
AcDbEntity
  8
image
100
AcDbEllipse
 10
8.300974238133731
 20
6.827629595625057
 30
0.0
 11
-0.0091195638517281
 21
0.0
 31
0.0
210
0.0
220
0.0
230
1.0
 40
0.705880460498301
 41
0.0
 42
6.283185307179586
  0
SPLINE
  5
13C7
330
1F
100
AcDbEntity
  8
image
100
AcDbSpline
210
0.0
220
0.0
230
1.0
 70
    11
 71
     3
 72
    24
 73
    20
 74
     0
 42
0.0000000001
 43
0.0000000001
 40
0.0
 40
0.0
 40
0.0
 40
0.0
 40
0.7371794643220588
 40
0.7371794643220588
 40
1.474358928644117
 40
1.474358928644117
 40
2.211538392966176
 40
2.211538392966176
 40
2.948717857288234
 40
2.948717857288234
 40
3.685897321610293
 40
3.685897321610293
 40
4.423076785932352
 40
4.423076785932352
 40
5.16025625025441
 40
5.16025625025441
 40
5.961524540969075
 40
5.961524540969075
 40
6.283185307179586
 40
6.283185307179586
 40
6.283185307179586
 40
6.283185307179586
 10
8.379927787706959
 20
6.838264150259207
 30
0.0
 10
8.379927787706959
 20
6.8457098815288
 30
0.0
 10
8.375309900262164
 20
6.853734262942927
 30
0.0
 10
8.356037443812644
 20
6.866883269436089
 30
0.0
 10
8.341667174398581
 20
6.871456974866989
 30
0.0
 10
8.311469026169893
 20
6.873266579215972
 30
0.0
 10
8.29582506849916
 20
6.870509726998448
 30
0.0
 10
8.272204115554201
 20
6.859598618003718
 30
0.0
 10
8.264605250960061
 20
6.851644066705112
 30
0.0
 10
8.259866412671028
 20
6.836613602832437
 30
0.0
 10
8.261862857729999
 20
6.828969196081874
 30
0.0
 10
8.276094432004951
 20
6.814404763728299
 30
0.0
 10
8.288557948827465
 20
6.808243269406965
 30
0.0
 10
8.317500989044974
 20
6.80290649479805
 30
0.0
 10
8.333758551318817
 20
6.803720495349375
 30
0.0
 10
8.361935422930821
 20
6.812105997850813
 30
0.0
 10
8.372911093299274
 20
6.820240316525104
 30
0.0
 10
8.379098806321001
 20
6.831742756682249
 30
0.0
 10
8.379927787706959
 20
6.835015281101711
 30
0.0
 10
8.379927787706959
 20
6.838264150259207
 30
0.0
  0
SPLINE
  5
13C8
330
1F
100
AcDbEntity
  8
image
100
AcDbSpline
210
0.0
220
0.0
230
1.0
 70
     8
 71
     3
 72
    18
 73
    14
 74
     0
 42
0.0000000001
 43
0.0000000001
 40
5.761314362273976
 40
5.761314362273976
 40
5.761314362273976
 40
5.761314362273976
 40
6.124924146248639
 40
6.124924146248639
 40
6.796223675083463
 40
6.796223675083463
 40
7.467523203918287
 40
7.467523203918287
 40
8.767286082811175
 40
8.767286082811175
 40
9.439051546838154
 40
9.439051546838154
 40
9.998302648899073
 40
9.998302648899073
 40
9.998302648899073
 40
9.998302648899073
 10
8.383490734759105
 20
6.853705635977531
 30
0.0
 10
8.388425025084162
 20
6.859125179936172
 30
0.0
 10
8.392119788108947
 20
6.86550609912253
 30
0.0
 10
8.397062874806101
 20
6.884344968563234
 30
0.0
 10
8.392882116378261
 20
6.897862962002506
 30
0.0
 10
8.374918678193997
 20
6.91764256320944
 30
0.0
 10
8.361457844678097
 20
6.924717208654552
 30
0.0
 10
8.317026238512616
 20
6.935914783750558
 30
0.0
 10
8.281564393689491
 20
6.930572386737702
 30
0.0
 10
8.249835704035552
 20
6.905057219405511
 30
0.0
 10
8.242848967718506
 20
6.89266243572979
 30
0.0
 10
8.243367814287749
 20
6.869624098492137
 30
0.0
 10
8.248592254976367
 20
6.859449065008462
 30
0.0
 10
8.256766557579231
 20
6.851501346936144
 30
0.0
  0
SPLINE
  5
13C9
330
1F
100
AcDbEntity
  8
image
100
AcDbSpline
210
0.0
220
0.0
230
1.0
 70
     8
 71
     3
 72
    26
 73
    22
 74
     0
 42
0.0000000001
 43
0.0000000001
 40
5.516367218509882
 40
5.516367218509882
 40
5.516367218509882
 40
5.516367218509882
 40
5.716703888368447
 40
5.716703888368447
 40
6.31116511240453
 40
6.31116511240453
 40
6.905626336440614
 40
6.905626336440614
 40
7.500087560476698
 40
7.500087560476698
 40
8.094548784512781
 40
8.094548784512781
 40
8.699942138347097
 40
8.699942138347097
 40
9.305335492181413
 40
9.305335492181413
 40
9.687251378264758
 40
9.687251378264758
 40
10.0691672643481
 40
10.0691672643481
 40
10.19643963580788
 40
10.19643963580788
 40
10.19643963580788
 40
10.19643963580788
 10
8.385863726076239
 20
6.836547162695141
 30
0.0
 10
8.39309075372275
 20
6.841000459016326
 30
0.0
 10
8.398508198411695
 20
6.845132557357859
 30
0.0
 10
8.416414259252084
 20
6.862523858468373
 30
0.0
 10
8.42566759083566
 20
6.881117430451065
 30
0.0
 10
8.423781813233434
 20
6.92210862205786
 30
0.0
 10
8.412770360694137
 20
6.939902380089488
 30
0.0
 10
8.385881513631622
 20
6.963313630229441
 30
0.0
 10
8.369143925772645
 20
6.970430468914658
 30
0.0
 10
8.334758928919272
 20
6.978348182987183
 30
0.0
 10
8.316680068434846
 20
6.97886059256357
 30
0.0
 10
8.281312529020931
 20
6.973565205014925
 30
0.0
 10
8.264219006213471
 20
6.967676952334687
 30
0.0
 10
8.234465094580675
 20
6.946628177047532
 30
0.0
 10
8.221459692586991
 20
6.9305734404871
 30
0.0
 10
8.215335675448597
 20
6.898536467707131
 30
0.0
 10
8.216946315433849
 20
6.884416218127398
 30
0.0
 10
8.226821952997637
 20
6.861615454351439
 30
0.0
 10
8.234666650487588
 20
6.851955023322473
 30
0.0
 10
8.246569538467353
 20
6.842168955898515
 30
0.0
 10
8.249813750755739
 20
6.839891634960477
 30
0.0
 10
8.255280760746044
 20
6.83704977582759
 30
0.0
  0
SPLINE
  5
13CA
330
1F
100
AcDbEntity
  8
image
100
AcDbSpline
210
0.0
220
0.0
230
1.0
 70
     8
 71
     3
 72
    27
 73
    23
 74
     0
 42
0.0000000001
 43
0.0000000001
 40
5.41063896539037
 40
5.41063896539037
 40
5.41063896539037
 40
5.41063896539037
 40
5.81877703574896
 40
5.81877703574896
 40
6.283185307179586
 40
6.283185307179586
 40
6.283185307179586
 40
6.6423428623711
 40
6.6423428623711
 40
7.326823678892538
 40
7.326823678892538
 40
8.011304495413977
 40
8.011304495413977
 40
8.64088476304753
 40
8.64088476304753
 40
9.270465030681084
 40
9.270465030681084
 40
9.655812376536392
 40
9.655812376536392
 40
10.0411597223917
 40
10.0411597223917
 40
10.25995218261559
 40
10.25995218261559
 40
10.25995218261559
 40
10.25995218261559
 10
8.377135094637738
 20
6.820879163033085
 30
0.0
 10
8.396807739001429
 20
6.831254405755211
 30
0.0
 10
8.40779198374865
 20
6.839531211516869
 30
0.0
 10
8.426877169863901
 20
6.863554446883618
 30
0.0
 10
8.434135301171922
 20
6.880098811017479
 30
0.0
 10
8.434135301171922
 20
6.898700558010883
 30
0.0
 10
8.434135301171922
 20
6.913086516193456
 30
0.0
 10
8.429872485403945
 20
6.926380493680064
 30
0.0
 10
8.410097336065915
 20
6.959230819646097
 30
0.0
 10
8.390433519125148
 20
6.971418727584367
 30
0.0
 10
8.349383540999026
 20
6.986244151182737
 30
0.0
 10
8.327255408336798
 20
6.988580539642225
 30
0.0
 10
8.285758048346822
 20
6.984492974885006
 30
0.0
 10
8.266182886157215
 20
6.978847931494026
 30
0.0
 10
8.231410670552767
 20
6.957162088653361
 30
0.0
 10
8.215329276425608
 20
6.939731245879628
 30
0.0
 10
8.205765999847651
 20
6.90241377267133
 30
0.0
 10
8.206871826212273
 20
6.885944105897247
 30
0.0
 10
8.217112869020317
 20
6.859131020373588
 30
0.0
 10
8.225511119153035
 20
6.848027282388366
 30
0.0
 10
8.241107969973787
 20
6.834303581934548
 30
0.0
 10
8.247047309604644
 20
6.830121801473589
 30
0.0
 10
8.261612539636322
 20
6.823726980069594
 30
0.0
  0
SPLINE
  5
13CB
330
1F
100
AcDbEntity
  8
image
100
AcDbSpline
210
0.0
220
0.0
230
1.0
 70
     8
 71
     3
 72
    23
 73
    19
 74
     0
 42
0.0000000001
 43
0.0000000001
 40
5.681122179435263
 40
5.681122179435263
 40
5.681122179435263
 40
5.681122179435263
 40
6.283185307179586
 40
6.283185307179586
 40
6.283185307179586
 40
6.688395507325751
 40
6.688395507325751
 40
7.093605707471915
 40
7.093605707471915
 40
8.091833167379784
 40
8.091833167379784
 40
8.813031985375713
 40
8.813031985375713
 40
9.444256176763433
 40
9.444256176763433
 40
10.07548036815115
 40
10.07548036815115
 40
10.08269645580058
 40
10.08269645580058
 40
10.08269645580058
 40
10.08269645580058
 10
8.386344581359479
 20
6.843360057239977
 30
0.0
 10
8.396941722234485
 20
6.853011960344158
 30
0.0
 10
8.404353982451349
 20
6.866412957529097
 30
0.0
 10
8.404353982451349
 20
6.880911336201462
 30
0.0
 10
8.404353982451349
 20
6.890669267974554
 30
0.0
 10
8.400997522877355
 20
6.900224616960792
 30
0.0
 10
8.390116300424791
 20
6.915938417130357
 30
0.0
 10
8.382729703530733
 20
6.922280352440184
 30
0.0
 10
8.353546152180131
 20
6.9394754082867
 30
0.0
 10
8.326059070730162
 20
6.943617498639837
 30
0.0
 10
8.282328346245448
 20
6.937049986471564
 30
0.0
 10
8.2650960474151
 20
6.930232205555727
 30
0.0
 10
8.241108631034604
 20
6.909050963426239
 30
0.0
 10
8.233323184371021
 20
6.894696114229184
 30
0.0
 10
8.234278685566598
 20
6.864312761492039
 30
0.0
 10
8.242798755432636
 20
6.850548587982878
 30
0.0
 10
8.254549552625176
 20
6.84098738660949
 30
0.0
 10
8.254682792177559
 20
6.840879764099097
 30
0.0
 10
8.25481645245596
 20
6.8407725858825
 30
0.0
  0
ELLIPSE
  5
13CC
330
1F
100
AcDbEntity
  8
image
100
AcDbEllipse
 10
8.320621680749217
 20
6.841727084399219
 30
0.0
 11
0.0657757475083054
 21
0.0
 31
0.0
210
0.0
220
0.0
230
1.0
 40
0.6194532944559186
 41
0.0
 42
6.283185307179586
  0
LWPOLYLINE
  5
13CD
330
1F
100
AcDbEntity
  8
image
100
AcDbPolyline
 90
        2
 70
     0
 43
0.0
 10
8.291854674282001
 20
6.844561993896483
 10
8.291854674282001
 20
6.827629595625057
  0
SPLINE
  5
13CE
330
1F
100
AcDbEntity
  8
image
100
AcDbSpline
210
0.0
220
0.0
230
1.0
 70
     8
 71
     3
 72
    10
 73
     6
 74
     0
 42
0.0000000001
 43
0.0000000001
 40
9.512163839974105
 40
9.512163839974105
 40
9.512163839974105
 40
9.512163839974105
 40
9.738062128823859
 40
9.738062128823859
 40
9.93746208196174
 40
9.93746208196174
 40
9.93746208196174
 40
9.93746208196174
 10
8.184447364257559
 20
6.932038351323582
 30
0.0
 10
8.186033982853858
 20
6.920422841045795
 30
0.0
 10
8.189821371804994
 20
6.909096919743284
 30
0.0
 10
8.199165170069944
 20
6.891077667418221
 30
0.0
 10
8.204534083836213
 20
6.883516038708751
 30
0.0
 10
8.210513903737256
 20
6.876852783607991
 30
0.0
  0
LWPOLYLINE
  5
13CF
330
1F
100
AcDbEntity
  8
image
100
AcDbPolyline
 90
        2
 70
     0
 43
0.0
 10
8.291854674282001
 20
6.868103460171655
 10
8.291854674282001
 20
6.861577313991353
  0
SPLINE
  5
13D0
330
1F
100
AcDbEntity
  8
image
100
AcDbSpline
210
0.0
220
0.0
230
1.0
 70
     8
 71
     3
 72
    10
 73
     6
 74
     0
 42
0.0000000001
 43
0.0000000001
 40
3.592459960096891
 40
3.592459960096891
 40
3.592459960096891
 40
3.592459960096891
 40
3.685897321610293
 40
3.685897321610293
 40
4.224828030283364
 40
4.224828030283364
 40
4.224828030283364
 40
4.224828030283364
 10
8.266518071041259
 20
6.851948898880072
 30
0.0
 10
8.267257040317163
 20
6.851015242330178
 30
0.0
 10
8.268076720156608
 20
6.850086403990776
 30
0.0
 10
8.274180792228287
 20
6.843839565584024
 30
0.0
 10
8.282241114817976
 20
6.839114733529738
 30
0.0
 10
8.291854674282001
 20
6.835915855335248
 30
0.0
  0
LWPOLYLINE
  5
13D1
330
1F
100
AcDbEntity
  8
image
100
AcDbPolyline
 90
        2
 70
     0
 43
0.0
 10
8.325194510973132
 20
6.844561993896483
 10
8.325194510973132
 20
6.827629595625057
  0
LWPOLYLINE
  5
13D2
330
1F
100
AcDbEntity
  8
image
100
AcDbPolyline
 90
        2
 70
     0
 43
0.0
 10
8.343433638676588
 20
6.844561993896483
 10
8.343433638676588
 20
6.827629595625057
  0
ELLIPSE
  5
13D3
330
1F
100
AcDbEntity
  8
image
100
AcDbEllipse
 10
8.334314074824861
 20
6.827629595625057
 30
0.0
 11
-0.0091195638517281
 21
0.0
 31
0.0
210
0.0
220
0.0
230
1.0
 40
0.705880460498301
 41
0.0
 42
6.283185307179586
  0
LWPOLYLINE
  5
13D4
330
1F
100
AcDbEntity
  8
image
100
AcDbPolyline
 90
        2
 70
     0
 43
0.0
 10
8.310093801985457
 20
6.844561993896483
 10
8.310093801985457
 20
6.827629595625057
  0
LWPOLYLINE
  5
13D5
330
1F
100
AcDbEntity
  8
image
100
AcDbPolyline
 90
        2
 70
     0
 43
0.0
 10
8.310093801985457
 20
6.871942912031726
 10
8.310093801985457
 20
6.861577313991353
  0
ELLIPSE
  5
13D6
330
1F
100
AcDbEntity
  8
image
100
AcDbEllipse
 10
8.334314074824861
 20
6.861577313991353
 30
0.0
 11
-0.0091195638517281
 21
0.0
 31
0.0
210
0.0
220
0.0
230
1.0
 40
0.705880460498301
 41
0.0
 42
6.283185307179586
  0
LWPOLYLINE
  5
13D7
330
1F
100
AcDbEntity
  8
image
100
AcDbPolyline
 90
        2
 70
     0
 43
0.0
 10
8.343433638676588
 20
6.869785757522465
 10
8.343433638676588
 20
6.861577313991353
  0
LWPOLYLINE
  5
13D8
330
1F
100
AcDbEntity
  8
image
100
AcDbPolyline
 90
        2
 70
     0
 43
0.0
 10
8.325194510973132
 20
6.87243395180722
 10
8.325194510973132
 20
6.861577313991353
  0
SPLINE
  5
13D9
330
1F
100
AcDbEntity
  8
image
100
AcDbSpline
210
0.0
220
0.0
230
1.0
 70
     8
 71
     3
 72
    10
 73
     6
 74
     0
 42
0.0000000001
 43
0.0000000001
 40
5.091845130639997
 40
5.091845130639997
 40
5.091845130639997
 40
5.091845130639997
 40
5.16025625025441
 40
5.16025625025441
 40
5.833773732347998
 40
5.833773732347998
 40
5.833773732347998
 40
5.833773732347998
 10
8.343433638676588
 20
6.834179342668282
 30
0.0
 10
8.34473043728652
 20
6.834496816046326
 30
0.0
 10
8.346007130918161
 20
6.834842105640126
 30
0.0
 10
8.359595650181917
 20
6.838886080565594
 30
0.0
 10
8.369317220349779
 20
6.845218672518458
 30
0.0
 10
8.374725801519764
 20
6.852019118173195
 30
0.0
  0
ELLIPSE
  5
13DA
330
1F
100
AcDbEntity
  8
image
100
AcDbEllipse
 10
8.334314074824861
 20
6.844561993896483
 30
0.0
 11
-0.0091195638517281
 21
0.0
 31
0.0
210
0.0
220
0.0
230
1.0
 40
0.705880460498301
 41
3.141592653589793
 42
6.283185307179586
  0
SPLINE
  5
13DB
330
1F
100
AcDbEntity
  8
image
100
AcDbSpline
210
0.0
220
0.0
230
1.0
 70
     8
 71
     3
 72
     8
 73
     4
 74
     0
 42
0.0000000001
 43
0.0000000001
 40
4.541016275862308
 40
4.541016275862308
 40
4.541016275862308
 40
4.541016275862308
 40
4.786565079748215
 40
4.786565079748215
 40
4.786565079748215
 40
4.786565079748215
 10
8.310093801985457
 20
6.832036826800419
 30
0.0
 10
8.315065787551466
 20
6.831516791879278
 30
0.0
 10
8.320155310550946
 20
6.831378189561946
 30
0.0
 10
8.325194510972822
 20
6.831610734812326
 30
0.0
  0
LWPOLYLINE
  5
13DC
330
1F
100
AcDbEntity
  8
image
100
AcDbPolyline
 90
        2
 70
     0
 43
0.0
 10
8.311484781273184
 20
7.021447083402475
 10
8.301301294218857
 20
7.021800294694544
  0
LWPOLYLINE
  5
13DD
330
1F
100
AcDbEntity
  8
image
100
AcDbPolyline
 90
        2
 70
     0
 43
0.0
 10
8.342166630371272
 20
7.029748190776235
 10
8.194896967179674
 20
7.058042658240649
  0
LWPOLYLINE
  5
13DE
330
1F
100
AcDbEntity
  8
image
100
AcDbPolyline
 90
        2
 70
     0
 43
0.0
 10
8.347845021519146
 20
7.048312838634696
 10
8.199119186943546
 20
7.07660730609911
  0
LWPOLYLINE
  5
13DF
330
1F
100
AcDbEntity
  8
image
100
AcDbPolyline
 90
        2
 70
     0
 43
0.0
 10
8.20400009111165
 20
7.018330295502372
 10
8.198372841675686
 20
7.031005223526391
  0
LWPOLYLINE
  5
13E0
330
1F
100
AcDbEntity
  8
image
100
AcDbPolyline
 90
        2
 70
     0
 43
0.0
 10
8.189203552954962
 20
7.007193418369308
 10
8.201878480978981
 20
7.01282066780527
  0
LWPOLYLINE
  5
13E1
330
1F
100
AcDbEntity
  8
image
100
AcDbPolyline
 90
        2
 70
     0
 43
0.0
 10
8.187509544172746
 20
7.011009037284194
 10
8.189203552954962
 20
7.007193418369308
  0
LWPOLYLINE
  5
13E2
330
1F
100
AcDbEntity
  8
image
100
AcDbPolyline
 90
        2
 70
     0
 43
0.0
 10
8.187509544172746
 20
7.011009037284194
 10
8.200184472196765
 20
7.016636286720156
  0
LWPOLYLINE
  5
13E3
330
1F
100
AcDbEntity
  8
image
100
AcDbPolyline
 90
        2
 70
     0
 43
0.0
 10
8.200184472196765
 20
7.016636286720156
 10
8.194557222760797
 20
7.029311214744176
  0
LWPOLYLINE
  5
13E4
330
1F
100
AcDbEntity
  8
image
100
AcDbPolyline
 90
        2
 70
     0
 43
0.0
 10
8.194557222760797
 20
7.029311214744176
 10
8.198372841675686
 20
7.031005223526391
  0
LWPOLYLINE
  5
13E5
330
1F
100
AcDbEntity
  8
image
100
AcDbPolyline
 90
        2
 70
     0
 43
0.0
 10
8.205694099893866
 20
7.014514676587486
 10
8.218369027917885
 20
7.02014192602345
  0
LWPOLYLINE
  5
13E6
330
1F
100
AcDbEntity
  8
image
100
AcDbPolyline
 90
        2
 70
     0
 43
0.0
 10
8.211321349329827
 20
7.001839748563467
 10
8.205694099893866
 20
7.014514676587486
  0
LWPOLYLINE
  5
13E7
330
1F
100
AcDbEntity
  8
image
100
AcDbPolyline
 90
        2
 70
     0
 43
0.0
 10
8.20400009111165
 20
7.018330295502372
 10
8.216675019135669
 20
7.023957544938334
  0
LWPOLYLINE
  5
13E8
330
1F
100
AcDbEntity
  8
image
100
AcDbPolyline
 90
        2
 70
     0
 43
0.0
 10
8.216675019135669
 20
7.023957544938334
 10
8.218369027917885
 20
7.02014192602345
  0
LWPOLYLINE
  5
13E9
330
1F
100
AcDbEntity
  8
image
100
AcDbPolyline
 90
        2
 70
     0
 43
0.0
 10
8.164059279548096
 20
7.027620519495807
 10
8.164059279548096
 20
7.061979898741999
  0
ARC
  5
13EA
330
1F
100
AcDbEntity
  8
image
100
AcDbCircle
 10
8.191938762848854
 20
7.030200744227417
 30
0.0
 40
0.0279986276232081
100
AcDbArc
 50
83.93507558695771
 51
198.7062499360485
  0
ARC
  5
13EB
330
1F
100
AcDbEntity
  8
image
100
AcDbCircle
 10
8.190481428827032
 20
7.047980218168086
 30
0.0
 40
0.0299018566094155
100
AcDbArc
 50
73.20966572691197
 51
152.0832815564837
  0
LWPOLYLINE
  5
13EC
330
1F
100
AcDbEntity
  8
image
100
AcDbPolyline
 90
        2
 70
     0
 43
0.0
 10
8.301301294218857
 20
7.037599522130761
 10
8.301301294218857
 20
7.021800294694544
  0
SPLINE
  5
13ED
330
1F
100
AcDbEntity
  8
image
100
AcDbSpline
210
0.0
220
0.0
230
1.0
 70
     8
 71
     3
 72
    12
 73
     8
 74
     0
 42
0.0000000001
 43
0.0000000001
 40
6.957432983259075
 40
6.957432983259075
 40
6.957432983259075
 40
6.957432983259075
 40
6.981491767849389
 40
6.981491767849389
 40
7.524701599032692
 40
7.524701599032692
 40
7.658251898773696
 40
7.658251898773696
 40
7.658251898773696
 40
7.658251898773696
 10
8.434974443263788
 20
7.013337336942949
 30
0.0
 10
8.433981730748511
 20
7.014110877770458
 30
0.0
 10
8.432984228077556
 20
7.014867949354531
 30
0.0
 10
8.409369529989172
 20
7.032333380332888
 30
0.0
 10
8.386210670042745
 20
7.041036516416313
 30
0.0
 10
8.357151563870145
 20
7.04705007921019
 30
0.0
 10
8.351423211217044
 20
7.047965275400521
 30
0.0
 10
8.34571736815011
 20
7.048643188515705
 30
0.0
  0
LWPOLYLINE
  5
13EE
330
1F
100
AcDbEntity
  8
image
100
AcDbPolyline
 90
        2
 70
     0
 43
0.0
 10
8.341051161399716
 20
7.015766585719512
 10
8.311484781273184
 20
7.021447083402475
  0
LWPOLYLINE
  5
13F8
330
1F
100
AcDbEntity
  8
image
100
AcDbPolyline
 90
        2
 70
     0
 10
8.319622059375378
 20
6.742813425279184
 40
0.0882681081081081
 41
0.0
 10
8.319622059375378
 20
6.821427209062971
 40
0.0
 41
0.0
  0
LWPOLYLINE
  5
13F9
330
1F
100
AcDbEntity
  8
image
100
AcDbPolyline
 90
        2
 70
     0
 43
0.0303421621621622
 10
8.319622059375378
 20
6.668574064341091
 10
8.319622059375378
 20
6.742813425279184
  0
LEADER
  5
1412
330
1F
100
AcDbEntity
  8
TEXT_BUBBLES
100
AcDbLeader
  3
Standard
 76
     2
 10
7.766859726518221
 20
6.672818486674462
 30
0.0
 10
6.824727795989838
 20
7.252519197648784
 30
0.0
1001
ACAD
1000
DSTYLE
1002
{
1070
   147
1040
0.09
1070
    77
1070
     0
1002
}
  0
LEADER
  5
1413
330
1F
100
AcDbEntity
  8
TEXT_BUBBLES
100
AcDbLeader
  3
Standard
 76
     2
 10
8.011778527430147
 20
5.296751301619885
 30
0.0
 10
6.823834468294252
 20
5.979194911497933
 30
0.0
1001
ACAD
1000
DSTYLE
1002
{
1070
   147
1040
0.09
1070
    77
1070
     0
1002
}
  0
LEADER
  5
1415
330
1F
100
AcDbEntity
  8
TEXT_BUBBLES
100
AcDbLeader
  3
Standard
 76
     2
 10
7.756506471235047
 20
4.008603941603973
 30
0.0
 10
6.824734815496041
 20
4.631776483835499
 30
0.0
1001
ACAD
1000
DSTYLE
1002
{
1070
   147
1040
0.09
1070
    77
1070
     0
1002
}
  0
LEADER
  5
1417
330
1F
100
AcDbEntity
  8
TEXT_BUBBLES
100
AcDbLeader
  3
Standard
 76
     2
 10
10.50693600514086
 20
7.576190853304834
 30
0.0
 10
11.25830620518125
 20
7.97874157828128
 30
0.0
1001
ACAD
1000
DSTYLE
1002
{
1070
   147
1040
0.09
1070
    77
1070
     0
1002
}
  0
LWPOLYLINE
  5
150A
330
1F
100
AcDbEntity
  8
image
100
AcDbPolyline
 90
        2
 70
     0
 43
0.0
 10
9.131342332700233
 20
4.724736135369614
 10
9.021219537453768
 20
5.021470642049959
  0
LWPOLYLINE
  5
150B
330
1F
100
AcDbEntity
  8
image
100
AcDbPolyline
 90
        2
 70
     0
 43
0.0
 10
9.082134148307828
 20
4.709501360314771
 10
8.97201135306078
 20
5.006235866996733
  0
LWPOLYLINE
  5
150C
330
1F
100
AcDbEntity
  8
image
100
AcDbPolyline
 90
        2
 70
     0
 43
0.0
 10
9.082264666672417
 20
4.650957382916901
 10
8.972141871425984
 20
4.94769188959721
  0
LWPOLYLINE
  5
150D
330
1F
100
AcDbEntity
  8
image
100
AcDbPolyline
 90
        2
 70
     0
 43
0.0
 10
9.033056482280025
 20
4.635722607862016
 10
8.922933687032967
 20
4.932457114544039
  0
LWPOLYLINE
  5
150E
330
1F
100
AcDbEntity
  8
image
100
AcDbPolyline
 90
        2
 70
     0
 43
0.0
 10
8.839772713712465
 20
4.864694181934738
 10
9.033056482280025
 20
4.635722607862016
  0
LWPOLYLINE
  5
150F
330
1F
100
AcDbEntity
  8
image
100
AcDbPolyline
 90
        2
 70
     0
 43
0.0
 10
9.038994687153747
 20
4.767551735592083
 10
9.082134148307828
 20
4.709501360314771
  0
ARC
  5
1514
330
1F
100
AcDbEntity
  8
image
100
AcDbCircle
 10
9.103956529270925
 20
4.726103649739749
 30
0.0
 40
0.0274199256937484
100
AcDbArc
 50
217.2635814084613
 51
357.1413007974037
  0
ARC
  5
1515
330
1F
100
AcDbEntity
  8
image
100
AcDbCircle
 10
9.054878863243141
 20
4.65232489728702
 30
0.0
 40
0.0274199256937484
100
AcDbArc
 50
217.2635814084613
 51
357.1413007974037
  0
LWPOLYLINE
  5
1589
330
1F
100
AcDbEntity
  8
image
100
AcDbPolyline
 90
        2
 70
     0
 43
0.0
 10
8.827388746480872
 20
4.958389040275002
 10
8.967007460563385
 20
4.813696875877534
  0
LWPOLYLINE
  5
159D
330
1F
100
AcDbEntity
  8
image
100
AcDbPolyline
 90
        2
 70
     0
 43
0.0
 10
8.972945665437128
 20
4.945526003607525
 10
9.016085126591191
 20
4.887475628330236
  0
ARC
  5
159E
330
1F
100
AcDbEntity
  8
image
100
AcDbCircle
 10
8.99939715649055
 20
5.004868352625098
 30
0.0
 40
0.0274199256937484
100
AcDbArc
 50
37.26358140846144
 51
177.141300797407
  0
ARC
  5
159F
330
1F
100
AcDbEntity
  8
image
100
AcDbCircle
 10
8.950319490462737
 20
4.931089600172386
 30
0.0
 40
0.0274199256937484
100
AcDbArc
 50
37.26358140846144
 51
177.141300797407
  0
LWPOLYLINE
  5
15A2
330
1F
100
AcDbEntity
  8
image
100
AcDbPolyline
 90
        4
 70
     0
 43
0.0
 10
8.839772713712465
 20
4.864694181934738
 42
0.0621345727834747
 10
8.552014526666896
 20
5.114639701659551
 42
-0.0659249901056175
 10
8.329751235590508
 20
5.336738393255362
 42
-0.1814040147038576
 10
8.282494280778061
 20
5.557682578271056
 42
-0.7881850573104212
  0
LWPOLYLINE
  5
15A4
330
1F
100
AcDbEntity
  8
image
100
AcDbPolyline
 90
        4
 70
     0
 43
0.0
 10
8.827388746480872
 20
4.958389040275002
 42
0.0364720730338632
 10
8.58382487373719
 20
5.15514618091655
 42
-0.0663882218246445
 10
8.369723507185954
 20
5.369246017188735
 42
-0.1635975492299824
 10
8.335568430460456
 20
5.522326017516133
 42
-0.2527569854360419
  0
LWPOLYLINE
  5
15A5
330
1F
100
AcDbEntity
  8
image
100
AcDbPolyline
 90
        2
 70
     0
 43
0.0
 10
8.827388746480872
 20
4.958389040275002
 10
8.827388746480872
 20
4.958389040275002
  0
LWPOLYLINE
  5
15A6
330
1F
100
AcDbEntity
  8
image
100
AcDbPolyline
 90
        2
 70
     0
 43
0.0
 10
9.180419998728046
 20
4.798514887822363
 10
9.070297203481581
 20
5.095249394502708
  0
ARC
  5
15A7
330
1F
100
AcDbEntity
  8
image
100
AcDbCircle
 10
9.153034195298738
 20
4.799882402192498
 30
0.0
 40
0.0274199256937484
100
AcDbArc
 50
217.2635814084613
 51
357.1413007974037
  0
LWPOLYLINE
  5
15A8
330
1F
100
AcDbEntity
  8
image
100
AcDbPolyline
 90
        2
 70
     0
 43
0.0
 10
9.131211814335641
 20
4.78328011276752
 10
9.021089019088593
 20
5.080014619449482
  0
LWPOLYLINE
  5
15A9
330
1F
100
AcDbEntity
  8
image
100
AcDbPolyline
 90
        2
 70
     0
 43
0.0
 10
9.08807235318156
 20
4.841330488044832
 10
9.131211814335641
 20
4.78328011276752
  0
LWPOLYLINE
  5
15AA
330
1F
100
AcDbEntity
  8
image
100
AcDbPolyline
 90
        2
 70
     0
 43
0.0
 10
9.022023331464941
 20
5.019304756060273
 10
9.065162792619004
 20
4.961254380782984
  0
ARC
  5
15AB
330
1F
100
AcDbEntity
  8
image
100
AcDbCircle
 10
9.048474822518363
 20
5.078647105077847
 30
0.0
 40
0.0274199256937484
100
AcDbArc
 50
37.26358140846144
 51
177.141300797407
  0
LWPOLYLINE
  5
15AC
330
1F
100
AcDbEntity
  8
image
100
AcDbPolyline
 90
        2
 70
     0
 43
0.0
 10
9.229497664755859
 20
4.872293640275112
 10
9.119374869509394
 20
5.169028146955457
  0
ARC
  5
15AD
330
1F
100
AcDbEntity
  8
image
100
AcDbCircle
 10
9.202111861326551
 20
4.873661154645247
 30
0.0
 40
0.0274199256937484
100
AcDbArc
 50
217.2635814084613
 51
357.1413007974037
  0
LWPOLYLINE
  5
15AE
330
1F
100
AcDbEntity
  8
image
100
AcDbPolyline
 90
        2
 70
     0
 43
0.0
 10
9.180289480363454
 20
4.857058865220269
 10
9.070166685116406
 20
5.153793371902231
  0
LWPOLYLINE
  5
15AF
330
1F
100
AcDbEntity
  8
image
100
AcDbPolyline
 90
        2
 70
     0
 43
0.0
 10
9.137150019209373
 20
4.915109240497581
 10
9.180289480363454
 20
4.857058865220269
  0
LWPOLYLINE
  5
15B0
330
1F
100
AcDbEntity
  8
image
100
AcDbPolyline
 90
        2
 70
     0
 43
0.0
 10
9.071100997492754
 20
5.093083508513022
 10
9.114240458646817
 20
5.035033133235733
  0
ARC
  5
15B1
330
1F
100
AcDbEntity
  8
image
100
AcDbCircle
 10
9.097552488546176
 20
5.152425857530596
 30
0.0
 40
0.0274199256937484
100
AcDbArc
 50
37.26358140846144
 51
177.141300797407
  0
LWPOLYLINE
  5
15B2
330
1F
100
AcDbEntity
  8
image
100
AcDbPolyline
 90
        2
 70
     0
 43
0.0
 10
9.278575330783672
 20
4.94607239272786
 10
9.168452535537207
 20
5.242806899408206
  0
ARC
  5
15B3
330
1F
100
AcDbEntity
  8
image
100
AcDbCircle
 10
9.251189527354364
 20
4.947439907097995
 30
0.0
 40
0.0274199256937484
100
AcDbArc
 50
217.2635814084613
 51
357.1413007974037
  0
LWPOLYLINE
  5
15B4
330
1F
100
AcDbEntity
  8
image
100
AcDbPolyline
 90
        2
 70
     0
 43
0.0
 10
9.229367146391266
 20
4.930837617673017
 10
9.119244351144219
 20
5.227572124354979
  0
LWPOLYLINE
  5
15B5
330
1F
100
AcDbEntity
  8
image
100
AcDbPolyline
 90
        2
 70
     0
 43
0.0
 10
9.186227685237186
 20
4.98888799295033
 10
9.229367146391266
 20
4.930837617673017
  0
LWPOLYLINE
  5
15B6
330
1F
100
AcDbEntity
  8
image
100
AcDbPolyline
 90
        2
 70
     0
 43
0.0
 10
9.120178663520567
 20
5.166862260965771
 10
9.16331812467463
 20
5.108811885688482
  0
ARC
  5
15B7
330
1F
100
AcDbEntity
  8
image
100
AcDbCircle
 10
9.146630154573989
 20
5.226204609983345
 30
0.0
 40
0.0274199256937484
100
AcDbArc
 50
37.26358140846144
 51
177.141300797407
  0
LWPOLYLINE
  5
15B8
330
1F
100
AcDbEntity
  8
image
100
AcDbPolyline
 90
        2
 70
     0
 43
0.0
 10
9.327652996811485
 20
5.019851145180609
 10
9.21753020156502
 20
5.316585651860955
  0
ARC
  5
15B9
330
1F
100
AcDbEntity
  8
image
100
AcDbCircle
 10
9.300267193382177
 20
5.021218659550744
 30
0.0
 40
0.0274199256937484
100
AcDbArc
 50
217.2635814084613
 51
357.1413007974037
  0
LWPOLYLINE
  5
15BA
330
1F
100
AcDbEntity
  8
image
100
AcDbPolyline
 90
        2
 70
     0
 43
0.0
 10
9.278444812419079
 20
5.004616370125766
 10
9.168322017172032
 20
5.301350876807728
  0
LWPOLYLINE
  5
15BB
330
1F
100
AcDbEntity
  8
image
100
AcDbPolyline
 90
        2
 70
     0
 43
0.0
 10
9.235305351264999
 20
5.062666745403078
 10
9.278444812419079
 20
5.004616370125766
  0
LWPOLYLINE
  5
15BC
330
1F
100
AcDbEntity
  8
image
100
AcDbPolyline
 90
        2
 70
     0
 43
0.0
 10
9.16925632954838
 20
5.24064101341852
 10
9.212395790702442
 20
5.182590638141231
  0
ARC
  5
15BD
330
1F
100
AcDbEntity
  8
image
100
AcDbCircle
 10
9.195707820601802
 20
5.299983362436094
 30
0.0
 40
0.0274199256937484
100
AcDbArc
 50
37.26358140846144
 51
177.141300797407
  0
LWPOLYLINE
  5
15BE
330
1F
100
AcDbEntity
  8
image
100
AcDbPolyline
 90
        2
 70
     0
 43
0.0
 10
9.376730662839298
 20
5.093629897633303
 10
9.266607867592833
 20
5.390364404313649
  0
ARC
  5
15BF
330
1F
100
AcDbEntity
  8
image
100
AcDbCircle
 10
9.34934485940999
 20
5.094997412003438
 30
0.0
 40
0.0274199256937484
100
AcDbArc
 50
217.2635814084613
 51
357.1413007974037
  0
LWPOLYLINE
  5
15C0
330
1F
100
AcDbEntity
  8
image
100
AcDbPolyline
 90
        2
 70
     0
 43
0.0
 10
9.327522478446892
 20
5.07839512257846
 10
9.217399683199845
 20
5.375129629260422
  0
LWPOLYLINE
  5
15C1
330
1F
100
AcDbEntity
  8
image
100
AcDbPolyline
 90
        2
 70
     0
 43
0.0
 10
9.284383017292812
 20
5.136445497855772
 10
9.327522478446892
 20
5.07839512257846
  0
LWPOLYLINE
  5
15C2
330
1F
100
AcDbEntity
  8
image
100
AcDbPolyline
 90
        2
 70
     0
 43
0.0
 10
9.218333995576193
 20
5.314419765871214
 10
9.261473456730255
 20
5.256369390593925
  0
ARC
  5
15C3
330
1F
100
AcDbEntity
  8
image
100
AcDbCircle
 10
9.244785486629615
 20
5.373762114888788
 30
0.0
 40
0.0274199256937484
100
AcDbArc
 50
37.26358140846144
 51
177.141300797407
  0
LWPOLYLINE
  5
15C4
330
1F
100
AcDbEntity
  8
image
100
AcDbPolyline
 90
        2
 70
     0
 43
0.0
 10
9.425808328867111
 20
5.167408650085997
 10
9.315685533620646
 20
5.464143156766342
  0
ARC
  5
15C5
330
1F
100
AcDbEntity
  8
image
100
AcDbCircle
 10
9.398422525437803
 20
5.168776164456132
 30
0.0
 40
0.0274199256937484
100
AcDbArc
 50
217.2635814084613
 51
357.1413007974037
  0
LWPOLYLINE
  5
15C6
330
1F
100
AcDbEntity
  8
image
100
AcDbPolyline
 90
        2
 70
     0
 43
0.0
 10
9.376600144474705
 20
5.152173875031154
 10
9.266477349227658
 20
5.448908381713116
  0
LWPOLYLINE
  5
15C7
330
1F
100
AcDbEntity
  8
image
100
AcDbPolyline
 90
        2
 70
     0
 43
0.0
 10
9.333460683320625
 20
5.210224250308466
 10
9.376600144474705
 20
5.152173875031154
  0
LWPOLYLINE
  5
15C8
330
1F
100
AcDbEntity
  8
image
100
AcDbPolyline
 90
        2
 70
     0
 43
0.0
 10
9.267411661604006
 20
5.388198518323908
 10
9.310551122758068
 20
5.330148143046619
  0
ARC
  5
15C9
330
1F
100
AcDbEntity
  8
image
100
AcDbCircle
 10
9.293863152657428
 20
5.447540867341482
 30
0.0
 40
0.0274199256937484
100
AcDbArc
 50
37.26358140846144
 51
177.141300797407
  0
LWPOLYLINE
  5
15CA
330
1F
100
AcDbEntity
  8
image
100
AcDbPolyline
 90
        2
 70
     0
 43
0.0
 10
9.474885994894924
 20
5.241187402538746
 10
9.364763199648459
 20
5.537921909219091
  0
ARC
  5
15CB
330
1F
100
AcDbEntity
  8
image
100
AcDbCircle
 10
9.447500191465616
 20
5.242554916908881
 30
0.0
 40
0.0274199256937484
100
AcDbArc
 50
217.2635814084613
 51
357.1413007974037
  0
LWPOLYLINE
  5
15CC
330
1F
100
AcDbEntity
  8
image
100
AcDbPolyline
 90
        2
 70
     0
 43
0.0
 10
9.425677810502518
 20
5.225952627483903
 10
9.315555015255471
 20
5.522687134165865
  0
LWPOLYLINE
  5
15CD
330
1F
100
AcDbEntity
  8
image
100
AcDbPolyline
 90
        2
 70
     0
 43
0.0
 10
9.382538349348438
 20
5.284003002761215
 10
9.425677810502518
 20
5.225952627483903
  0
LWPOLYLINE
  5
15CE
330
1F
100
AcDbEntity
  8
image
100
AcDbPolyline
 90
        2
 70
     0
 43
0.0
 10
9.316489327631819
 20
5.461977270776657
 10
9.359628788785881
 20
5.403926895499368
  0
ARC
  5
15CF
330
1F
100
AcDbEntity
  8
image
100
AcDbCircle
 10
9.34294081868524
 20
5.521319619794231
 30
0.0
 40
0.0274199256937484
100
AcDbArc
 50
37.26358140846144
 51
177.141300797407
  0
LWPOLYLINE
  5
15D0
330
1F
100
AcDbEntity
  8
image
100
AcDbPolyline
 90
        2
 70
     0
 43
0.0
 10
9.523963660922737
 20
5.31496615499144
 10
9.413840865676272
 20
5.611700661671785
  0
ARC
  5
15D1
330
1F
100
AcDbEntity
  8
image
100
AcDbCircle
 10
9.496577857493429
 20
5.316333669361575
 30
0.0
 40
0.0274199256937484
100
AcDbArc
 50
217.2635814084613
 51
357.1413007974037
  0
LWPOLYLINE
  5
15D2
330
1F
100
AcDbEntity
  8
image
100
AcDbPolyline
 90
        2
 70
     0
 43
0.0
 10
9.474755476530331
 20
5.299731379936597
 10
9.364632681283284
 20
5.596465886618559
  0
LWPOLYLINE
  5
15D3
330
1F
100
AcDbEntity
  8
image
100
AcDbPolyline
 90
        2
 70
     0
 43
0.0
 10
9.431616015376251
 20
5.357781755213909
 10
9.474755476530331
 20
5.299731379936597
  0
LWPOLYLINE
  5
15D4
330
1F
100
AcDbEntity
  8
image
100
AcDbPolyline
 90
        2
 70
     0
 43
0.0
 10
9.365566993659632
 20
5.535756023229351
 10
9.408706454813694
 20
5.477705647952062
  0
ARC
  5
15D5
330
1F
100
AcDbEntity
  8
image
100
AcDbCircle
 10
9.392018484713053
 20
5.595098372246924
 30
0.0
 40
0.0274199256937484
100
AcDbArc
 50
37.26358140846144
 51
177.141300797407
  0
LWPOLYLINE
  5
15D6
330
1F
100
AcDbEntity
  8
image
100
AcDbPolyline
 90
        2
 70
     0
 43
0.0
 10
9.57304132695055
 20
5.388744907444134
 10
9.462918531704085
 20
5.685479414124479
  0
ARC
  5
15D7
330
1F
100
AcDbEntity
  8
image
100
AcDbCircle
 10
9.545655523521242
 20
5.390112421814269
 30
0.0
 40
0.0274199256937484
100
AcDbArc
 50
217.2635814084613
 51
357.1413007974037
  0
LWPOLYLINE
  5
15D8
330
1F
100
AcDbEntity
  8
image
100
AcDbPolyline
 90
        2
 70
     0
 43
0.0
 10
9.523833142558144
 20
5.373510132389291
 10
9.413710347311097
 20
5.670244639071253
  0
LWPOLYLINE
  5
15D9
330
1F
100
AcDbEntity
  8
image
100
AcDbPolyline
 90
        2
 70
     0
 43
0.0
 10
9.480693681404064
 20
5.431560507666603
 10
9.523833142558144
 20
5.373510132389291
  0
LWPOLYLINE
  5
15DA
330
1F
100
AcDbEntity
  8
image
100
AcDbPolyline
 90
        2
 70
     0
 43
0.0
 10
9.414644659687445
 20
5.609534775682044
 10
9.457784120841507
 20
5.551484400404755
  0
ARC
  5
15DB
330
1F
100
AcDbEntity
  8
image
100
AcDbCircle
 10
9.441096150740866
 20
5.668877124699618
 30
0.0
 40
0.0274199256937484
100
AcDbArc
 50
37.26358140846144
 51
177.141300797407
  0
LWPOLYLINE
  5
15DC
330
1F
100
AcDbEntity
  8
image
100
AcDbPolyline
 90
        2
 70
     0
 43
0.0
 10
9.622118992978363
 20
5.462523659896882
 10
9.511996197731898
 20
5.759258166577228
  0
ARC
  5
15DD
330
1F
100
AcDbEntity
  8
image
100
AcDbCircle
 10
9.594733189549055
 20
5.463891174267017
 30
0.0
 40
0.0274199256937484
100
AcDbArc
 50
217.2635814084613
 51
357.1413007974037
  0
LWPOLYLINE
  5
15DE
330
1F
100
AcDbEntity
  8
image
100
AcDbPolyline
 90
        2
 70
     0
 43
0.0
 10
9.572910808585957
 20
5.447288884842039
 10
9.46278801333891
 20
5.744023391524001
  0
LWPOLYLINE
  5
15DF
330
1F
100
AcDbEntity
  8
image
100
AcDbPolyline
 90
        2
 70
     0
 43
0.0
 10
9.529771347431877
 20
5.505339260119352
 10
9.572910808585957
 20
5.447288884842039
  0
LWPOLYLINE
  5
15E0
330
1F
100
AcDbEntity
  8
image
100
AcDbPolyline
 90
        2
 70
     0
 43
0.0
 10
9.463722325715258
 20
5.683313528134793
 10
9.50686178686932
 20
5.625263152857504
  0
ARC
  5
15E1
330
1F
100
AcDbEntity
  8
image
100
AcDbCircle
 10
9.490173816768679
 20
5.742655877152367
 30
0.0
 40
0.0274199256937484
100
AcDbArc
 50
37.26358140846144
 51
177.141300797407
  0
LWPOLYLINE
  5
15E2
330
1F
100
AcDbEntity
  8
image
100
AcDbPolyline
 90
        2
 70
     0
 43
0.0
 10
9.671196659006175
 20
5.536302412349631
 10
9.561073863759711
 20
5.833036919029977
  0
ARC
  5
15E3
330
1F
100
AcDbEntity
  8
image
100
AcDbCircle
 10
9.643810855576868
 20
5.537669926719766
 30
0.0
 40
0.0274199256937484
100
AcDbArc
 50
217.2635814084613
 51
357.1413007974037
  0
LWPOLYLINE
  5
15E4
330
1F
100
AcDbEntity
  8
image
100
AcDbPolyline
 90
        2
 70
     0
 43
0.0
 10
9.62198847461377
 20
5.521067637294788
 10
9.511865679366723
 20
5.81780214397675
  0
LWPOLYLINE
  5
15E5
330
1F
100
AcDbEntity
  8
image
100
AcDbPolyline
 90
        2
 70
     0
 43
0.0
 10
9.57884901345969
 20
5.5791180125721
 10
9.62198847461377
 20
5.521067637294788
  0
LWPOLYLINE
  5
15E6
330
1F
100
AcDbEntity
  8
image
100
AcDbPolyline
 90
        2
 70
     0
 43
0.0
 10
9.512799991743071
 20
5.757092280587542
 10
9.555939452897133
 20
5.699041905310253
  0
ARC
  5
15E7
330
1F
100
AcDbEntity
  8
image
100
AcDbCircle
 10
9.539251482796492
 20
5.816434629605116
 30
0.0
 40
0.0274199256937484
100
AcDbArc
 50
37.26358140846144
 51
177.141300797407
  0
LWPOLYLINE
  5
15E8
330
1F
100
AcDbEntity
  8
image
100
AcDbPolyline
 90
        2
 70
     0
 43
0.0
 10
9.671066140641583
 20
5.594846389747537
 10
9.560943345394536
 20
5.891580896429499
  0
LWPOLYLINE
  5
15E9
330
1F
100
AcDbEntity
  8
image
100
AcDbPolyline
 90
        2
 70
     0
 43
0.0
 10
9.720274325033988
 20
5.61008116480238
 10
9.610151529787524
 20
5.906815671482726
  0
ARC
  5
15EA
330
1F
100
AcDbEntity
  8
image
100
AcDbCircle
 10
9.588329148824305
 20
5.890213382057865
 30
0.0
 40
0.0274199256937484
100
AcDbArc
 50
37.26358140846144
 51
177.141300797407
  0
ARC
  5
15EB
330
1F
100
AcDbEntity
  8
image
100
AcDbCircle
 10
9.692888521604681
 20
5.611448679172515
 30
0.0
 40
0.0274199256937484
100
AcDbArc
 50
217.2635814084613
 51
357.1413007974037
  0
LWPOLYLINE
  5
15EC
330
1F
100
AcDbEntity
  8
image
100
AcDbPolyline
 90
        2
 70
     0
 43
0.0
 10
9.561877657770883
 20
5.830871033040291
 10
9.605017118924946
 20
5.772820657763002
  0
LWPOLYLINE
  5
15ED
330
1F
100
AcDbEntity
  8
image
100
AcDbPolyline
 90
        2
 70
     0
 43
0.0
 10
9.627926679487503
 20
5.652896765024849
 10
9.671066140641583
 20
5.594846389747537
  0
LWPOLYLINE
  5
15EE
330
1F
100
AcDbEntity
  8
image
100
AcDbPolyline
 90
        2
 70
     0
 43
0.0
 10
9.720143806669396
 20
5.668625142200341
 10
9.610021011422348
 20
5.965359648882303
  0
LWPOLYLINE
  5
15EF
330
1F
100
AcDbEntity
  8
image
100
AcDbPolyline
 90
        2
 70
     0
 43
0.0
 10
9.769351991061801
 20
5.683859917255184
 10
9.659229195815337
 20
5.98059442393553
  0
ARC
  5
15F0
330
1F
100
AcDbEntity
  8
image
100
AcDbCircle
 10
9.637406814852118
 20
5.963992134510669
 30
0.0
 40
0.0274199256937484
100
AcDbArc
 50
37.26358140846144
 51
177.141300797407
  0
ARC
  5
15F1
330
1F
100
AcDbEntity
  8
image
100
AcDbCircle
 10
9.741966187632494
 20
5.685227431625319
 30
0.0
 40
0.0274199256937484
100
AcDbArc
 50
217.2635814084613
 51
357.1413007974037
  0
LWPOLYLINE
  5
15F2
330
1F
100
AcDbEntity
  8
image
100
AcDbPolyline
 90
        2
 70
     0
 43
0.0
 10
9.610955323798696
 20
5.904649785493095
 10
9.654094784952759
 20
5.846599410215806
  0
LWPOLYLINE
  5
15F3
330
1F
100
AcDbEntity
  8
image
100
AcDbPolyline
 90
        2
 70
     0
 43
0.0
 10
9.677004345515316
 20
5.726675517477653
 10
9.720143806669396
 20
5.668625142200341
  0
LWPOLYLINE
  5
15F4
330
1F
100
AcDbEntity
  8
image
100
AcDbPolyline
 90
        2
 70
     0
 43
0.0
 10
9.769221472697209
 20
5.74240389465309
 10
9.659098677450161
 20
6.039138401335052
  0
LWPOLYLINE
  5
15F5
330
1F
100
AcDbEntity
  8
image
100
AcDbPolyline
 90
        2
 70
     0
 43
0.0
 10
9.818429657089614
 20
5.757638669707933
 10
9.70830686184315
 20
6.054373176388279
  0
ARC
  5
15F6
330
1F
100
AcDbEntity
  8
image
100
AcDbCircle
 10
9.686484480879931
 20
6.037770886963418
 30
0.0
 40
0.0274199256937484
100
AcDbArc
 50
37.26358140846144
 51
177.141300797407
  0
ARC
  5
15F7
330
1F
100
AcDbEntity
  8
image
100
AcDbCircle
 10
9.791043853660307
 20
5.759006184078068
 30
0.0
 40
0.0274199256937484
100
AcDbArc
 50
217.2635814084613
 51
357.1413007974037
  0
LWPOLYLINE
  5
15F8
330
1F
100
AcDbEntity
  8
image
100
AcDbPolyline
 90
        2
 70
     0
 43
0.0
 10
9.660032989826509
 20
5.978428537945844
 10
9.703172450980572
 20
5.920378162668555
  0
LWPOLYLINE
  5
15F9
330
1F
100
AcDbEntity
  8
image
100
AcDbPolyline
 90
        2
 70
     0
 43
0.0
 10
9.726082011543129
 20
5.800454269930402
 10
9.769221472697209
 20
5.74240389465309
  0
LWPOLYLINE
  5
15FA
330
1F
100
AcDbEntity
  8
image
100
AcDbPolyline
 90
        2
 70
     0
 43
0.0
 10
9.818299138725022
 20
5.816182647105894
 10
9.708176343477974
 20
6.112917153787856
  0
LWPOLYLINE
  5
15FB
330
1F
100
AcDbEntity
  8
image
100
AcDbPolyline
 90
        2
 70
     0
 43
0.0
 10
9.867507323117427
 20
5.831417422160737
 10
9.757384527870962
 20
6.128151928841083
  0
ARC
  5
15FC
330
1F
100
AcDbEntity
  8
image
100
AcDbCircle
 10
9.735562146907744
 20
6.111549639416222
 30
0.0
 40
0.0274199256937484
100
AcDbArc
 50
37.26358140846144
 51
177.141300797407
  0
ARC
  5
15FD
330
1F
100
AcDbEntity
  8
image
100
AcDbCircle
 10
9.840121519688119
 20
5.832784936530872
 30
0.0
 40
0.0274199256937484
100
AcDbArc
 50
217.2635814084613
 51
357.1413007974037
  0
LWPOLYLINE
  5
15FE
330
1F
100
AcDbEntity
  8
image
100
AcDbPolyline
 90
        2
 70
     0
 43
0.0
 10
9.709110655854322
 20
6.052207290398648
 10
9.752250117008385
 20
5.994156915121359
  0
LWPOLYLINE
  5
15FF
330
1F
100
AcDbEntity
  8
image
100
AcDbPolyline
 90
        2
 70
     0
 43
0.0
 10
9.775159677570941
 20
5.874233022383206
 10
9.818299138725022
 20
5.816182647105894
  0
LWPOLYLINE
  5
1600
330
1F
100
AcDbEntity
  8
image
100
AcDbPolyline
 90
        2
 70
     0
 43
0.0
 10
9.867376804752835
 20
5.889961399558643
 10
9.757254009505787
 20
6.186695906240605
  0
LWPOLYLINE
  5
1601
330
1F
100
AcDbEntity
  8
image
100
AcDbPolyline
 90
        2
 70
     0
 43
0.0
 10
9.91658498914524
 20
5.905196174613486
 10
9.806462193898775
 20
6.201930681293831
  0
ARC
  5
1602
330
1F
100
AcDbEntity
  8
image
100
AcDbCircle
 10
9.784639812935557
 20
6.185328391868971
 30
0.0
 40
0.0274199256937484
100
AcDbArc
 50
37.26358140846144
 51
177.141300797407
  0
ARC
  5
1603
330
1F
100
AcDbEntity
  8
image
100
AcDbCircle
 10
9.889199185715932
 20
5.906563688983621
 30
0.0
 40
0.0274199256937484
100
AcDbArc
 50
217.2635814084613
 51
357.1413007974037
  0
LWPOLYLINE
  5
1604
330
1F
100
AcDbEntity
  8
image
100
AcDbPolyline
 90
        2
 70
     0
 43
0.0
 10
9.758188321882135
 20
6.125986042851397
 10
9.801327783036198
 20
6.067935667574108
  0
LWPOLYLINE
  5
1605
330
1F
100
AcDbEntity
  8
image
100
AcDbPolyline
 90
        2
 70
     0
 43
0.0
 10
9.824237343598754
 20
5.948011774835955
 10
9.867376804752835
 20
5.889961399558643
  0
LWPOLYLINE
  5
160D
330
1F
100
AcDbEntity
  8
image
100
AcDbPolyline
 90
        4
 70
     0
 43
0.0
 10
10.25162426804368
 20
6.287414535731636
 42
-0.3012439571618777
 10
10.19502762446166
 20
6.188562128168221
 42
-0.0552853306927486
 10
9.987280314313389
 20
6.133994714712815
 42
-0.2170828978462457
 10
9.823576805001414
 20
6.155814019696193
 42
34.09744777265908
  0
LWPOLYLINE
  5
160E
330
1F
100
AcDbEntity
  8
image
100
AcDbPolyline
 90
        4
 70
     0
 43
0.0
 10
10.30301479512308
 20
6.290770683300064
 42
-0.3061113722891968
 10
10.21567639491049
 20
6.141329260896677
 42
-0.05495469288644
 10
9.998414881194792
 20
6.083586305911194
 42
-0.1524492367557446
 10
9.849078214216698
 20
6.087098472962971
 42
-0.1524492367557446
  0
LWPOLYLINE
  5
169F
330
1F
100
AcDbEntity
  8
image
100
AcDbPolyline
 90
        2
 70
     0
 43
0.0
 10
8.282494280778061
 20
5.557682578271056
 10
8.302988836055034
 20
5.834644654943957
  0
LWPOLYLINE
  5
16A0
330
1F
100
AcDbEntity
  8
image
100
AcDbPolyline
 90
        2
 70
     0
 43
0.0
 10
8.335568430460456
 20
5.522326017516133
 10
8.35448790191174
 20
5.834334468086588
  0
LWPOLYLINE
  5
16A5
330
1F
100
AcDbEntity
  8
image
100
AcDbPolyline
 90
        2
 70
     0
 43
0.0
 10
8.013571896236124
 20
3.98479814569736
 10
8.147641317045463
 20
3.98479814569736
  0
LWPOLYLINE
  5
16A7
330
1F
100
AcDbEntity
  8
image
100
AcDbPolyline
 90
        2
 70
     0
 43
0.0
 10
8.020547036573562
 20
3.98479814569736
 10
8.020547036573562
 20
3.867826994024918
  0
LWPOLYLINE
  5
16A8
330
1F
100
AcDbEntity
  8
image
100
AcDbPolyline
 90
        2
 70
     0
 43
0.0
 10
8.141318447810933
 20
3.98479814569736
 10
8.141318447810933
 20
3.867826994024918
  0
TEXT
  5
16B6
330
1F
100
AcDbEntity
  8
TEXT_BUBBLES
100
AcDbText
 10
0.9707193948017351
 20
8.187433448182547
 30
0.0
 40
0.125
  1
(RED WIRE)
  7
ROMANS
100
AcDbText
  0
TEXT
  5
16B7
330
1F
100
AcDbEntity
  8
TEXT_BUBBLES
100
AcDbText
 10
0.9845849012225134
 20
7.22145333129851
 30
0.0
 40
0.125
  1
(BLACK WIRE)
  7
ROMANS
100
AcDbText
  0
LWPOLYLINE
  5
16BB
330
1F
100
AcDbEntity
  8
image
100
AcDbPolyline
 90
        4
 70
     1
 43
0.0
 10
0.7743314075677468
 20
8.88817757472367
 10
5.960035977513109
 20
8.88817757472367
 10
5.960035977513109
 20
4.60690505787785
 10
0.7743314075677468
 20
4.60690505787785
  0
INSERT
  5
16D3
330
1F
100
AcDbEntity
  8
TEXT_BUBBLES
100
AcDbBlockReference
 66
     1
  2
bubble
 10
10.24803936620032
 20
5.466535852400772
 30
0.0
  0
ATTRIB
  5
16D4
330
16D3
100
AcDbEntity
  8
TEXT_BUBBLES
100
AcDbText
 10
10.19744412810509
 20
5.404035852400772
 30
0.0
 40
0.125
  1
1
  7
ROMANS
 72
     4
 11
10.24803936620032
 21
5.466535852400772
 31
0.0
100
AcDbAttribute
  2
XX
 70
     0
  0
SEQEND
  5
16D5
330
16D3
100
AcDbEntity
  8
TEXT_BUBBLES
  0
INSERT
  5
16D6
330
1F
100
AcDbEntity
  8
TEXT_BUBBLES
100
AcDbBlockReference
 66
     1
  2
bubble
 10
10.24803936620032
 20
4.634995583756674
 30
0.0
  0
ATTRIB
  5
16D7
330
16D6
100
AcDbEntity
  8
TEXT_BUBBLES
100
AcDbText
 10
10.18851555667651
 20
4.572495583756674
 30
0.0
 40
0.125
  1
2
  7
ROMANS
 72
     4
 11
10.24803936620032
 21
4.634995583756674
 31
0.0
100
AcDbAttribute
  2
XX
 70
     0
  0
SEQEND
  5
16D8
330
16D6
100
AcDbEntity
  8
TEXT_BUBBLES
  0
INSERT
  5
16D9
330
1F
100
AcDbEntity
  8
TEXT_BUBBLES
100
AcDbBlockReference
 66
     1
  2
bubble
 10
10.24803936620032
 20
3.816551913855263
 30
0.0
  0
ATTRIB
  5
16DA
330
16D9
100
AcDbEntity
  8
TEXT_BUBBLES
100
AcDbText
 10
10.18851555667651
 20
3.754051913855263
 30
0.0
 40
0.125
  1
3
  7
ROMANS
 72
     4
 11
10.24803936620032
 21
3.816551913855263
 31
0.0
100
AcDbAttribute
  2
XX
 70
     0
  0
SEQEND
  5
16DB
330
16D9
100
AcDbEntity
  8
TEXT_BUBBLES
  0
INSERT
  5
16DC
330
1F
100
AcDbEntity
  8
TEXT_BUBBLES
100
AcDbBlockReference
 66
     1
  2
bubble
 10
10.24803936620032
 20
3.38773889035629
 30
0.0
  0
ATTRIB
  5
16DD
330
16DC
100
AcDbEntity
  8
TEXT_BUBBLES
100
AcDbText
 10
10.18553936620032
 20
3.32523889035629
 30
0.0
 40
0.125
  1
4
  7
ROMANS
 72
     4
 11
10.24803936620032
 21
3.38773889035629
 31
0.0
100
AcDbAttribute
  2
XX
 70
     0
  0
SEQEND
  5
16DE
330
16DC
100
AcDbEntity
  8
TEXT_BUBBLES
  0
INSERT
  5
16DF
330
1F
100
AcDbEntity
  8
TEXT_BUBBLES
100
AcDbBlockReference
 66
     1
  2
bubble
 10
6.722899875163937
 20
7.348436134332055
 30
0.0
  0
ATTRIB
  5
16E0
330
16DF
100
AcDbEntity
  8
TEXT_BUBBLES
100
AcDbText
 10
6.663376065640128
 20
7.285936134332055
 30
0.0
 40
0.125
  1
2
  7
ROMANS
 72
     4
 11
6.722899875163937
 21
7.348436134332055
 31
0.0
100
AcDbAttribute
  2
XX
 70
     0
  0
SEQEND
  5
16E1
330
16DF
100
AcDbEntity
  8
TEXT_BUBBLES
  0
INSERT
  5
16E2
330
1F
100
AcDbEntity
  8
TEXT_BUBBLES
100
AcDbBlockReference
 66
     1
  2
bubble
 10
6.711862417366299
 20
6.063047424957082
 30
0.0
  0
ATTRIB
  5
16E3
330
16E2
100
AcDbEntity
  8
TEXT_BUBBLES
100
AcDbText
 10
6.65233860784249
 20
6.000547424957082
 30
0.0
 40
0.125
  1
3
  7
ROMANS
 72
     4
 11
6.711862417366299
 21
6.063047424957082
 31
0.0
100
AcDbAttribute
  2
XX
 70
     0
  0
SEQEND
  5
16E4
330
16E2
100
AcDbEntity
  8
TEXT_BUBBLES
  0
INSERT
  5
16E5
330
1F
100
AcDbEntity
  8
TEXT_BUBBLES
100
AcDbBlockReference
 66
     1
  2
bubble
 10
6.711636637376861
 20
4.714103795880474
 30
0.0
  0
ATTRIB
  5
16E6
330
16E5
100
AcDbEntity
  8
TEXT_BUBBLES
100
AcDbText
 10
6.649136637376861
 20
4.651603795880474
 30
0.0
 40
0.125
  1
4
  7
ROMANS
 72
     4
 11
6.711636637376861
 21
4.714103795880474
 31
0.0
100
AcDbAttribute
  2
XX
 70
     0
  0
SEQEND
  5
16E7
330
16E5
100
AcDbEntity
  8
TEXT_BUBBLES
  0
INSERT
  5
16E8
330
1F
100
AcDbEntity
  8
TEXT_BUBBLES
100
AcDbBlockReference
 66
     1
  2
bubble
 10
6.232779138902872
 20
4.060278307747984
 30
0.0
  0
ATTRIB
  5
16E9
330
16E8
100
AcDbEntity
  8
TEXT_BUBBLES
100
AcDbText
 10
6.173255329379062
 20
3.997778307747984
 30
0.0
 40
0.125
  1
5
  7
ROMANS
 72
     4
 11
6.232779138902872
 21
4.060278307747984
 31
0.0
100
AcDbAttribute
  2
XX
 70
     0
  0
SEQEND
  5
16EA
330
16E8
100
AcDbEntity
  8
TEXT_BUBBLES
  0
MTEXT
  5
16FE
330
1F
100
AcDbEntity
  8
TEXT_BUBBLES
100
AcDbMText
 10
10.49121866970256
 20
5.542946274739366
 30
0.0
 40
0.125
 41
2.6903
 71
     1
 72
     5
  1
FIELD TRANSMITTER:\P RAIN BIRD MODEL \P FT-210\P\PFIELD TRANSMITTER BOX: \P RAIN BIRD MODEL \P FTB-250TURF\P\PCONDUIT\P\PFINISH GRADE\P\PTO TWO-WIRE CONNECTION\P\PDBY WATER PROOF \P CONNECTION (1 OF 2)\P\PBLUE WIRE TO NEXT \P DEVICE
  7
ROMANS
 73
     1
 44
1.0
  0
INSERT
  5
16FF
330
1F
100
AcDbEntity
  8
TEXT_BUBBLES
100
AcDbBlockReference
 66
     1
  2
bubble
 10
10.24803936620032
 20
2.975418684204059
 30
0.0
  0
ATTRIB
  5
1700
330
16FF
100
AcDbEntity
  8
TEXT_BUBBLES
100
AcDbText
 10
10.18851555667651
 20
2.912918684204059
 30
0.0
 40
0.125
  1
5
  7
ROMANS
 72
     4
 11
10.24803936620032
 21
2.975418684204059
 31
0.0
100
AcDbAttribute
  2
XX
 70
     0
  0
SEQEND
  5
1701
330
16FF
100
AcDbEntity
  8
TEXT_BUBBLES
  0
INSERT
  5
1702
330
1F
100
AcDbEntity
  8
TEXT_BUBBLES
100
AcDbBlockReference
 66
     1
  2
bubble
 10
11.38554971427996
 20
8.032620401254934
 30
0.0
  0
ATTRIB
  5
1703
330
1702
100
AcDbEntity
  8
TEXT_BUBBLES
100
AcDbText
 10
11.33495447618472
 20
7.970120401254934
 30
0.0
 40
0.125
  1
1
  7
ROMANS
 72
     4
 11
11.38554971427996
 21
8.032620401254934
 31
0.0
100
AcDbAttribute
  2
XX
 70
     0
  0
SEQEND
  5
1704
330
1702
100
AcDbEntity
  8
TEXT_BUBBLES
  0
INSERT
  5
1832
330
1F
100
AcDbEntity
  8
image
100
AcDbBlockReference
  2
RBLOGOFILLED
 10
9.91411319183428
 20
8.06771122926214
 30
0.0
 41
0.0055319302010232
 42
0.0055319302010232
 43
0.0055319302010232
  0
LINE
  5
1857
330
1F
100
AcDbEntity
  8
image
100
AcDbLine
 10
5.975601687985877
 20
3.212388251096113
 30
0.0
 11
5.975601687985877
 21
3.176539548097697
 31
0.0
  0
LINE
  5
1858
330
1F
100
AcDbEntity
  8
image
100
AcDbLine
 10
5.968192956032867
 20
3.155030326298648
 30
0.0
 11
5.968192956032867
 21
3.165784937198171
 31
0.0
  0
LINE
  5
1859
330
1F
100
AcDbEntity
  8
image
100
AcDbLine
 10
5.968192956032867
 20
3.155030326298648
 30
0.0
 11
6.006670563917831
 21
3.155030326298648
 31
0.0
  0
LINE
  5
185A
330
1F
100
AcDbEntity
  8
image
100
AcDbLine
 10
6.006670563917831
 20
3.176539548097697
 30
0.0
 11
6.006670563917831
 21
3.155030326298648
 31
0.0
  0
LINE
  5
185B
330
1F
100
AcDbEntity
  8
image
100
AcDbLine
 10
5.887174887256458
 20
3.212388251096113
 30
0.0
 11
5.975601687985877
 21
3.212388251096113
 31
0.0
  0
LINE
  5
185C
330
1F
100
AcDbEntity
  8
image
100
AcDbLine
 10
5.887174887256458
 20
3.212388251096113
 30
0.0
 11
5.887174887256458
 21
3.176539548097697
 31
0.0
  0
LINE
  5
185D
330
1F
100
AcDbEntity
  8
image
100
AcDbLine
 10
5.896734541389365
 20
3.212388251096113
 30
0.0
 11
5.896734541389365
 21
3.176539548097697
 31
0.0
  0
LINE
  5
185E
330
1F
100
AcDbEntity
  8
image
100
AcDbLine
 10
5.903545794959059
 20
3.095282487967964
 30
0.0
 11
5.968192956032867
 21
3.155030326298648
 31
0.0
  0
LINE
  5
185F
330
1F
100
AcDbEntity
  8
image
100
AcDbLine
 10
5.660133101599841
 20
3.155030326298648
 30
0.0
 11
5.660133101599841
 21
3.176539548097697
 31
0.0
  0
LINE
  5
1860
330
1F
100
AcDbEntity
  8
image
100
AcDbLine
 10
5.779628778261217
 20
3.212388251096113
 30
0.0
 11
5.779628778261217
 21
3.176539548097697
 31
0.0
  0
LINE
  5
1861
330
1F
100
AcDbEntity
  8
image
100
AcDbLine
 10
5.770069124128307
 20
3.212388251096113
 30
0.0
 11
5.770069124128307
 21
3.176539548097697
 31
0.0
  0
LINE
  5
1862
330
1F
100
AcDbEntity
  8
image
100
AcDbLine
 10
5.698610709484809
 20
3.155030326298648
 30
0.0
 11
5.698610709484809
 21
3.165784937198171
 31
0.0
  0
LINE
  5
1863
330
1F
100
AcDbEntity
  8
image
100
AcDbLine
 10
5.700761631664706
 20
3.212388251096113
 30
0.0
 11
5.700761631664706
 21
3.176539548097697
 31
0.0
  0
LINE
  5
1864
330
1F
100
AcDbEntity
  8
image
100
AcDbLine
 10
5.763257870558609
 20
3.095282487967964
 30
0.0
 11
5.698610709484809
 21
3.155030326298648
 31
0.0
  0
LINE
  5
1865
330
1F
100
AcDbEntity
  8
image
100
AcDbLine
 10
5.700761631664706
 20
3.212388251096113
 30
0.0
 11
5.779628778261217
 21
3.212388251096113
 31
0.0
  0
LINE
  5
1866
330
1F
100
AcDbEntity
  8
image
100
AcDbLine
 10
5.660133101599841
 20
3.155030326298648
 30
0.0
 11
5.698610709484809
 21
3.155030326298648
 31
0.0
  0
LINE
  5
1867
330
1F
100
AcDbEntity
  8
image
100
AcDbLine
 10
5.763257870558609
 20
3.095282487967964
 30
0.0
 11
5.903545794959059
 21
3.095282487967964
 31
0.0
  0
LINE
  5
1868
330
1F
100
AcDbEntity
  8
image
100
AcDbLine
 10
5.660133101599841
 20
3.176539548097697
 30
0.0
 11
6.006670563917831
 21
3.176539548097697
 31
0.0
  0
LINE
  5
1869
330
1F
100
AcDbEntity
  8
image
100
AcDbLine
 10
5.660133101599841
 20
3.165784937198171
 30
0.0
 11
6.006670563917831
 21
3.165784937198171
 31
0.0
  0
LINE
  5
186A
330
1F
100
AcDbEntity
  8
image
100
AcDbLine
 10
5.903545794959059
 20
3.095282487967963
 30
0.0
 11
5.903545794959059
 21
2.673104262323322
 31
0.0
  0
LINE
  5
186B
330
1F
100
AcDbEntity
  8
image
100
AcDbLine
 10
5.763257870558609
 20
3.095282487967964
 30
0.0
 11
5.763257870558609
 21
2.67310426232331
 31
0.0
  0
ARC
  5
186C
330
1F
100
AcDbEntity
  8
image
100
AcDbCircle
 10
5.833401832758836
 20
2.673104262323322
 30
0.0
 40
0.070143962200227
100
AcDbArc
 50
180.0
 51
0.0
  0
ARC
  5
1878
330
1F
100
AcDbEntity
  8
image
100
AcDbCircle
 10
5.484050388857889
 20
2.854363944066131
 30
0.0
 40
0.070143962200227
100
AcDbArc
 50
180.0
 51
0.0
  0
LINE
  5
1879
330
1F
100
AcDbEntity
  8
image
100
AcDbLine
 10
5.413906426657662
 20
3.276542169710773
 30
0.0
 11
5.413906426657662
 21
2.854363944066118
 31
0.0
  0
LINE
  5
187A
330
1F
100
AcDbEntity
  8
image
100
AcDbLine
 10
5.554194351058113
 20
3.276542169710772
 30
0.0
 11
5.554194351058113
 21
2.854363944066131
 31
0.0
  0
LINE
  5
187B
330
1F
100
AcDbEntity
  8
image
100
AcDbLine
 10
5.310781657698894
 20
3.34704461894098
 30
0.0
 11
5.657319120016884
 21
3.34704461894098
 31
0.0
  0
LINE
  5
187C
330
1F
100
AcDbEntity
  8
image
100
AcDbLine
 10
5.310781657698894
 20
3.357799229840505
 30
0.0
 11
5.657319120016884
 21
3.357799229840505
 31
0.0
  0
LINE
  5
187D
330
1F
100
AcDbEntity
  8
image
100
AcDbLine
 10
5.413906426657662
 20
3.276542169710773
 30
0.0
 11
5.554194351058113
 21
3.276542169710773
 31
0.0
  0
LINE
  5
187E
330
1F
100
AcDbEntity
  8
image
100
AcDbLine
 10
5.310781657698894
 20
3.336290008041457
 30
0.0
 11
5.349259265583862
 21
3.336290008041457
 31
0.0
  0
LINE
  5
187F
330
1F
100
AcDbEntity
  8
image
100
AcDbLine
 10
5.351410187763759
 20
3.393647932838922
 30
0.0
 11
5.430277334360271
 21
3.393647932838922
 31
0.0
  0
LINE
  5
1880
330
1F
100
AcDbEntity
  8
image
100
AcDbLine
 10
5.413906426657662
 20
3.276542169710773
 30
0.0
 11
5.349259265583862
 21
3.336290008041457
 31
0.0
  0
LINE
  5
1881
330
1F
100
AcDbEntity
  8
image
100
AcDbLine
 10
5.351410187763759
 20
3.393647932838922
 30
0.0
 11
5.351410187763759
 21
3.357799229840505
 31
0.0
  0
LINE
  5
1882
330
1F
100
AcDbEntity
  8
image
100
AcDbLine
 10
5.349259265583862
 20
3.336290008041457
 30
0.0
 11
5.349259265583862
 21
3.34704461894098
 31
0.0
  0
LINE
  5
1883
330
1F
100
AcDbEntity
  8
image
100
AcDbLine
 10
5.42071768022736
 20
3.393647932838922
 30
0.0
 11
5.42071768022736
 21
3.357799229840505
 31
0.0
  0
LINE
  5
1884
330
1F
100
AcDbEntity
  8
image
100
AcDbLine
 10
5.430277334360271
 20
3.393647932838922
 30
0.0
 11
5.430277334360271
 21
3.357799229840505
 31
0.0
  0
LINE
  5
1885
330
1F
100
AcDbEntity
  8
image
100
AcDbLine
 10
5.310781657698894
 20
3.336290008041457
 30
0.0
 11
5.310781657698894
 21
3.357799229840505
 31
0.0
  0
LINE
  5
1886
330
1F
100
AcDbEntity
  8
image
100
AcDbLine
 10
5.554194351058113
 20
3.276542169710773
 30
0.0
 11
5.61884151213192
 21
3.336290008041457
 31
0.0
  0
LINE
  5
1887
330
1F
100
AcDbEntity
  8
image
100
AcDbLine
 10
5.547383097488419
 20
3.393647932838922
 30
0.0
 11
5.547383097488419
 21
3.357799229840505
 31
0.0
  0
LINE
  5
1888
330
1F
100
AcDbEntity
  8
image
100
AcDbLine
 10
5.537823443355511
 20
3.393647932838922
 30
0.0
 11
5.537823443355511
 21
3.357799229840505
 31
0.0
  0
LINE
  5
1889
330
1F
100
AcDbEntity
  8
image
100
AcDbLine
 10
5.537823443355511
 20
3.393647932838922
 30
0.0
 11
5.62625024408493
 21
3.393647932838922
 31
0.0
  0
LINE
  5
188A
330
1F
100
AcDbEntity
  8
image
100
AcDbLine
 10
5.657319120016884
 20
3.357799229840505
 30
0.0
 11
5.657319120016884
 21
3.336290008041457
 31
0.0
  0
LINE
  5
188B
330
1F
100
AcDbEntity
  8
image
100
AcDbLine
 10
5.61884151213192
 20
3.336290008041457
 30
0.0
 11
5.657319120016884
 21
3.336290008041457
 31
0.0
  0
LINE
  5
188C
330
1F
100
AcDbEntity
  8
image
100
AcDbLine
 10
5.61884151213192
 20
3.336290008041457
 30
0.0
 11
5.61884151213192
 21
3.34704461894098
 31
0.0
  0
LINE
  5
188D
330
1F
100
AcDbEntity
  8
image
100
AcDbLine
 10
5.62625024408493
 20
3.393647932838922
 30
0.0
 11
5.62625024408493
 21
3.357799229840505
 31
0.0
  0
LWPOLYLINE
  5
188F
330
1F
100
AcDbEntity
  8
image
 62
     1
100
AcDbPolyline
 90
        5
 70
   128
 43
0.0444
 10
8.047171165092644
 20
3.867826994024918
 10
8.047171165092644
 20
3.655132042052563
 10
8.047171165092644
 20
3.587075426325236
 42
-0.3830134373993252
 10
7.878086727322473
 20
3.38290562464652
 42
0.006159074997818
 10
5.62625024408493
 20
3.38290562464652
  0
LWPOLYLINE
  5
1892
330
1F
100
AcDbEntity
  8
image
100
AcDbPolyline
 90
        4
 70
   128
 43
0.0444
 10
5.944883590595951
 20
3.190426999373348
 10
7.88836931467201
 20
3.190426999373348
 42
0.3887466041963604
 10
8.103396080083102
 20
3.400909468885355
 10
8.103396080083102
 20
3.867826994024918
  0
LWPOLYLINE
  5
1894
330
1F
100
AcDbEntity
  8
image
100
AcDbPolyline
 90
        2
 70
   128
 43
0.0
 10
8.020547036573562
 20
3.867826994024918
 10
8.141318447810933
 20
3.867826994024918
  0
LWPOLYLINE
  5
1895
330
1F
100
AcDbEntity
  8
image
 62
     5
100
AcDbPolyline
 90
        2
 70
   128
 43
0.0444
 10
5.351410187763759
 20
3.373229765057832
 10
2.852835265212773
 20
3.373229765057832
  0
LWPOLYLINE
  5
1896
330
1F
100
AcDbEntity
  8
image
 62
     5
100
AcDbPolyline
 90
        2
 70
   128
 43
0.0444
 10
5.700761631664706
 20
3.19797549035725
 10
2.574787207916379
 20
3.19797549035725
  0
LWPOLYLINE
  5
189A
330
1F
100
AcDbEntity
  8
image
100
AcDbPolyline
 90
        2
 70
   128
 43
0.0
 10
2.594693736164556
 20
3.253057662715708
 42
0.5562754365912554
 10
2.577909996598894
 20
3.189664842596397
 42
0.2944701315363522
  0
LWPOLYLINE
  5
189B
330
1F
100
AcDbEntity
  8
image
100
AcDbPolyline
 90
        2
 70
   128
 43
0.0
 10
2.563323144706377
 20
3.125730756942866
 42
0.5562754365912554
 10
2.580106884272039
 20
3.189123577062177
 42
0.2944701315363522
  0
LWPOLYLINE
  5
189D
330
1F
100
AcDbEntity
  8
image
100
AcDbPolyline
 90
        2
 70
   128
 43
0.0
 10
2.878651932871681
 20
3.440715649434906
 42
0.5562754365912554
 10
2.861868193306019
 20
3.377322829315596
 42
0.2944701315363522
  0
LWPOLYLINE
  5
189E
330
1F
100
AcDbEntity
  8
image
100
AcDbPolyline
 90
        2
 70
   128
 43
0.0
 10
2.847281341413502
 20
3.313388743662065
 42
0.5562754365912554
 10
2.864065080979164
 20
3.376781563781376
 42
0.2944701315363522
  0
INSERT
  5
18A0
330
1F
100
AcDbEntity
  8
TEXT_BUBBLES
100
AcDbBlockReference
 66
     1
  2
bubble
 10
10.24803936620032
 20
2.546605660705086
 30
0.0
  0
ATTRIB
  5
18A1
330
18A0
100
AcDbEntity
  8
TEXT_BUBBLES
100
AcDbText
 10
10.18553936620032
 20
2.484105660705086
 30
0.0
 40
0.125
  1
6
  7
ROMANS
 72
     4
 11
10.24803936620032
 21
2.546605660705086
 31
0.0
100
AcDbAttribute
  2
XX
 70
     0
  0
SEQEND
  5
18A2
330
18A0
100
AcDbEntity
  8
TEXT_BUBBLES
  0
INSERT
  5
18A4
330
1F
100
AcDbEntity
  8
TEXT_BUBBLES
100
AcDbBlockReference
 66
     1
  2
bubble
 10
5.107316679594694
 20
4.060278307747984
 30
0.0
  0
ATTRIB
  5
18A5
330
18A4
100
AcDbEntity
  8
TEXT_BUBBLES
100
AcDbText
 10
5.044816679594694
 20
3.997778307747984
 30
0.0
 40
0.125
  1
6
  7
ROMANS
 72
     4
 11
5.107316679594694
 21
4.060278307747984
 31
0.0
100
AcDbAttribute
  2
XX
 70
     0
  0
SEQEND
  5
18A6
330
18A4
100
AcDbEntity
  8
TEXT_BUBBLES
  0
INSERT
  5
18A7
330
1F
100
AcDbEntity
  8
TEXT_BUBBLES
100
AcDbBlockReference
 66
     1
  2
bubble
 10
3.691412330396053
 20
4.060278307747984
 30
0.0
  0
ATTRIB
  5
18A8
330
18A7
100
AcDbEntity
  8
TEXT_BUBBLES
100
AcDbText
 10
3.631888520872244
 20
3.997778307747984
 30
0.0
 40
0.125
  1
7
  7
ROMANS
 72
     4
 11
3.691412330396053
 21
4.060278307747984
 31
0.0
100
AcDbAttribute
  2
XX
 70
     0
  0
SEQEND
  5
18A9
330
18A7
100
AcDbEntity
  8
TEXT_BUBBLES
  0
LEADER
  5
18AB
330
1F
100
AcDbEntity
  8
TEXT_BUBBLES
100
AcDbLeader
  3
Standard
 76
     2
 10
6.644203021449387
 20
3.389776477523896
 30
0.0
 10
6.291194951199956
 20
3.933169782950863
 30
0.0
1001
ACAD
1000
DSTYLE
1002
{
1070
   147
1040
0.09
1070
    77
1070
     0
1002
}
  0
LEADER
  5
18AC
330
1F
100
AcDbEntity
  8
TEXT_BUBBLES
100
AcDbLeader
  3
Standard
 76
     2
 10
5.476330848453669
 20
3.357799229840505
 30
0.0
 10
5.174110771210342
 20
3.937365600806558
 30
0.0
1001
ACAD
1000
DSTYLE
1002
{
1070
   147
1040
0.09
1070
    77
1070
     0
1002
}
  0
LEADER
  5
18AE
330
1F
100
AcDbEntity
  8
TEXT_BUBBLES
100
AcDbLeader
  3
Standard
 76
     2
 10
3.963612522011269
 20
3.398874039625751
 30
0.0
 10
3.762343642991739
 20
3.93970578560516
 30
0.0
1001
ACAD
1000
DSTYLE
1002
{
1070
   147
1040
0.09
1070
    77
1070
     0
1002
}
  0
INSERT
  5
18AF
330
1F
100
AcDbEntity
  8
TEXT_BUBBLES
100
AcDbBlockReference
 66
     1
  2
bubble
 10
10.24803936620032
 20
1.910322597537928
 30
0.0
  0
ATTRIB
  5
18B0
330
18AF
100
AcDbEntity
  8
TEXT_BUBBLES
100
AcDbText
 10
10.18851555667651
 20
1.847822597537928
 30
0.0
 40
0.125
  1
7
  7
ROMANS
 72
     4
 11
10.24803936620032
 21
1.910322597537928
 31
0.0
100
AcDbAttribute
  2
XX
 70
     0
  0
SEQEND
  5
18B1
330
18AF
100
AcDbEntity
  8
TEXT_BUBBLES
  0
HATCH
  5
18C1
330
1F
100
AcDbEntity
  8
image
100
AcDbHatch
 10
0.0
 20
0.0
 30
0.0
210
0.0
220
0.0
230
1.0
  2
SOLID
 70
     1
 71
     0
 91
        1
 92
        7
 72
     1
 73
     1
 93
        3
 10
3.778055681962486
 20
5.711939092089932
 42
0.2856488130105154
 10
3.7528129618864
 20
5.704532648494168
 42
0.285648813010551
 10
3.778055681962486
 20
5.697126204898406
 42
0.0
 97
        0
 75
     0
 76
     1
 47
0.0013577679466863
 98
        1
 10
3.768723239852073
 20
5.703847917101243
  0
INSERT
  5
18F9
330
1F
100
AcDbEntity
  8
0
100
AcDbBlockReference
 66
     1
  2
titleblock
 10
0.0
 20
0.0
 30
0.0
  0
ATTRIB
  5
18FB
330
18F9
100
AcDbEntity
  8
TITLE
100
AcDbText
 10
0.5055556038023421
 20
0.7842270964783673
 30
0.0
 40
0.2
  1
D
  7
L200
 72
     4
 11
0.6064423705144839
 21
0.8842270964783672
 31
0.0
100
AcDbAttribute
  2
D
 70
     0
  0
ATTRIB
  5
18FC
330
18F9
100
AcDbEntity
  8
TITLE
100
AcDbText
 10
1.231442370514484
 20
1.34371230274675
 30
0.0
 40
0.2
  1

  7
L200
100
AcDbAttribute
  2
TITLE1
 70
     0
  0
ATTRIB
  5
18FD
330
18F9
100
AcDbEntity
  8
TITLE
100
AcDbText
 10
1.231442370514484
 20
0.9842270964783674
 30
0.0
 40
0.2
  1
FIELD TRANSMITTER BOX
  7
L200
100
AcDbAttribute
  2
TITLE2
 70
     0
  0
ATTRIB
  5
18FE
330
18F9
100
AcDbEntity
  8
TITLE
100
AcDbText
 10
2.713645751168312
 20
0.5927927664583189
 30
0.0
 40
0.2
  1

  7
L200
100
AcDbAttribute
  2
TITLE3
 70
     0
  0
ATTRIB
  5
18FF
330
18F9
100
AcDbEntity
  8
TITLE
100
AcDbText
 10
2.713645751168312
 20
0.2692560808167741
 30
0.0
 40
0.2
  1

  7
L200
100
AcDbAttribute
  2
TITLE4
 70
     0
  0
ATTRIB
  5
1900
330
18F9
100
AcDbEntity
  8
TITLE
 62
     7
100
AcDbText
 10
7.689595782347332
 20
0.9696027915446398
 30
0.0
 40
0.08
  1
1-20-04
  7
L80
 72
     2
 11
8.261024353775903
 21
0.9696027915446398
 31
0.0
100
AcDbAttribute
  2
REVISED
 70
     0
  0
ATTRIB
  5
1901
330
18F9
100
AcDbEntity
  8
TITLE
 62
     7
100
AcDbText
 10
0.2639423705144838
 20
0.0847116480207214
 30
0.0
 40
0.08
  1
FTBOX.DWG
  7
L80
100
AcDbAttribute
  2
DWG-NAME
 70
     0
  0
ATTRIB
  5
1902
330
18F9
100
AcDbEntity
  8
TITLE
 62
     7
100
AcDbText
 10
1.231442370514484
 20
0.7005637793954894
 30
0.0
 40
0.1
  1
N.T.S.
  7
L100
100
AcDbAttribute
  2
SCALE
 70
     0
  0
SEQEND
  5
18FA
330
18F9
100
AcDbEntity
  8
0
  0
ENDSEC
  0
SECTION
  2
OBJECTS
  0
DICTIONARY
  5
C
330
0
100
AcDbDictionary
281
     1
  3
ACAD_GROUP
350
D
  3
ACAD_LAYOUT
350
1A
  3
ACAD_MLINESTYLE
350
17
  3
ACAD_PLOTSETTINGS
350
19
  3
ACAD_PLOTSTYLENAME
350
E
  3
AcadDim
350
18AD
  3
AcDbVariableDictionary
350
2C
  0
DICTIONARY
  5
183B
330
2
100
AcDbDictionary
280
     1
281
     1
  3
ACAD_LAYERFILTERS
360
18AA
  3
ACAD_LAYERSTATES
360
183C
  0
DICTIONARY
  5
E81
330
E80
100
AcDbDictionary
280
     1
281
     1
  3
ACAD_DIMASSOC
360
E82
  0
DICTIONARY
  5
E84
330
E83
100
AcDbDictionary
280
     1
281
     1
  3
ACAD_DIMASSOC
360
E85
  0
DICTIONARY
  5
D
102
{ACAD_REACTORS
330
C
102
}
330
C
100
AcDbDictionary
281
     1
  0
DICTIONARY
  5
1A
102
{ACAD_REACTORS
330
C
102
}
330
C
100
AcDbDictionary
281
     1
  3
Layout1
350
1E
  3
Layout2
350
26
  3
Model
350
22
  0
DICTIONARY
  5
17
102
{ACAD_REACTORS
330
C
102
}
330
C
100
AcDbDictionary
281
     1
  3
Standard
350
18
  0
DICTIONARY
  5
19
102
{ACAD_REACTORS
330
C
102
}
330
C
100
AcDbDictionary
281
     1
  0
ACDBDICTIONARYWDFLT
  5
E
102
{ACAD_REACTORS
330
C
102
}
330
C
100
AcDbDictionary
281
     1
  3
Normal
350
F
100
AcDbDictionaryWithDefault
340
F
  0
XRECORD
  5
18AD
102
{ACAD_REACTORS
330
C
102
}
330
C
100
AcDbXrecord
280
     1
 90
   990106
  3

 60
     0
 61
     0
 62
     1
 63
     3
 64
     0
 65
     0
 66
     0
 67
     3
 68
     1
 69
     0
 70
     0
 71
     0
 72
     0
 40
0.0
170
     0
  0
DICTIONARY
  5
2C
102
{ACAD_REACTORS
330
C
102
}
330
C
100
AcDbDictionary
281
     1
  3
DIMASSOC
350
2E
  3
HIDETEXT
350
2D
  3
SORTENTS
350
1871
  0
DICTIONARY
  5
18AA
102
{ACAD_REACTORS
330
183B
102
}
330
183B
100
AcDbDictionary
280
     1
281
     1
  0
DICTIONARY
  5
183C
102
{ACAD_REACTORS
330
183B
102
}
330
183B
100
AcDbDictionary
281
     1
  0
DIMASSOC
  5
E82
102
{ACAD_REACTORS
330
E81
102
}
330
E81
100
AcDbDimAssoc
330
E80
 90
        1
 70
     0
 71
     0
  1
AcDbOsnapPointRef
 72
    10
331
7AC
 73
     2
 91
        1
 40
0.223877187357153
 10
3.497546757443757
 20
7.985429858026312
 30
0.0
 75
     0
  0
DIMASSOC
  5
E85
102
{ACAD_REACTORS
330
E84
102
}
330
E84
100
AcDbDimAssoc
330
E83
 90
        1
 70
     0
 71
     0
  1
AcDbOsnapPointRef
 72
    10
331
7B5
 73
     2
 91
        1
 40
5.134780605766918
 10
3.494971799741211
 20
7.804495983305445
 30
0.0
 75
     0
  0
LAYOUT
  5
1E
102
{ACAD_REACTORS
330
1A
102
}
330
1A
100
AcDbPlotSettings
  1

  2
\\Aquaserver\HP LaserJet 4050
  4

  6

 40
0.0
 41
0.0
 42
0.0
 43
0.0
 44
0.0
 45
0.0
 46
0.0
 47
0.0
 48
0.0
 49
0.0
140
0.0
141
0.0
142
1.0
143
1.0
 70
   688
 72
     0
 73
     0
 74
     5
  7
OKIColorShaded.ctb
 75
    16
147
1.0
148
0.0
149
0.0
100
AcDbLayout
  1
Layout1
 70
     1
 71
     1
 10
0.0
 20
0.0
 11
12.0
 21
9.0
 12
0.0
 22
0.0
 32
0.0
 14
1.000000000000000E+20
 24
1.000000000000000E+20
 34
1.000000000000000E+20
 15
-1.000000000000000E+20
 25
-1.000000000000000E+20
 35
-1.000000000000000E+20
146
0.0
 13
0.0
 23
0.0
 33
0.0
 16
1.0
 26
0.0
 36
0.0
 17
0.0
 27
1.0
 37
0.0
 76
     0
330
1B
  0
LAYOUT
  5
26
102
{ACAD_REACTORS
330
1A
102
}
330
1A
100
AcDbPlotSettings
  1

  2
\\Aquaserver\HP LaserJet 4050
  4

  6

 40
0.0
 41
0.0
 42
0.0
 43
0.0
 44
0.0
 45
0.0
 46
0.0
 47
0.0
 48
0.0
 49
0.0
140
0.0
141
0.0
142
1.0
143
1.0
 70
   688
 72
     0
 73
     0
 74
     5
  7
OKIColorShaded.ctb
 75
    16
147
1.0
148
0.0
149
0.0
100
AcDbLayout
  1
Layout2
 70
     1
 71
     2
 10
0.0
 20
0.0
 11
12.0
 21
9.0
 12
0.0
 22
0.0
 32
0.0
 14
0.0
 24
0.0
 34
0.0
 15
0.0
 25
0.0
 35
0.0
146
0.0
 13
0.0
 23
0.0
 33
0.0
 16
1.0
 26
0.0
 36
0.0
 17
0.0
 27
1.0
 37
0.0
 76
     0
330
23
  0
LAYOUT
  5
22
102
{ACAD_REACTORS
330
1A
102
}
330
1A
100
AcDbPlotSettings
  1

  2
OKI DOKI Color Laser.pc3
  4
Letter
  6

 40
5.027083396911621
 41
5.027085304260253
 42
5.027084350585937
 43
5.027069091796875
 44
215.8999938964843
 45
279.3999938964843
 46
17.77999999999999
 47
0.0
 48
11.91112590165445
 49
0.5648161454372165
140
24.76124474115814
141
8.716433994078563
142
1.0
143
1.203080472029588
 70
 11956
 72
     0
 73
     1
 74
     1
  7
OKIColorShaded.ctb
 75
     0
147
0.8311995940828516
148
-303.5333805690943
149
-15.31999726402581
100
AcDbLayout
  1
Model
 70
     1
 71
     0
 10
0.0
 20
0.0
 11
12.0
 21
9.0
 12
0.0
 22
0.0
 32
0.0
 14
0.0
 24
0.0
 34
0.0
 15
0.0
 25
0.0
 35
0.0
146
0.0
 13
0.0
 23
0.0
 33
0.0
 16
1.0
 26
0.0
 36
0.0
 17
0.0
 27
1.0
 37
0.0
 76
     0
330
1F
  0
MLINESTYLE
  5
18
102
{ACAD_REACTORS
330
17
102
}
330
17
100
AcDbMlineStyle
  2
STANDARD
 70
     0
  3

 62
   256
 51
90.0
 52
90.0
 71
     2
 49
0.5
 62
   256
  6
BYLAYER
 49
-0.5
 62
   256
  6
BYLAYER
  0
ACDBPLACEHOLDER
  5
F
102
{ACAD_REACTORS
330
E
102
}
330
E
  0
DICTIONARYVAR
  5
2E
102
{ACAD_REACTORS
330
2C
102
}
330
2C
100
DictionaryVariables
280
     0
  1
1
  0
DICTIONARYVAR
  5
2D
102
{ACAD_REACTORS
330
2C
102
}
330
2C
100
DictionaryVariables
280
     0
  1
1
  0
DICTIONARYVAR
  5
1871
102
{ACAD_REACTORS
330
2C
102
}
330
2C
100
DictionaryVariables
280
     0
  1
1
  0
ENDSEC
  0
EOF
