  0
SECTION
  2
HEADER
  9
$ACADVER
  1
AC1015
  9
$ACADMAINTVER
 70
    13
  9
$DWGCODEPAGE
  3
ANSI_1252
  9
$INSBASE
 10
-0.0102040656010656
 20
-0.0099921734210461
 30
0.0
  9
$EXTMIN
 10
0.0
 20
0.0
 30
0.0
  9
$EXTMAX
 10
16.48999999999999
 20
10.44
 30
0.03
  9
$LIMMIN
 10
0.0
 20
0.0
  9
$LIMMAX
 10
12.0
 20
9.0
  9
$ORTHOMODE
 70
     1
  9
$REGENMODE
 70
     1
  9
$FILLMODE
 70
     1
  9
$QTEXTMODE
 70
     0
  9
$MIRRTEXT
 70
     0
  9
$LTSCALE
 40
1.0
  9
$ATTMODE
 70
     1
  9
$TEXTSIZE
 40
0.1
  9
$TRACEWID
 40
0.05
  9
$TEXTSTYLE
  7
ROMANS
  9
$CLAYER
  8
IMAGE
  9
$CELTYPE
  6
BYLAYER
  9
$CECOLOR
 62
   256
  9
$CELTSCALE
 40
1.0
  9
$DISPSILH
 70
     0
  9
$DIMSCALE
 40
1.0
  9
$DIMASZ
 40
0.18
  9
$DIMEXO
 40
0.0625
  9
$DIMDLI
 40
0.38
  9
$DIMRND
 40
0.0
  9
$DIMDLE
 40
0.0
  9
$DIMEXE
 40
0.18
  9
$DIMTP
 40
0.0
  9
$DIMTM
 40
0.0
  9
$DIMTXT
 40
0.18
  9
$DIMCEN
 40
0.09
  9
$DIMTSZ
 40
0.0
  9
$DIMTOL
 70
     0
  9
$DIMLIM
 70
     0
  9
$DIMTIH
 70
     1
  9
$DIMTOH
 70
     1
  9
$DIMSE1
 70
     0
  9
$DIMSE2
 70
     0
  9
$DIMTAD
 70
     0
  9
$DIMZIN
 70
     0
  9
$DIMBLK
  1

  9
$DIMASO
 70
     1
  9
$DIMSHO
 70
     1
  9
$DIMPOST
  1

  9
$DIMAPOST
  1

  9
$DIMALT
 70
     0
  9
$DIMALTD
 70
     2
  9
$DIMALTF
 40
25.4
  9
$DIMLFAC
 40
1.0
  9
$DIMTOFL
 70
     0
  9
$DIMTVP
 40
0.0
  9
$DIMTIX
 70
     0
  9
$DIMSOXD
 70
     0
  9
$DIMSAH
 70
     0
  9
$DIMBLK1
  1

  9
$DIMBLK2
  1

  9
$DIMSTYLE
  2
STANDARD
  9
$DIMCLRD
 70
     0
  9
$DIMCLRE
 70
     0
  9
$DIMCLRT
 70
     0
  9
$DIMTFAC
 40
1.0
  9
$DIMGAP
 40
0.09
  9
$DIMJUST
 70
     0
  9
$DIMSD1
 70
     0
  9
$DIMSD2
 70
     0
  9
$DIMTOLJ
 70
     1
  9
$DIMTZIN
 70
     0
  9
$DIMALTZ
 70
     0
  9
$DIMALTTZ
 70
     0
  9
$DIMUPT
 70
     0
  9
$DIMDEC
 70
     4
  9
$DIMTDEC
 70
     4
  9
$DIMALTU
 70
     2
  9
$DIMALTTD
 70
     2
  9
$DIMTXSTY
  7
STANDARD
  9
$DIMAUNIT
 70
     0
  9
$DIMADEC
 70
     0
  9
$DIMALTRND
 40
0.0
  9
$DIMAZIN
 70
     0
  9
$DIMDSEP
 70
    46
  9
$DIMATFIT
 70
     3
  9
$DIMFRAC
 70
     0
  9
$DIMLDRBLK
  1

  9
$DIMLUNIT
 70
     2
  9
$DIMLWD
 70
    -2
  9
$DIMLWE
 70
    -2
  9
$DIMTMOVE
 70
     0
  9
$LUNITS
 70
     2
  9
$LUPREC
 70
     4
  9
$SKETCHINC
 40
0.1
  9
$FILLETRAD
 40
0.0
  9
$AUNITS
 70
     0
  9
$AUPREC
 70
     0
  9
$MENU
  1
c:\acad13nt\win\SUPPORT\ACAD
  9
$ELEVATION
 40
0.0
  9
$PELEVATION
 40
0.0
  9
$THICKNESS
 40
0.0
  9
$LIMCHECK
 70
     0
  9
$CHAMFERA
 40
0.0
  9
$CHAMFERB
 40
0.0
  9
$CHAMFERC
 40
0.0
  9
$CHAMFERD
 40
0.0
  9
$SKPOLY
 70
     0
  9
$TDCREATE
 40
2449623.343430903
  9
$TDUCREATE
 40
2449623.635097569
  9
$TDUPDATE
 40
2453025.660470694
  9
$TDUUPDATE
 40
2453025.952137361
  9
$TDINDWG
 40
0.4470189583
  9
$TDUSRTIMER
 40
0.4470189583
  9
$USRTIMER
 70
     1
  9
$ANGBASE
 50
0.0
  9
$ANGDIR
 70
     0
  9
$PDMODE
 70
     0
  9
$PDSIZE
 40
0.0
  9
$PLINEWID
 40
0.0
  9
$SPLFRAME
 70
     0
  9
$SPLINETYPE
 70
     6
  9
$SPLINESEGS
 70
     8
  9
$HANDSEED
  5
D09
  9
$SURFTAB1
 70
     6
  9
$SURFTAB2
 70
     6
  9
$SURFTYPE
 70
     6
  9
$SURFU
 70
     6
  9
$SURFV
 70
     6
  9
$UCSBASE
  2

  9
$UCSNAME
  2

  9
$UCSORG
 10
0.0
 20
0.0
 30
0.0
  9
$UCSXDIR
 10
1.0
 20
0.0
 30
0.0
  9
$UCSYDIR
 10
0.0
 20
1.0
 30
0.0
  9
$UCSORTHOREF
  2

  9
$UCSORTHOVIEW
 70
     0
  9
$UCSORGTOP
 10
0.0
 20
0.0
 30
0.0
  9
$UCSORGBOTTOM
 10
0.0
 20
0.0
 30
0.0
  9
$UCSORGLEFT
 10
0.0
 20
0.0
 30
0.0
  9
$UCSORGRIGHT
 10
0.0
 20
0.0
 30
0.0
  9
$UCSORGFRONT
 10
0.0
 20
0.0
 30
0.0
  9
$UCSORGBACK
 10
0.0
 20
0.0
 30
0.0
  9
$PUCSBASE
  2

  9
$PUCSNAME
  2

  9
$PUCSORG
 10
0.0
 20
0.0
 30
0.0
  9
$PUCSXDIR
 10
1.0
 20
0.0
 30
0.0
  9
$PUCSYDIR
 10
0.0
 20
1.0
 30
0.0
  9
$PUCSORTHOREF
  2

  9
$PUCSORTHOVIEW
 70
     0
  9
$PUCSORGTOP
 10
0.0
 20
0.0
 30
0.0
  9
$PUCSORGBOTTOM
 10
0.0
 20
0.0
 30
0.0
  9
$PUCSORGLEFT
 10
0.0
 20
0.0
 30
0.0
  9
$PUCSORGRIGHT
 10
0.0
 20
0.0
 30
0.0
  9
$PUCSORGFRONT
 10
0.0
 20
0.0
 30
0.0
  9
$PUCSORGBACK
 10
0.0
 20
0.0
 30
0.0
  9
$USERI1
 70
     0
  9
$USERI2
 70
     0
  9
$USERI3
 70
     0
  9
$USERI4
 70
     0
  9
$USERI5
 70
     0
  9
$USERR1
 40
0.0
  9
$USERR2
 40
0.0
  9
$USERR3
 40
0.0
  9
$USERR4
 40
0.0
  9
$USERR5
 40
0.0
  9
$WORLDVIEW
 70
     1
  9
$SHADEDGE
 70
     3
  9
$SHADEDIF
 70
    70
  9
$TILEMODE
 70
     1
  9
$MAXACTVP
 70
    16
  9
$PINSBASE
 10
0.0
 20
0.0
 30
0.0
  9
$PLIMCHECK
 70
     0
  9
$PEXTMIN
 10
1.000000000000000E+20
 20
1.000000000000000E+20
 30
1.000000000000000E+20
  9
$PEXTMAX
 10
-1.000000000000000E+20
 20
-1.000000000000000E+20
 30
-1.000000000000000E+20
  9
$PLIMMIN
 10
0.0
 20
0.0
  9
$PLIMMAX
 10
12.0
 20
9.0
  9
$UNITMODE
 70
     0
  9
$VISRETAIN
 70
     0
  9
$PLINEGEN
 70
     1
  9
$PSLTSCALE
 70
     1
  9
$TREEDEPTH
 70
 -3020
  9
$CMLSTYLE
  2
STANDARD
  9
$CMLJUST
 70
     0
  9
$CMLSCALE
 40
1.0
  9
$PROXYGRAPHICS
 70
     1
  9
$MEASUREMENT
 70
     0
  9
$CELWEIGHT
370
    -1
  9
$ENDCAPS
280
     0
  9
$JOINSTYLE
280
     0
  9
$LWDISPLAY
290
     0
  9
$INSUNITS
 70
     0
  9
$HYPERLINKBASE
  1

  9
$STYLESHEET
  1
OKIColorShaded.ctb
  9
$XEDIT
290
     1
  9
$CEPSNTYPE
380
     0
  9
$PSTYLEMODE
290
     1
  9
$FINGERPRINTGUID
  2
{836422F3-A604-42EF-94E6-CBC462A1BF8A}
  9
$VERSIONGUID
  2
{4E73E139-F915-4E09-AE7F-90175B94E607}
  9
$EXTNAMES
290
     1
  9
$PSVPSCALE
 40
0.0
  9
$OLESTARTUP
290
     0
  0
ENDSEC
  0
SECTION
  2
CLASSES
  0
CLASS
  1
LWPOLYLINE
  2
AcDbPolyline
  3
AutoCAD 2000
 90
    32768
280
     0
281
     1
  0
CLASS
  1
ACDBDICTIONARYWDFLT
  2
AcDbDictionaryWithDefault
  3
AutoCAD 2000
 90
        0
280
     0
281
     0
  0
CLASS
  1
ACDBPLACEHOLDER
  2
AcDbPlaceHolder
  3
AutoCAD 2000
 90
        0
280
     0
281
     0
  0
CLASS
  1
LAYOUT
  2
AcDbLayout
  3
AutoCAD 2000
 90
        0
280
     0
281
     0
  0
CLASS
  1
DICTIONARYVAR
  2
AcDbDictionaryVar
  3
AutoCAD 2000
 90
        0
280
     0
281
     0
  0
ENDSEC
  0
SECTION
  2
TABLES
  0
TABLE
  2
VPORT
  5
19
330
0
100
AcDbSymbolTable
 70
     2
  0
VPORT
  5
D08
330
19
100
AcDbSymbolTableRecord
100
AcDbViewportTableRecord
  2
*Active
 70
     0
 10
0.0
 20
0.0
 11
1.0
 21
1.0
 12
8.24500003839377
 22
5.723051632871959
 13
0.0
 23
0.0
 14
0.14
 24
0.14
 15
0.14
 25
0.14
 16
0.0
 26
0.0
 36
1.0
 17
0.0
 27
0.0
 37
0.0
 40
11.55301701150099
 41
1.609655172413793
 42
50.0
 43
0.0
 44
0.0
 50
0.0
 51
0.0
 71
     0
 72
  5000
 73
     1
 74
     1
 75
     0
 76
     0
 77
     0
 78
     0
281
     0
 65
     1
110
0.0
120
0.0
130
0.0
111
1.0
121
0.0
131
0.0
112
0.0
122
1.0
132
0.0
 79
     0
146
0.0
  0
ENDTAB
  0
TABLE
  2
LTYPE
  5
14
330
0
100
AcDbSymbolTable
 70
     1
  0
LTYPE
  5
15
330
14
100
AcDbSymbolTableRecord
100
AcDbLinetypeTableRecord
  2
BYBLOCK
 70
     0
  3

 72
    65
 73
     0
 40
0.0
  0
LTYPE
  5
16
330
14
100
AcDbSymbolTableRecord
100
AcDbLinetypeTableRecord
  2
BYLAYER
 70
     0
  3

 72
    65
 73
     0
 40
0.0
  0
LTYPE
  5
8
330
14
100
AcDbSymbolTableRecord
100
AcDbLinetypeTableRecord
  2
CONTINUOUS
 70
     0
  3
Solid line
 72
    65
 73
     0
 40
0.0
  0
ENDTAB
  0
TABLE
  2
LAYER
  5
10
330
0
100
AcDbSymbolTable
 70
     3
  0
LAYER
  5
4
330
10
100
AcDbSymbolTableRecord
100
AcDbLayerTableRecord
  2
0
 70
     0
 62
     7
  6
CONTINUOUS
370
    -3
390
5
  0
LAYER
  5
22
330
10
100
AcDbSymbolTableRecord
100
AcDbLayerTableRecord
  2
IMAGE
 70
     0
 62
     7
  6
CONTINUOUS
370
    -3
390
5
  0
LAYER
  5
CD7
330
10
100
AcDbSymbolTableRecord
100
AcDbLayerTableRecord
  2
TITLE
 70
     0
 62
     4
  6
CONTINUOUS
370
    -3
390
5
  0
ENDTAB
  0
TABLE
  2
STYLE
  5
11
330
0
100
AcDbSymbolTable
 70
     6
  0
STYLE
  5
12
330
11
100
AcDbSymbolTableRecord
100
AcDbTextStyleTableRecord
  2
STANDARD
 70
     0
 40
0.0
 41
1.0
 50
0.0
 71
     0
 42
0.2
  3
txt
  4

  0
STYLE
  5
23
330
11
100
AcDbSymbolTableRecord
100
AcDbTextStyleTableRecord
  2
ROMANS
 70
     0
 40
0.0
 41
1.0
 50
0.0
 71
     0
 42
0.1
  3
ROMANS.SHX
  4

  0
STYLE
  5
3B
330
11
100
AcDbSymbolTableRecord
100
AcDbTextStyleTableRecord
  2
arial
 70
     0
 40
0.0
 41
1.0
 50
0.0
 71
     0
 42
0.15
  3
ARIAL.TTF
  4

1001
ACAD
1000
Arial
1071
       34
  0
STYLE
  5
CD8
330
11
100
AcDbSymbolTableRecord
100
AcDbTextStyleTableRecord
  2
L100
 70
     0
 40
0.1
 41
1.0
 50
0.0
 71
     0
 42
0.1
  3
romans.shx
  4

  0
STYLE
  5
CD9
330
11
100
AcDbSymbolTableRecord
100
AcDbTextStyleTableRecord
  2
L200
 70
     0
 40
0.2
 41
1.0
 50
0.0
 71
     0
 42
0.081
  3
ARIAL.TTF
  4

1001
ACAD
1000
Arial
1071
       34
  0
STYLE
  5
CDA
330
11
100
AcDbSymbolTableRecord
100
AcDbTextStyleTableRecord
  2
L80
 70
     0
 40
0.08
 41
1.0
 50
0.0
 71
     0
 42
0.08
  3
ROMANS
  4

  0
ENDTAB
  0
TABLE
  2
VIEW
  5
17
330
0
100
AcDbSymbolTable
 70
     0
  0
ENDTAB
  0
TABLE
  2
UCS
  5
18
330
0
100
AcDbSymbolTable
 70
     0
  0
ENDTAB
  0
TABLE
  2
APPID
  5
1B
330
0
100
AcDbSymbolTable
 70
     3
  0
APPID
  5
1C
330
1B
100
AcDbSymbolTableRecord
100
AcDbRegAppTableRecord
  2
ACAD
 70
     0
  0
APPID
  5
CDB
330
1B
100
AcDbSymbolTableRecord
100
AcDbRegAppTableRecord
  2
RAK
 70
     0
  0
APPID
  5
CDC
330
1B
100
AcDbSymbolTableRecord
100
AcDbRegAppTableRecord
  2
DCO15
 70
     0
  0
ENDTAB
  0
TABLE
  2
DIMSTYLE
  5
1D
330
0
100
AcDbSymbolTable
 70
     1
100
AcDbDimStyleTable
 71
     0
  0
DIMSTYLE
105
25
330
1D
100
AcDbSymbolTableRecord
100
AcDbDimStyleTableRecord
  2
STANDARD
 70
     0
340
12
  0
ENDTAB
  0
TABLE
  2
BLOCK_RECORD
  5
1
330
0
100
AcDbSymbolTable
 70
     1
  0
BLOCK_RECORD
  5
2
330
1
100
AcDbSymbolTableRecord
100
AcDbBlockTableRecord
  2
*MODEL_SPACE
340
A
  0
BLOCK_RECORD
  5
C
330
1
100
AcDbSymbolTableRecord
100
AcDbBlockTableRecord
  2
*PAPER_SPACE
340
F
  0
BLOCK_RECORD
  5
CDD
330
1
100
AcDbSymbolTableRecord
100
AcDbBlockTableRecord
  2
titleblock
340
0
102
{BLKREFS
331
CEB
102
}
  0
ENDTAB
  0
ENDSEC
  0
SECTION
  2
BLOCKS
  0
BLOCK
  5
3
330
2
100
AcDbEntity
  8
0
100
AcDbBlockBegin
  2
*MODEL_SPACE
 70
     0
 10
0.0
 20
0.0
 30
0.0
  3
*MODEL_SPACE
  1

  0
ENDBLK
  5
9
330
2
100
AcDbEntity
  8
0
100
AcDbBlockEnd
  0
BLOCK
  5
D
330
C
100
AcDbEntity
 67
     1
  8
0
100
AcDbBlockBegin
  2
*PAPER_SPACE
 70
     0
 10
0.0
 20
0.0
 30
0.0
  3
*PAPER_SPACE
  1

  0
ENDBLK
  5
E
330
C
100
AcDbEntity
 67
     1
  8
0
100
AcDbBlockEnd
  0
BLOCK
  5
CE9
330
CDD
100
AcDbEntity
  8
0
100
AcDbBlockBegin
  2
titleblock
 70
     2
 10
0.0
 20
0.0
 30
0.0
  3
titleblock
  1

  0
LWPOLYLINE
  5
CDE
330
CDD
100
AcDbEntity
  8
IMAGE
100
AcDbPolyline
 90
        4
 70
     1
 43
0.0
 10
0.0
 20
0.0
 10
16.48999999999999
 20
0.0000000000000001
 10
16.48999999999999
 20
10.44
 10
0.0
 20
10.44
  0
ATTDEF
  5
CDF
330
CDD
100
AcDbEntity
  8
TITLE
100
AcDbText
 10
0.5055556038023421
 20
0.7842270964783673
 30
0.0
 40
0.2
  1
D
  7
L200
 72
     4
 11
0.6064423705144839
 21
0.8842270964783672
 31
0.0
100
AcDbAttributeDefinition
  3
#
  2
D
 70
     0
  0
ATTDEF
  5
CE0
330
CDD
100
AcDbEntity
  8
TITLE
100
AcDbText
 10
1.231442370514484
 20
1.34371230274675
 30
0.0
 40
0.2
  1

  7
L200
100
AcDbAttributeDefinition
  3
DETAIL TITLE TOP LINE
  2
TITLE1
 70
     0
  0
ATTDEF
  5
CE1
330
CDD
100
AcDbEntity
  8
TITLE
100
AcDbText
 10
1.231442370514484
 20
0.9842270964783674
 30
0.0
 40
0.2
  1
TITLE
  7
L200
100
AcDbAttributeDefinition
  3
DETAIL TITLE TOP 2ND LINE
  2
TITLE2
 70
     0
  0
ATTDEF
  5
CE2
330
CDD
100
AcDbEntity
  8
TITLE
100
AcDbText
 10
2.713645751168312
 20
0.5927927664583189
 30
0.0
 40
0.2
  1
TITLE2
  7
L200
100
AcDbAttributeDefinition
  3
DETAIL TITLE BOTTOM 1
  2
TITLE3
 70
     0
  0
ATTDEF
  5
CE3
330
CDD
100
AcDbEntity
  8
TITLE
100
AcDbText
 10
2.713645751168312
 20
0.2692560808167741
 30
0.0
 40
0.2
  1

  7
L200
100
AcDbAttributeDefinition
  3
DETAIL TITLE BOTTOM 2
  2
TITLE4
 70
     0
  0
ATTDEF
  5
CE4
330
CDD
100
AcDbEntity
  8
TITLE
 62
     7
100
AcDbText
 10
8.177214829966379
 20
0.9696027915446398
 30
0.0
 40
0.08
  1
-
  7
L80
 72
     2
 11
8.261024353775903
 21
0.9696027915446398
 31
0.0
100
AcDbAttributeDefinition
  3
REVISION DATE
  2
REVISED
 70
     0
  0
ATTDEF
  5
CE5
330
CDD
100
AcDbEntity
  8
TITLE
 62
     7
100
AcDbText
 10
0.2639423705144838
 20
0.0847116480207214
 30
0.0
 40
0.08
  1
-
  7
L80
100
AcDbAttributeDefinition
  3
DWG-NAME
  2
DWG-NAME
 70
     0
  0
LWPOLYLINE
  5
CE6
330
CDD
100
AcDbEntity
  8
TITLE
 62
     3
100
AcDbPolyline
 90
        2
 70
     1
 43
0.03
 10
0.6064423705144839
 20
0.5417270964783675
 42
0.9999999999999998
 10
0.6064423705144839
 20
1.226727096478367
 42
0.9999999999999998
  0
ATTDEF
  5
CE7
330
CDD
100
AcDbEntity
  8
TITLE
 62
     7
100
AcDbText
 10
1.231442370514484
 20
0.7005637793954894
 30
0.0
 40
0.1
  1
N.T.S.
  7
L100
100
AcDbAttributeDefinition
  3
SCALE
  2
SCALE
 70
     0
  0
LWPOLYLINE
  5
CE8
330
CDD
100
AcDbEntity
  8
TITLE
 62
     3
100
AcDbPolyline
 90
        2
 70
     0
 43
0.04
 39
0.03
 10
0.9489423705144833
 20
0.8842270964783672
 10
8.261024353775903
 20
0.8842270964783672
  0
ENDBLK
  5
CEA
330
CDD
100
AcDbEntity
  8
0
100
AcDbBlockEnd
  0
ENDSEC
  0
SECTION
  2
ENTITIES
  0
LWPOLYLINE
  5
41B
330
2
100
AcDbEntity
  8
IMAGE
100
AcDbPolyline
 90
        2
 70
     0
 43
0.0
 10
5.857437001688261
 20
4.053068068255575
 10
5.857437001688261
 20
3.954542246171073
  0
LWPOLYLINE
  5
41C
330
2
100
AcDbEntity
  8
IMAGE
100
AcDbPolyline
 90
        2
 70
     0
 43
0.0
 10
5.820422191511153
 20
4.05306806825557
 10
5.820422191511153
 20
3.954542246171073
  0
LWPOLYLINE
  5
41D
330
2
100
AcDbEntity
  8
IMAGE
 62
     5
100
AcDbPolyline
 90
        5
 70
     0
 43
0.037
 10
5.888901647315802
 20
3.957496777806963
 10
5.888901647315802
 20
4.06693374913202
 10
5.888901647315802
 20
4.191165614782264
 42
0.081374222779636
 10
5.825000973002434
 20
4.460334645905644
 42
-0.0300668381132792
 10
5.787933451464223
 20
4.646199517617755
 42
-1.093220757323432
  0
LWPOLYLINE
  5
41E
330
2
100
AcDbEntity
  8
IMAGE
100
AcDbPolyline
 90
        3
 70
     0
 43
0.0
 10
5.820422191511153
 20
4.05306806825557
 42
-0.0983242927606133
 10
5.842525987913721
 20
4.308604165669655
 42
0.0880393955965766
 10
5.994600759129515
 20
4.9076244965911
 42
1.190049425856698
  0
LWPOLYLINE
  5
41F
330
2
100
AcDbEntity
  8
IMAGE
100
AcDbPolyline
 90
        3
 70
     0
 43
0.0
 10
5.857437001688261
 20
4.053068068255575
 42
-0.0978733617649846
 10
5.877296359632233
 20
4.295583413450034
 42
0.0872125590264546
 10
6.031062254107024
 20
4.901248325604345
 42
0.0657011673153704
  0
LWPOLYLINE
  5
420
330
2
100
AcDbEntity
  8
IMAGE
100
AcDbPolyline
 90
        4
 70
     1
 43
0.0
 10
6.3113344071832
 20
3.955234115755689
 10
6.3113344071832
 20
2.280234115755687
 10
5.4263344071832
 20
2.280234115755687
 10
5.4263344071832
 20
3.955234115755689
  0
LWPOLYLINE
  5
421
330
2
100
AcDbEntity
  8
IMAGE
100
AcDbPolyline
 90
        3
 70
     0
 43
0.0
 10
5.879567694730281
 20
4.05306806825557
 42
-0.0983242927606133
 10
5.901671491132849
 20
4.308604165669655
 42
0.0880393955965766
 10
6.053746262348643
 20
4.9076244965911
 42
1.190049425856698
  0
LWPOLYLINE
  5
422
330
2
100
AcDbEntity
  8
IMAGE
100
AcDbPolyline
 90
        3
 70
     0
 43
0.0
 10
5.916582504907389
 20
4.053068068255575
 42
-0.0978733617649846
 10
5.936441862851361
 20
4.295583413450034
 42
0.0872125590264546
 10
6.090207757326152
 20
4.901248325604345
 42
0.0657011673153704
  0
LWPOLYLINE
  5
423
330
2
100
AcDbEntity
  8
IMAGE
100
AcDbPolyline
 90
        2
 70
     0
 43
0.0
 10
5.879567694730281
 20
4.05306806825557
 10
5.879567694730281
 20
3.954542246171073
  0
LWPOLYLINE
  5
424
330
2
100
AcDbEntity
  8
IMAGE
100
AcDbPolyline
 90
        2
 70
     0
 43
0.0
 10
5.916582504907389
 20
4.053068068255575
 10
5.916582504907389
 20
3.954542246171073
  0
LWPOLYLINE
  5
425
330
2
100
AcDbEntity
  8
IMAGE
100
AcDbPolyline
 90
        2
 70
     0
 43
0.0
 10
6.3113344071832
 20
3.934355021380254
 10
5.4263344071832
 20
3.934355021380254
  0
LWPOLYLINE
  5
426
330
2
100
AcDbEntity
  8
IMAGE
 62
     5
100
AcDbPolyline
 90
        5
 70
     0
 43
0.037
 10
5.838748246605658
 20
3.957496777806963
 10
5.838748246605658
 20
4.06693374913202
 10
5.838748246605658
 20
4.191165614782264
 42
0.081374222779636
 10
5.77484757229229
 20
4.460334645905644
 42
-0.0655100906327898
 10
5.737780050754079
 20
4.646199517617755
 42
-1.093220757323432
  0
LINE
  5
427
330
2
100
AcDbEntity
  8
IMAGE
100
AcDbLine
 10
9.710415381076442
 20
6.136234372239601
 30
0.0
 11
10.04921121356357
 21
6.136234372239601
 31
0.0
  0
LINE
  5
428
330
2
100
AcDbEntity
  8
IMAGE
100
AcDbLine
 10
9.497661075081031
 20
5.743183822522015
 30
0.0
 11
10.08996148152705
 21
5.743183822522015
 31
0.0
  0
LINE
  5
429
330
2
100
AcDbEntity
  8
IMAGE
100
AcDbLine
 10
9.497661075081031
 20
5.885335920069063
 30
0.0
 11
10.08996148152705
 21
5.885335920069063
 31
0.0
  0
LINE
  5
42A
330
2
100
AcDbEntity
  8
IMAGE
100
AcDbLine
 10
9.759842978025956
 20
5.64818548832726
 30
0.0
 11
10.73905297862425
 21
5.64818548832726
 31
0.0
  0
LINE
  5
42B
330
2
100
AcDbEntity
  8
IMAGE
100
AcDbLine
 10
9.497661075081031
 20
5.885335920069063
 30
0.0
 11
9.497661075081031
 21
5.743183822522015
 31
0.0
  0
LINE
  5
42C
330
2
100
AcDbEntity
  8
IMAGE
100
AcDbLine
 10
9.545045107596711
 20
5.885335920069063
 30
0.0
 11
9.545045107596711
 21
5.743183822522015
 31
0.0
  0
LINE
  5
42D
330
2
100
AcDbEntity
  8
IMAGE
100
AcDbLine
 10
9.622281080597273
 20
5.592028758796995
 30
0.0
 11
9.622281080597273
 21
5.885335920069063
 31
0.0
  0
LINE
  5
42E
330
2
100
AcDbEntity
  8
IMAGE
100
AcDbLine
 10
9.669665113112957
 20
5.592028758796995
 30
0.0
 11
9.669665113112957
 21
5.885335920069063
 31
0.0
  0
LINE
  5
42F
330
2
100
AcDbEntity
  8
IMAGE
100
AcDbLine
 10
9.702229061057392
 20
5.487260625535927
 30
0.0
 11
9.702229061057392
 21
5.743183822522015
 31
0.0
  0
LINE
  5
430
330
2
100
AcDbEntity
  8
IMAGE
100
AcDbLine
 10
9.759842978025956
 20
5.64818548832726
 30
0.0
 11
9.759842978025956
 21
5.518855865606741
 31
0.0
  0
LINE
  5
431
330
2
100
AcDbEntity
  8
IMAGE
100
AcDbLine
 10
9.779122228224183
 20
6.136234372239601
 30
0.0
 11
9.779122228224183
 21
5.885335920069063
 31
0.0
  0
LINE
  5
432
330
2
100
AcDbEntity
  8
IMAGE
100
AcDbLine
 10
9.710415381076442
 20
5.885335920069063
 30
0.0
 11
9.710415381076442
 21
6.136234372239601
 31
0.0
  0
LINE
  5
433
330
2
100
AcDbEntity
  8
IMAGE
100
AcDbLine
 10
9.72581519164404
 20
6.136234372239601
 30
0.0
 11
9.72581519164404
 21
5.885335920069063
 31
0.0
  0
LINE
  5
434
330
2
100
AcDbEntity
  8
IMAGE
100
AcDbLine
 10
9.886705799630993
 20
5.885335920069063
 30
0.0
 11
9.886705799630993
 21
5.743183822522015
 31
0.0
  0
LINE
  5
435
330
2
100
AcDbEntity
  8
IMAGE
100
AcDbLine
 10
9.87292079500902
 20
5.885335920069063
 30
0.0
 11
9.87292079500902
 21
5.743183822522015
 31
0.0
  0
ARC
  5
436
330
2
100
AcDbEntity
  8
IMAGE
100
AcDbCircle
 10
9.935361751718103
 20
5.528093695801056
 30
0.0
 40
0.1521972825592481
100
AcDbArc
 50
79.50852298766861
 51
123.1113419603719
  0
LINE
  5
437
330
2
100
AcDbEntity
  8
IMAGE
100
AcDbLine
 10
9.852221279969183
 20
5.655575752482728
 30
0.0
 11
9.852221279969183
 21
5.64818548832726
 31
0.0
  0
LINE
  5
438
330
2
100
AcDbEntity
  8
IMAGE
100
AcDbLine
 10
10.07392920463295
 20
5.64818548832726
 30
0.0
 11
9.852221279969183
 21
5.64818548832726
 31
0.0
  0
LINE
  5
439
330
2
100
AcDbEntity
  8
IMAGE
100
AcDbLine
 10
9.907648261135134
 20
5.714697865726402
 30
0.0
 11
9.907648261135134
 21
5.677746544949111
 31
0.0
  0
LINE
  5
43A
330
2
100
AcDbEntity
  8
IMAGE
100
AcDbLine
 10
10.01850222346701
 20
5.714697865726402
 30
0.0
 11
9.907648261135134
 21
5.714697865726402
 31
0.0
  0
LINE
  5
43B
330
2
100
AcDbEntity
  8
IMAGE
100
AcDbLine
 10
9.850198276997707
 20
6.136234372239601
 30
0.0
 11
9.850198276997707
 21
5.885335920069063
 31
0.0
  0
LINE
  5
43C
330
2
100
AcDbEntity
  8
IMAGE
100
AcDbLine
 10
9.909428317642307
 20
6.136234372239601
 30
0.0
 11
9.909428317642307
 21
5.885335920069063
 31
0.0
  0
ARC
  5
43D
330
2
100
AcDbEntity
  8
IMAGE
100
AcDbCircle
 10
9.924608247579
 20
5.833202356233253
 30
0.0
 40
0.9498126021764614
100
AcDbArc
 50
262.3355331415187
 51
277.664466858481
  0
LINE
  5
43E
330
2
100
AcDbEntity
  8
IMAGE
100
AcDbLine
 10
9.797930238859398
 20
5.093915676667857
 30
0.0
 11
9.8779302388594
 21
5.093915676667857
 31
0.0
  0
LINE
  5
43F
330
2
100
AcDbEntity
  8
IMAGE
100
AcDbLine
 10
9.778318638414601
 20
5.426477563663506
 30
0.0
 11
10.73905297862425
 21
5.426477563663506
 31
0.0
  0
ARC
  5
440
330
2
100
AcDbEntity
  8
IMAGE
100
AcDbCircle
 10
9.778318638414601
 20
5.463428884440804
 30
0.0
 40
0.0369513207772945
100
AcDbArc
 50
180.0
 51
270.0
  0
LWPOLYLINE
  5
441
330
2
100
AcDbEntity
  8
IMAGE
100
AcDbPolyline
 90
        4
 70
     0
 43
0.0
 10
9.797930238859398
 20
5.426477563663506
 10
9.797930238859398
 20
4.859180702425983
 42
-0.4142135623730951
 10
9.788786495971121
 20
4.850036959537706
 10
9.648706320634419
 20
4.850036959537706
  0
LINE
  5
442
330
2
100
AcDbEntity
  8
IMAGE
100
AcDbLine
 10
9.611754999857128
 20
4.886988280315011
 30
0.0
 11
9.611754999857128
 21
5.30084307302071
 31
0.0
  0
LINE
  5
443
330
2
100
AcDbEntity
  8
IMAGE
100
AcDbLine
 10
9.611754999857128
 20
4.899775018417872
 30
0.0
 11
9.518263138198124
 21
4.899775018417872
 31
0.0
  0
ARC
  5
444
330
2
100
AcDbEntity
  8
IMAGE
100
AcDbCircle
 10
9.648706320634419
 20
4.886988280315011
 30
0.0
 40
0.0369513207772945
100
AcDbArc
 50
180.0
 51
270.0
  0
LINE
  5
445
330
2
100
AcDbEntity
  8
IMAGE
100
AcDbLine
 10
9.611754999857128
 20
5.288056334917857
 30
0.0
 11
9.518263138198124
 21
5.288056334917857
 31
0.0
  0
ARC
  5
446
330
2
100
AcDbEntity
  8
IMAGE
100
AcDbCircle
 10
9.648706320634419
 20
5.30084307302071
 30
0.0
 40
0.0369513207772945
100
AcDbArc
 50
89.99999999999969
 51
180.0
  0
LINE
  5
447
330
2
100
AcDbEntity
  8
IMAGE
100
AcDbLine
 10
9.648706320634419
 20
5.337794393798001
 30
0.0
 11
9.797930238859398
 21
5.337794393798001
 31
0.0
  0
LINE
  5
448
330
2
100
AcDbEntity
  8
IMAGE
100
AcDbLine
 10
9.622281080597273
 20
5.592028758796995
 30
0.0
 11
9.669665113112957
 21
5.592028758796995
 31
0.0
  0
LINE
  5
449
330
2
100
AcDbEntity
  8
IMAGE
100
AcDbLine
 10
9.74136731763731
 20
5.485745297609564
 30
0.0
 11
9.74136731763731
 21
5.463428884440804
 31
0.0
  0
ARC
  5
44A
330
2
100
AcDbEntity
  8
IMAGE
100
AcDbCircle
 10
9.722891657248664
 20
5.485745297609585
 30
0.0
 40
0.0184756603886473
100
AcDbArc
 50
359.9999999999997
 51
66.30571927358838
  0
LINE
  5
44B
330
2
100
AcDbEntity
  8
IMAGE
100
AcDbLine
 10
9.702229061057392
 20
5.487260625535927
 30
0.0
 11
9.759842978025956
 21
5.518855865606741
 31
0.0
  0
LINE
  5
44C
330
2
100
AcDbEntity
  8
IMAGE
100
AcDbLine
 10
10.82049774967293
 20
5.337794393798001
 30
0.0
 11
10.75127383144795
 21
5.337794393798001
 31
0.0
  0
LINE
  5
44D
330
2
100
AcDbEntity
  8
IMAGE
100
AcDbLine
 10
10.68041757433623
 20
4.850036959537706
 30
0.0
 11
10.82049774967293
 21
4.850036959537706
 31
0.0
  0
ARC
  5
44E
330
2
100
AcDbEntity
  8
IMAGE
100
AcDbCircle
 10
10.73905297862425
 20
5.463428884440804
 30
0.0
 40
0.0369513207772945
100
AcDbArc
 50
270.0
 51
0.0
  0
LINE
  5
44F
330
2
100
AcDbEntity
  8
IMAGE
100
AcDbLine
 10
10.14952642792331
 20
4.837727911167678
 30
0.0
 11
10.36693574854229
 21
4.837727911167678
 31
0.0
  0
ARC
  5
450
330
2
100
AcDbEntity
  8
IMAGE
100
AcDbCircle
 10
10.2582310882328
 20
4.837420647327351
 30
0.0
 40
0.1215812912057411
100
AcDbArc
 50
23.16768142207863
 51
66.64339045708148
  0
ARC
  5
451
330
2
100
AcDbEntity
  8
IMAGE
100
AcDbCircle
 10
9.725588677678613
 20
6.943598201837192
 30
0.0
 40
2.077413260277443
100
AcDbArc
 50
279.0200653521827
 51
297.0792479580131
  0
LINE
  5
452
330
2
100
AcDbEntity
  8
IMAGE
100
AcDbLine
 10
10.0512862562986
 20
4.891875281641186
 30
0.0
 11
10.1334543341415
 21
4.891875281641186
 31
0.0
  0
ARC
  5
453
330
2
100
AcDbEntity
  8
IMAGE
100
AcDbCircle
 10
10.1334543341415
 20
4.875803187859385
 30
0.0
 40
0.0160720937818013
100
AcDbArc
 50
0.0
 51
90.0
  0
ARC
  5
454
330
2
100
AcDbEntity
  8
IMAGE
100
AcDbCircle
 10
10.2582310882328
 20
4.837420647327351
 30
0.0
 40
0.1215812912057411
100
AcDbArc
 50
141.7411440853695
 51
156.8323185779213
  0
LINE
  5
455
330
2
100
AcDbEntity
  8
IMAGE
100
AcDbLine
 10
10.14952642792331
 20
4.875803187859385
 30
0.0
 11
10.14952642792331
 21
4.837727911167678
 31
0.0
  0
LWPOLYLINE
  5
456
330
2
100
AcDbEntity
  8
IMAGE
100
AcDbPolyline
 90
        2
 70
     0
 43
0.0
 10
9.8779302388594
 20
5.426477563663506
 10
9.8779302388594
 20
5.093915676667857
  0
LINE
  5
457
330
2
100
AcDbEntity
  8
IMAGE
100
AcDbLine
 10
10.22167866389559
 20
5.093915676667857
 30
0.0
 11
10.30167866389559
 21
5.093915676667857
 31
0.0
  0
LWPOLYLINE
  5
458
330
2
100
AcDbEntity
  8
IMAGE
100
AcDbPolyline
 90
        2
 70
     0
 43
0.0
 10
10.22167866389559
 20
5.426477563663506
 10
10.22167866389559
 20
5.093915676667857
  0
LWPOLYLINE
  5
459
330
2
100
AcDbEntity
  8
IMAGE
100
AcDbPolyline
 90
        2
 70
     0
 43
0.0
 10
10.30167866389559
 20
5.426477563663506
 10
10.30167866389559
 20
5.093915676667857
  0
LINE
  5
45A
330
2
100
AcDbEntity
  8
IMAGE
100
AcDbLine
 10
10.67127383144795
 20
5.193341567760387
 30
0.0
 11
10.67127383144795
 21
4.859180702425983
 31
0.0
  0
LINE
  5
45B
330
2
100
AcDbEntity
  8
IMAGE
100
AcDbLine
 10
10.38300784232409
 20
4.891875281641186
 30
0.0
 11
10.67127383144795
 21
4.891875281641186
 31
0.0
  0
ARC
  5
45C
330
2
100
AcDbEntity
  8
IMAGE
100
AcDbCircle
 10
10.38300784232409
 20
4.875803187859385
 30
0.0
 40
0.0160720937818013
100
AcDbArc
 50
89.99999999999991
 51
180.0
  0
LINE
  5
45D
330
2
100
AcDbEntity
  8
IMAGE
100
AcDbLine
 10
10.36693574854229
 20
4.875803187859385
 30
0.0
 11
10.36693574854229
 21
4.837727911167678
 31
0.0
  0
ARC
  5
45E
330
2
100
AcDbEntity
  8
IMAGE
100
AcDbCircle
 10
10.68041757433623
 20
4.859180702425983
 30
0.0
 40
0.009143742888277
100
AcDbArc
 50
180.0000000000002
 51
270.0
  0
LINE
  5
45F
330
2
100
AcDbEntity
  8
IMAGE
100
AcDbLine
 10
10.67127383144795
 20
5.093915676667857
 30
0.0
 11
10.75127383144795
 21
5.093915676667857
 31
0.0
  0
LWPOLYLINE
  5
460
330
2
100
AcDbEntity
  8
IMAGE
100
AcDbPolyline
 90
        2
 70
     0
 43
0.0
 10
10.67127383144795
 20
5.426477563663506
 10
10.67127383144795
 20
5.193341567760387
  0
LWPOLYLINE
  5
461
330
2
100
AcDbEntity
  8
IMAGE
100
AcDbPolyline
 90
        2
 70
     0
 43
0.0
 10
10.75127383144795
 20
5.428575638121901
 10
10.75127383144795
 20
5.093915676667857
  0
LINE
  5
462
330
2
100
AcDbEntity
  8
IMAGE
100
AcDbLine
 10
10.79312261371936
 20
5.337794393798001
 30
0.0
 11
10.75127383144795
 21
5.337794393798001
 31
0.0
  0
LINE
  5
463
330
2
100
AcDbEntity
  8
IMAGE
100
AcDbLine
 10
10.26792363871375
 20
5.722088129881863
 30
0.0
 11
10.38801543123996
 21
5.722088129881863
 31
0.0
  0
LINE
  5
464
330
2
100
AcDbEntity
  8
IMAGE
100
AcDbLine
 10
10.26792363871375
 20
5.784905375203261
 30
0.0
 11
10.33258845007402
 21
5.784905375203261
 31
0.0
  0
LINE
  5
465
330
2
100
AcDbEntity
  8
IMAGE
100
AcDbLine
 10
10.08996148152705
 20
5.885335920069063
 30
0.0
 11
10.08996148152705
 21
5.743183822522015
 31
0.0
  0
LINE
  5
466
330
2
100
AcDbEntity
  8
IMAGE
100
AcDbLine
 10
10.18478316696484
 20
6.073125677266157
 30
0.0
 11
10.18478316696484
 21
5.784905375203261
 31
0.0
  0
LINE
  5
467
330
2
100
AcDbEntity
  8
IMAGE
100
AcDbLine
 10
10.2494479783251
 20
5.64818548832726
 30
0.0
 11
10.2494479783251
 21
5.860548096351076
 31
0.0
  0
LINE
  5
468
330
2
100
AcDbEntity
  8
IMAGE
100
AcDbLine
 10
10.26792363871375
 20
5.64818548832726
 30
0.0
 11
10.26792363871375
 21
5.860548096351076
 31
0.0
  0
LINE
  5
469
330
2
100
AcDbEntity
  8
IMAGE
100
AcDbLine
 10
10.18478316696484
 20
5.860548096351076
 30
0.0
 11
10.11987978268209
 21
5.767856457456853
 31
0.0
  0
LINE
  5
46A
330
2
100
AcDbEntity
  8
IMAGE
100
AcDbLine
 10
10.15891724242073
 20
5.722088129881863
 30
0.0
 11
10.05876690933606
 21
5.664266308116007
 31
0.0
  0
ARC
  5
46B
330
2
100
AcDbEntity
  8
IMAGE
100
AcDbCircle
 10
9.990788732884039
 20
5.528093695801056
 30
0.0
 40
0.1521972825592481
100
AcDbArc
 50
56.88865803962805
 51
100.4914770123314
  0
LINE
  5
46C
330
2
100
AcDbEntity
  8
IMAGE
100
AcDbLine
 10
9.963075242301078
 20
5.714697865726402
 30
0.0
 11
9.963075242301078
 21
5.677746544949111
 31
0.0
  0
LINE
  5
46D
330
2
100
AcDbEntity
  8
IMAGE
100
AcDbLine
 10
10.07392920463295
 20
5.655575752482728
 30
0.0
 11
10.07392920463295
 21
5.64818548832726
 31
0.0
  0
LINE
  5
46E
330
2
100
AcDbEntity
  8
IMAGE
100
AcDbLine
 10
10.01850222346701
 20
5.714697865726402
 30
0.0
 11
10.01850222346701
 21
5.677746544949111
 31
0.0
  0
LINE
  5
46F
330
2
100
AcDbEntity
  8
IMAGE
100
AcDbLine
 10
10.05250230872741
 20
5.743183822522015
 30
0.0
 11
10.05250230872741
 21
5.667217552040912
 31
0.0
  0
LINE
  5
470
330
2
100
AcDbEntity
  8
IMAGE
100
AcDbLine
 10
10.18478316696484
 20
5.784905375203261
 30
0.0
 11
10.2494479783251
 21
5.784905375203261
 31
0.0
  0
LINE
  5
471
330
2
100
AcDbEntity
  8
IMAGE
100
AcDbLine
 10
10.1293561857989
 20
5.722088129881863
 30
0.0
 11
10.2494479783251
 21
5.722088129881863
 31
0.0
  0
LINE
  5
472
330
2
100
AcDbEntity
  8
IMAGE
100
AcDbLine
 10
10.18478316696484
 20
5.784905375203261
 30
0.0
 11
10.1293561857989
 21
5.722088129881863
 31
0.0
  0
LINE
  5
473
330
2
100
AcDbEntity
  8
IMAGE
100
AcDbLine
 10
10.16630750657619
 20
5.722088129881863
 30
0.0
 11
10.15706967638187
 21
5.64818548832726
 31
0.0
  0
LINE
  5
474
330
2
100
AcDbEntity
  8
IMAGE
100
AcDbLine
 10
10.1293561857989
 20
5.722088129881863
 30
0.0
 11
10.12600571203827
 21
5.703086648956104
 31
0.0
  0
LWPOLYLINE
  5
475
330
2
100
AcDbEntity
  8
IMAGE
100
AcDbPolyline
 90
        5
 70
     0
 43
0.0
 10
10.11987978268209
 20
5.767856457456853
 10
10.11879040741739
 20
5.762622613672983
 10
10.12395960060906
 20
5.738393242430187
 10
10.12137500401323
 20
5.71476960546845
 10
10.1246927674297
 20
5.702328620032917
  0
LINE
  5
476
330
2
100
AcDbEntity
  8
IMAGE
100
AcDbLine
 10
10.04921121356357
 20
5.885335920069063
 30
0.0
 11
10.04921121356357
 21
6.136234372239601
 31
0.0
  0
LINE
  5
477
330
2
100
AcDbEntity
  8
IMAGE
100
AcDbLine
 10
9.98050436641583
 20
6.136234372239601
 30
0.0
 11
9.98050436641583
 21
5.885335920069063
 31
0.0
  0
LINE
  5
478
330
2
100
AcDbEntity
  8
IMAGE
100
AcDbLine
 10
10.03381140299597
 20
6.136234372239601
 30
0.0
 11
10.03381140299597
 21
5.885335920069063
 31
0.0
  0
LINE
  5
479
330
2
100
AcDbEntity
  8
IMAGE
100
AcDbLine
 10
10.2494479783251
 20
5.860548096351076
 30
0.0
 11
10.26792363871375
 21
5.860548096351076
 31
0.0
  0
LINE
  5
47A
330
2
100
AcDbEntity
  8
IMAGE
100
AcDbLine
 10
10.33258845007402
 20
6.073125677266157
 30
0.0
 11
10.33258845007402
 21
5.784905375203261
 31
0.0
  0
LINE
  5
47B
330
2
100
AcDbEntity
  8
IMAGE
100
AcDbLine
 10
10.33258845007402
 20
5.860548096351076
 30
0.0
 11
10.53771694971474
 21
5.714697865726402
 31
0.0
  0
LINE
  5
47C
330
2
100
AcDbEntity
  8
IMAGE
100
AcDbLine
 10
10.49886939357184
 20
5.714697865726402
 30
0.0
 11
10.60972335590373
 21
5.714697865726402
 31
0.0
  0
LINE
  5
47D
330
2
100
AcDbEntity
  8
IMAGE
100
AcDbLine
 10
10.4434424124059
 20
5.64818548832726
 30
0.0
 11
10.66515033706966
 21
5.64818548832726
 31
0.0
  0
ARC
  5
47E
330
2
100
AcDbEntity
  8
IMAGE
100
AcDbCircle
 10
10.58200986532075
 20
5.528093695801056
 30
0.0
 40
0.1521972825592481
100
AcDbArc
 50
56.88865803962805
 51
100.4914770123314
  0
LINE
  5
47F
330
2
100
AcDbEntity
  8
IMAGE
100
AcDbLine
 10
10.33258845007402
 20
5.784905375203261
 30
0.0
 11
10.38801543123996
 21
5.722088129881863
 31
0.0
  0
LINE
  5
480
330
2
100
AcDbEntity
  8
IMAGE
100
AcDbLine
 10
10.35106411046266
 20
5.722088129881863
 30
0.0
 11
10.36030194065699
 21
5.64818548832726
 31
0.0
  0
LINE
  5
481
330
2
100
AcDbEntity
  8
IMAGE
100
AcDbLine
 10
10.49886939357184
 20
5.714697865726402
 30
0.0
 11
10.49886939357184
 21
5.677746544949111
 31
0.0
  0
LINE
  5
482
330
2
100
AcDbEntity
  8
IMAGE
100
AcDbLine
 10
10.4434424124059
 20
5.655575752482728
 30
0.0
 11
10.4434424124059
 21
5.64818548832726
 31
0.0
  0
LINE
  5
483
330
2
100
AcDbEntity
  8
IMAGE
100
AcDbLine
 10
10.55429637473778
 20
5.714697865726402
 30
0.0
 11
10.55429637473778
 21
5.677746544949111
 31
0.0
  0
ARC
  5
484
330
2
100
AcDbEntity
  8
IMAGE
100
AcDbCircle
 10
10.52658288415481
 20
5.528093695801056
 30
0.0
 40
0.1521972825592481
100
AcDbArc
 50
79.50852298766861
 51
123.1113419603719
  0
LINE
  5
485
330
2
100
AcDbEntity
  8
IMAGE
100
AcDbLine
 10
10.35845437461813
 20
5.722088129881863
 30
0.0
 11
10.45860470770279
 21
5.664266308116007
 31
0.0
  0
LINE
  5
486
330
2
100
AcDbEntity
  8
IMAGE
100
AcDbLine
 10
10.38801543123996
 20
5.722088129881863
 30
0.0
 11
10.39136590500058
 21
5.703086648956104
 31
0.0
  0
LINE
  5
487
330
2
100
AcDbEntity
  8
IMAGE
100
AcDbLine
 10
10.77600429940155
 20
5.611234167549983
 30
0.0
 11
10.77600429940155
 21
5.463428884440804
 31
0.0
  0
ARC
  5
488
330
2
100
AcDbEntity
  8
IMAGE
100
AcDbCircle
 10
10.73905297862425
 20
5.611234167549983
 30
0.0
 40
0.0369513207772945
100
AcDbArc
 50
0.0
 51
90.0
  0
LINE
  5
489
330
2
100
AcDbEntity
  8
IMAGE
100
AcDbLine
 10
10.60972335590373
 20
5.714697865726402
 30
0.0
 11
10.60972335590373
 21
5.677746544949111
 31
0.0
  0
LINE
  5
48A
330
2
100
AcDbEntity
  8
IMAGE
100
AcDbLine
 10
10.66515033706966
 20
5.655575752482728
 30
0.0
 11
10.66515033706966
 21
5.64818548832726
 31
0.0
  0
LINE
  5
48B
330
2
100
AcDbEntity
  8
IMAGE
100
AcDbLine
 10
10.85744907045022
 20
5.30084307302071
 30
0.0
 11
10.85744907045022
 21
4.886988280315011
 31
0.0
  0
LINE
  5
48C
330
2
100
AcDbEntity
  8
IMAGE
100
AcDbLine
 10
10.85744907045022
 20
4.886988280315011
 30
0.0
 11
10.85744907045022
 21
5.30084307302071
 31
0.0
  0
LINE
  5
48D
330
2
100
AcDbEntity
  8
IMAGE
100
AcDbLine
 10
10.88467785818612
 20
5.254362739561908
 30
0.0
 11
10.88467785818612
 21
4.935709726818298
 31
0.0
  0
LINE
  5
48E
330
2
100
AcDbEntity
  8
IMAGE
100
AcDbLine
 10
11.23802521635132
 20
4.899775018417865
 30
0.0
 11
10.85744907045022
 21
4.899775018417865
 31
0.0
  0
ARC
  5
48F
330
2
100
AcDbEntity
  8
IMAGE
100
AcDbCircle
 10
10.82049774967293
 20
4.886988280315011
 30
0.0
 40
0.0369513207772945
100
AcDbArc
 50
270.0
 51
0.0
  0
LINE
  5
490
330
2
100
AcDbEntity
  8
IMAGE
100
AcDbLine
 10
11.23802521635132
 20
5.288056334917857
 30
0.0
 11
10.85744907045022
 21
5.288056334917857
 31
0.0
  0
ARC
  5
491
330
2
100
AcDbEntity
  8
IMAGE
100
AcDbCircle
 10
10.82049774967293
 20
5.30084307302071
 30
0.0
 40
0.0369513207772945
100
AcDbArc
 50
0.0
 51
90.00000000000019
  0
LINE
  5
492
330
2
100
AcDbEntity
  8
IMAGE
100
AcDbLine
 10
10.38487495949104
 20
6.073125677266157
 30
0.0
 11
10.38487495949104
 21
6.297296099468307
 31
0.0
  0
LINE
  5
493
330
2
100
AcDbEntity
  8
IMAGE
100
AcDbLine
 10
10.13249665754781
 20
6.073125677266157
 30
0.0
 11
10.13249665754781
 21
6.297296099468307
 31
0.0
  0
LINE
  5
494
330
2
100
AcDbEntity
  8
IMAGE
100
AcDbLine
 10
10.13249665754781
 20
6.073125677266157
 30
0.0
 11
10.38487495949104
 21
6.073125677266157
 31
0.0
  0
LINE
  5
495
330
2
100
AcDbEntity
  8
IMAGE
100
AcDbLine
 10
10.29868580851943
 20
6.297296099468314
 30
0.0
 11
10.50810722376617
 21
6.297296099468307
 31
0.0
  0
LINE
  5
496
330
2
100
AcDbEntity
  8
IMAGE
100
AcDbLine
 10
10.29868580851943
 20
6.43586355238317
 30
0.0
 11
10.50810722376617
 21
6.435863552383163
 31
0.0
  0
LINE
  5
497
330
2
100
AcDbEntity
  8
IMAGE
100
AcDbLine
 10
10.18410458280244
 20
6.509766193937752
 30
0.0
 11
10.33235759366315
 21
6.509766193937752
 31
0.0
  0
LINE
  5
498
330
2
100
AcDbEntity
  8
IMAGE
100
AcDbLine
 10
10.18410458280244
 20
6.435863552383163
 30
0.0
 11
10.18410458280244
 21
6.509766193937752
 31
0.0
  0
LINE
  5
499
330
2
100
AcDbEntity
  8
IMAGE
100
AcDbLine
 10
10.00926439327269
 20
6.297296099468307
 30
0.0
 11
10.21868580851943
 21
6.297296099468314
 31
0.0
  0
LINE
  5
49A
330
2
100
AcDbEntity
  8
IMAGE
100
AcDbLine
 10
10.00926439327269
 20
6.435863552383163
 30
0.0
 11
10.21868580851943
 21
6.43586355238317
 31
0.0
  0
LWPOLYLINE
  5
49B
330
2
100
AcDbEntity
  8
IMAGE
100
AcDbPolyline
 90
        2
 70
     0
 43
0.0
 10
10.00926439327269
 20
6.435863552383163
 10
10.00926439327269
 20
6.297296099468307
  0
LINE
  5
49C
330
2
100
AcDbEntity
  8
IMAGE
100
AcDbLine
 10
10.21868580851943
 20
6.337584035289967
 30
0.0
 11
10.29868580851943
 21
6.337584035289974
 31
0.0
  0
LINE
  5
49D
330
2
100
AcDbEntity
  8
IMAGE
100
AcDbLine
 10
10.21868580851943
 20
6.395575616561504
 30
0.0
 11
10.29868580851943
 21
6.395575616561504
 31
0.0
  0
LWPOLYLINE
  5
49E
330
2
100
AcDbEntity
  8
IMAGE
100
AcDbPolyline
 90
        2
 70
     0
 43
0.0
 10
10.29868580851943
 20
6.435863552383163
 10
10.29868580851943
 20
6.297296099468307
  0
LWPOLYLINE
  5
49F
330
2
100
AcDbEntity
  8
IMAGE
100
AcDbPolyline
 90
        2
 70
     0
 43
0.0
 10
10.21868580851943
 20
6.435863552383163
 10
10.21868580851943
 20
6.297296099468307
  0
LINE
  5
4A0
330
2
100
AcDbEntity
  8
IMAGE
100
AcDbLine
 10
10.33235759366315
 20
6.435863552383163
 30
0.0
 11
10.33235759366315
 21
6.509766193937752
 31
0.0
  0
LWPOLYLINE
  5
4A1
330
2
100
AcDbEntity
  8
IMAGE
100
AcDbPolyline
 90
        2
 70
     0
 43
0.0
 10
10.50810722376617
 20
6.435863552383163
 10
10.50810722376617
 20
6.297296099468307
  0
LINE
  5
4A3
330
2
100
AcDbEntity
  8
IMAGE
100
AcDbLine
 10
7.079984270584967
 20
6.573707543780876
 30
0.0
 11
7.542034220342285
 21
6.573707543780876
 31
0.0
  0
LINE
  5
4A4
330
2
100
AcDbEntity
  8
IMAGE
100
AcDbLine
 10
7.079984270584967
 20
6.58804702498024
 30
0.0
 11
7.542034220342285
 21
6.58804702498024
 31
0.0
  0
LINE
  5
4A5
330
2
100
AcDbEntity
  8
IMAGE
100
AcDbLine
 10
7.079984270584967
 20
6.559368062581511
 30
0.0
 11
7.13128774776492
 21
6.559368062581511
 31
0.0
  0
LINE
  5
4A6
330
2
100
AcDbEntity
  8
IMAGE
100
AcDbLine
 10
7.079984270584967
 20
6.559368062581511
 30
0.0
 11
7.079984270584967
 21
6.58804702498024
 31
0.0
  0
LINE
  5
4A7
330
2
100
AcDbEntity
  8
IMAGE
100
AcDbLine
 10
7.134155644004787
 20
6.635845295644798
 30
0.0
 11
7.134155644004787
 21
6.58804702498024
 31
0.0
  0
LINE
  5
4A8
330
2
100
AcDbEntity
  8
IMAGE
100
AcDbLine
 10
7.226565633956253
 20
6.635845295644798
 30
0.0
 11
7.226565633956253
 21
6.58804702498024
 31
0.0
  0
LINE
  5
4A9
330
2
100
AcDbEntity
  8
IMAGE
100
AcDbLine
 10
7.239311839466799
 20
6.635845295644798
 30
0.0
 11
7.239311839466799
 21
6.58804702498024
 31
0.0
  0
LINE
  5
4AA
330
2
100
AcDbEntity
  8
IMAGE
100
AcDbLine
 10
7.134155644004787
 20
6.635845295644798
 30
0.0
 11
7.239311839466799
 21
6.635845295644798
 31
0.0
  0
LINE
  5
4AB
330
2
100
AcDbEntity
  8
IMAGE
100
AcDbLine
 10
7.217483962529987
 20
6.479704278140601
 30
0.0
 11
7.13128774776492
 21
6.559368062581511
 31
0.0
  0
LINE
  5
4AC
330
2
100
AcDbEntity
  8
IMAGE
100
AcDbLine
 10
7.13128774776492
 20
6.559368062581511
 30
0.0
 11
7.13128774776492
 21
6.573707543780876
 31
0.0
  0
LINE
  5
4AD
330
2
100
AcDbEntity
  8
IMAGE
100
AcDbLine
 10
7.217483962529987
 20
6.479704278140601
 30
0.0
 11
7.217483962529989
 21
5.916799977281072
 31
0.0
  0
LINE
  5
4AE
330
2
100
AcDbEntity
  8
IMAGE
100
AcDbLine
 10
7.217483962529987
 20
6.479704278140601
 30
0.0
 11
7.404534528397258
 21
6.479704278140601
 31
0.0
  0
LINE
  5
4AF
330
2
100
AcDbEntity
  8
IMAGE
100
AcDbLine
 10
7.382706651460452
 20
6.635845295644798
 30
0.0
 11
7.500609052433011
 21
6.635845295644798
 31
0.0
  0
LINE
  5
4B0
330
2
100
AcDbEntity
  8
IMAGE
100
AcDbLine
 10
7.49073074316233
 20
6.559368062581511
 30
0.0
 11
7.542034220342285
 21
6.559368062581511
 31
0.0
  0
LINE
  5
4B1
330
2
100
AcDbEntity
  8
IMAGE
100
AcDbLine
 10
7.395452856970999
 20
6.635845295644798
 30
0.0
 11
7.395452856970999
 21
6.58804702498024
 31
0.0
  0
LINE
  5
4B2
330
2
100
AcDbEntity
  8
IMAGE
100
AcDbLine
 10
7.382706651460452
 20
6.635845295644798
 30
0.0
 11
7.382706651460452
 21
6.58804702498024
 31
0.0
  0
LINE
  5
4B3
330
2
100
AcDbEntity
  8
IMAGE
100
AcDbLine
 10
7.49073074316233
 20
6.559368062581511
 30
0.0
 11
7.49073074316233
 21
6.573707543780876
 31
0.0
  0
LINE
  5
4B4
330
2
100
AcDbEntity
  8
IMAGE
100
AcDbLine
 10
7.500609052433011
 20
6.635845295644798
 30
0.0
 11
7.500609052433011
 21
6.58804702498024
 31
0.0
  0
LINE
  5
4B5
330
2
100
AcDbEntity
  8
IMAGE
100
AcDbLine
 10
7.542034220342285
 20
6.58804702498024
 30
0.0
 11
7.542034220342285
 21
6.559368062581511
 31
0.0
  0
LINE
  5
4B6
330
2
100
AcDbEntity
  8
IMAGE
100
AcDbLine
 10
7.404534528397258
 20
6.479704278140601
 30
0.0
 11
7.49073074316233
 21
6.559368062581511
 31
0.0
  0
LINE
  5
4B7
330
2
100
AcDbEntity
  8
IMAGE
100
AcDbLine
 10
7.404534528397258
 20
6.479704278140601
 30
0.0
 11
7.40453452839726
 21
5.916799977281072
 31
0.0
  0
ARC
  5
4B8
330
2
100
AcDbEntity
  8
IMAGE
100
AcDbCircle
 10
7.311009245463624
 20
5.916799977281072
 30
0.0
 40
0.093525282933636
100
AcDbArc
 50
180.0
 51
0.0
  0
LINE
  5
4B9
330
2
100
AcDbEntity
  8
IMAGE
100
AcDbLine
 10
7.841240656673967
 20
6.73564576748017
 30
0.0
 11
7.841240656673968
 21
6.65452933523073
 31
0.0
  0
LINE
  5
4BA
330
2
100
AcDbEntity
  8
IMAGE
100
AcDbLine
 10
7.654190090806697
 20
6.73564576748017
 30
0.0
 11
7.654190090806697
 21
6.646209332716551
 31
0.0
  0
ARC
  5
4BB
330
2
100
AcDbEntity
  8
IMAGE
100
AcDbCircle
 10
7.747715373740334
 20
6.172741466620641
 30
0.0
 40
0.093525282933636
100
AcDbArc
 50
180.0
 51
0.0
  0
LINE
  5
4BC
330
2
100
AcDbEntity
  8
IMAGE
100
AcDbLine
 10
7.516690398861676
 20
6.815309551921081
 30
0.0
 11
7.567993876041629
 21
6.815309551921081
 31
0.0
  0
LINE
  5
4BD
330
2
100
AcDbEntity
  8
IMAGE
100
AcDbLine
 10
7.516690398861676
 20
6.84398851431981
 30
0.0
 11
7.978740348618995
 21
6.84398851431981
 31
0.0
  0
LINE
  5
4BE
330
2
100
AcDbEntity
  8
IMAGE
100
AcDbLine
 10
7.516690398861676
 20
6.829649033120445
 30
0.0
 11
7.978740348618995
 21
6.829649033120445
 31
0.0
  0
LINE
  5
4BF
330
2
100
AcDbEntity
  8
IMAGE
100
AcDbLine
 10
7.516690398861676
 20
6.815309551921081
 30
0.0
 11
7.516690398861676
 21
6.84398851431981
 31
0.0
  0
LINE
  5
4C0
330
2
100
AcDbEntity
  8
IMAGE
100
AcDbLine
 10
7.841240656673967
 20
6.73564576748017
 30
0.0
 11
7.92743687143904
 21
6.815309551921081
 31
0.0
  0
LINE
  5
4C1
330
2
100
AcDbEntity
  8
IMAGE
100
AcDbLine
 10
7.819412779737161
 20
6.891786784984367
 30
0.0
 11
7.93731518070972
 21
6.891786784984367
 31
0.0
  0
LINE
  5
4C2
330
2
100
AcDbEntity
  8
IMAGE
100
AcDbLine
 10
7.819412779737161
 20
6.891786784984367
 30
0.0
 11
7.819412779737161
 21
6.84398851431981
 31
0.0
  0
LINE
  5
4C3
330
2
100
AcDbEntity
  8
IMAGE
100
AcDbLine
 10
7.832158985247708
 20
6.891786784984367
 30
0.0
 11
7.832158985247708
 21
6.84398851431981
 31
0.0
  0
LINE
  5
4C4
330
2
100
AcDbEntity
  8
IMAGE
100
AcDbLine
 10
7.654190090806697
 20
6.73564576748017
 30
0.0
 11
7.841240656673967
 21
6.73564576748017
 31
0.0
  0
LINE
  5
4C5
330
2
100
AcDbEntity
  8
IMAGE
100
AcDbLine
 10
7.567993876041629
 20
6.815309551921081
 30
0.0
 11
7.567993876041629
 21
6.829649033120445
 31
0.0
  0
LINE
  5
4C6
330
2
100
AcDbEntity
  8
IMAGE
100
AcDbLine
 10
7.654190090806697
 20
6.73564576748017
 30
0.0
 11
7.567993876041629
 21
6.815309551921081
 31
0.0
  0
LINE
  5
4C7
330
2
100
AcDbEntity
  8
IMAGE
100
AcDbLine
 10
7.570861772281496
 20
6.891786784984367
 30
0.0
 11
7.676017967743508
 21
6.891786784984367
 31
0.0
  0
LINE
  5
4C8
330
2
100
AcDbEntity
  8
IMAGE
100
AcDbLine
 10
7.676017967743508
 20
6.891786784984367
 30
0.0
 11
7.676017967743508
 21
6.84398851431981
 31
0.0
  0
LINE
  5
4C9
330
2
100
AcDbEntity
  8
IMAGE
100
AcDbLine
 10
7.663271762232962
 20
6.891786784984367
 30
0.0
 11
7.663271762232962
 21
6.84398851431981
 31
0.0
  0
LINE
  5
4CA
330
2
100
AcDbEntity
  8
IMAGE
100
AcDbLine
 10
7.570861772281496
 20
6.891786784984367
 30
0.0
 11
7.570861772281496
 21
6.84398851431981
 31
0.0
  0
LINE
  5
4CB
330
2
100
AcDbEntity
  8
IMAGE
100
AcDbLine
 10
7.978740348618995
 20
6.84398851431981
 30
0.0
 11
7.978740348618995
 21
6.815309551921081
 31
0.0
  0
LINE
  5
4CC
330
2
100
AcDbEntity
  8
IMAGE
100
AcDbLine
 10
7.93731518070972
 20
6.891786784984367
 30
0.0
 11
7.93731518070972
 21
6.84398851431981
 31
0.0
  0
LINE
  5
4CD
330
2
100
AcDbEntity
  8
IMAGE
100
AcDbLine
 10
7.92743687143904
 20
6.815309551921081
 30
0.0
 11
7.92743687143904
 21
6.829649033120445
 31
0.0
  0
LINE
  5
4CE
330
2
100
AcDbEntity
  8
IMAGE
100
AcDbLine
 10
7.92743687143904
 20
6.815309551921081
 30
0.0
 11
7.978740348618995
 21
6.815309551921081
 31
0.0
  0
ARC
  5
4CF
330
2
100
AcDbEntity
  8
IMAGE
100
AcDbCircle
 10
3.527964221044302
 20
5.926987140354309
 30
0.0
 40
0.093525282933636
100
AcDbArc
 50
180.0
 51
0.0
  0
LINE
  5
4D0
330
2
100
AcDbEntity
  8
IMAGE
100
AcDbLine
 10
3.434438938110665
 20
6.489891441213837
 30
0.0
 11
3.621489503977936
 21
6.489891441213837
 31
0.0
  0
LINE
  5
4D1
330
2
100
AcDbEntity
  8
IMAGE
100
AcDbLine
 10
3.599661627041128
 20
6.646032458718035
 30
0.0
 11
3.717564028013689
 21
6.646032458718035
 31
0.0
  0
LINE
  5
4D2
330
2
100
AcDbEntity
  8
IMAGE
100
AcDbLine
 10
3.296939246165645
 20
6.583894706854112
 30
0.0
 11
3.758989195922963
 21
6.583894706854112
 31
0.0
  0
LINE
  5
4D3
330
2
100
AcDbEntity
  8
IMAGE
100
AcDbLine
 10
3.296939246165645
 20
6.598234188053477
 30
0.0
 11
3.758989195922963
 21
6.598234188053477
 31
0.0
  0
LINE
  5
4D4
330
2
100
AcDbEntity
  8
IMAGE
100
AcDbLine
 10
3.434438938110665
 20
6.489891441213837
 30
0.0
 11
3.434438938110665
 21
5.926987140354309
 31
0.0
  0
LINE
  5
4D5
330
2
100
AcDbEntity
  8
IMAGE
100
AcDbLine
 10
3.351110619585464
 20
6.646032458718035
 30
0.0
 11
3.351110619585464
 21
6.598234188053477
 31
0.0
  0
LINE
  5
4D6
330
2
100
AcDbEntity
  8
IMAGE
100
AcDbLine
 10
3.443520609536931
 20
6.646032458718035
 30
0.0
 11
3.443520609536931
 21
6.598234188053477
 31
0.0
  0
LINE
  5
4D7
330
2
100
AcDbEntity
  8
IMAGE
100
AcDbLine
 10
3.456266815047476
 20
6.646032458718035
 30
0.0
 11
3.456266815047476
 21
6.598234188053477
 31
0.0
  0
LINE
  5
4D8
330
2
100
AcDbEntity
  8
IMAGE
100
AcDbLine
 10
3.351110619585464
 20
6.646032458718035
 30
0.0
 11
3.456266815047476
 21
6.646032458718035
 31
0.0
  0
LINE
  5
4D9
330
2
100
AcDbEntity
  8
IMAGE
100
AcDbLine
 10
3.434438938110665
 20
6.489891441213837
 30
0.0
 11
3.348242723345598
 21
6.569555225654748
 31
0.0
  0
LINE
  5
4DA
330
2
100
AcDbEntity
  8
IMAGE
100
AcDbLine
 10
3.348242723345598
 20
6.569555225654748
 30
0.0
 11
3.348242723345598
 21
6.583894706854112
 31
0.0
  0
LINE
  5
4DB
330
2
100
AcDbEntity
  8
IMAGE
100
AcDbLine
 10
3.599661627041128
 20
6.646032458718035
 30
0.0
 11
3.599661627041128
 21
6.598234188053477
 31
0.0
  0
LINE
  5
4DC
330
2
100
AcDbEntity
  8
IMAGE
100
AcDbLine
 10
3.296939246165645
 20
6.569555225654748
 30
0.0
 11
3.296939246165645
 21
6.598234188053477
 31
0.0
  0
LINE
  5
4DD
330
2
100
AcDbEntity
  8
IMAGE
100
AcDbLine
 10
3.296939246165645
 20
6.569555225654748
 30
0.0
 11
3.348242723345598
 21
6.569555225654748
 31
0.0
  0
LINE
  5
4DE
330
2
100
AcDbEntity
  8
IMAGE
100
AcDbLine
 10
3.621489503977936
 20
6.489891441213837
 30
0.0
 11
3.621489503977936
 21
5.926987140354309
 31
0.0
  0
LINE
  5
4DF
330
2
100
AcDbEntity
  8
IMAGE
100
AcDbLine
 10
3.707685718743007
 20
6.569555225654748
 30
0.0
 11
3.758989195922963
 21
6.569555225654748
 31
0.0
  0
LINE
  5
4E0
330
2
100
AcDbEntity
  8
IMAGE
100
AcDbLine
 10
3.707685718743007
 20
6.569555225654748
 30
0.0
 11
3.707685718743007
 21
6.583894706854112
 31
0.0
  0
LINE
  5
4E1
330
2
100
AcDbEntity
  8
IMAGE
100
AcDbLine
 10
3.717564028013689
 20
6.646032458718035
 30
0.0
 11
3.717564028013689
 21
6.598234188053477
 31
0.0
  0
LINE
  5
4E2
330
2
100
AcDbEntity
  8
IMAGE
100
AcDbLine
 10
3.758989195922963
 20
6.598234188053477
 30
0.0
 11
3.758989195922963
 21
6.569555225654748
 31
0.0
  0
LINE
  5
4E3
330
2
100
AcDbEntity
  8
IMAGE
100
AcDbLine
 10
3.612407832551677
 20
6.646032458718035
 30
0.0
 11
3.612407832551677
 21
6.598234188053477
 31
0.0
  0
LINE
  5
4E4
330
2
100
AcDbEntity
  8
IMAGE
100
AcDbLine
 10
3.621489503977936
 20
6.489891441213837
 30
0.0
 11
3.707685718743007
 21
6.569555225654748
 31
0.0
  0
ARC
  5
4E5
330
2
100
AcDbEntity
  8
IMAGE
100
AcDbCircle
 10
2.770988000506618
 20
6.361123068014946
 30
0.0
 40
0.093525282933636
100
AcDbArc
 50
180.0
 51
0.0
  0
LINE
  5
4E6
330
2
100
AcDbEntity
  8
IMAGE
100
AcDbLine
 10
2.677462717572981
 20
6.924027368874475
 30
0.0
 11
2.864513283440252
 21
6.924027368874475
 31
0.0
  0
LINE
  5
4E7
330
2
100
AcDbEntity
  8
IMAGE
100
AcDbLine
 10
2.842685406503444
 20
7.080168386378672
 30
0.0
 11
2.960587807476005
 21
7.080168386378672
 31
0.0
  0
LINE
  5
4E8
330
2
100
AcDbEntity
  8
IMAGE
100
AcDbLine
 10
2.539963025627961
 20
7.01803063451475
 30
0.0
 11
3.002012975385279
 21
7.01803063451475
 31
0.0
  0
LINE
  5
4E9
330
2
100
AcDbEntity
  8
IMAGE
100
AcDbLine
 10
2.539963025627961
 20
7.032370115714114
 30
0.0
 11
3.002012975385279
 21
7.032370115714114
 31
0.0
  0
LINE
  5
4EA
330
2
100
AcDbEntity
  8
IMAGE
100
AcDbLine
 10
2.677462717572981
 20
6.924027368874475
 30
0.0
 11
2.677462717572981
 21
6.361123068014946
 31
0.0
  0
LINE
  5
4EB
330
2
100
AcDbEntity
  8
IMAGE
100
AcDbLine
 10
2.59413439904778
 20
7.080168386378672
 30
0.0
 11
2.59413439904778
 21
7.032370115714114
 31
0.0
  0
LINE
  5
4EC
330
2
100
AcDbEntity
  8
IMAGE
100
AcDbLine
 10
2.686544388999247
 20
7.080168386378672
 30
0.0
 11
2.686544388999247
 21
7.032370115714114
 31
0.0
  0
LINE
  5
4ED
330
2
100
AcDbEntity
  8
IMAGE
100
AcDbLine
 10
2.699290594509792
 20
7.080168386378672
 30
0.0
 11
2.699290594509792
 21
7.032370115714114
 31
0.0
  0
LINE
  5
4EE
330
2
100
AcDbEntity
  8
IMAGE
100
AcDbLine
 10
2.59413439904778
 20
7.080168386378672
 30
0.0
 11
2.699290594509792
 21
7.080168386378672
 31
0.0
  0
LINE
  5
4EF
330
2
100
AcDbEntity
  8
IMAGE
100
AcDbLine
 10
2.677462717572981
 20
6.924027368874475
 30
0.0
 11
2.591266502807914
 21
7.003691153315386
 31
0.0
  0
LINE
  5
4F0
330
2
100
AcDbEntity
  8
IMAGE
100
AcDbLine
 10
2.591266502807914
 20
7.003691153315386
 30
0.0
 11
2.591266502807914
 21
7.01803063451475
 31
0.0
  0
LINE
  5
4F1
330
2
100
AcDbEntity
  8
IMAGE
100
AcDbLine
 10
2.842685406503444
 20
7.080168386378672
 30
0.0
 11
2.842685406503444
 21
7.032370115714114
 31
0.0
  0
LINE
  5
4F2
330
2
100
AcDbEntity
  8
IMAGE
100
AcDbLine
 10
2.539963025627961
 20
7.003691153315386
 30
0.0
 11
2.539963025627961
 21
7.032370115714114
 31
0.0
  0
LINE
  5
4F3
330
2
100
AcDbEntity
  8
IMAGE
100
AcDbLine
 10
2.539963025627961
 20
7.003691153315386
 30
0.0
 11
2.591266502807914
 21
7.003691153315386
 31
0.0
  0
LINE
  5
4F4
330
2
100
AcDbEntity
  8
IMAGE
100
AcDbLine
 10
2.864513283440252
 20
6.924027368874475
 30
0.0
 11
2.864513283440252
 21
6.361123068014946
 31
0.0
  0
LINE
  5
4F5
330
2
100
AcDbEntity
  8
IMAGE
100
AcDbLine
 10
2.950709498205323
 20
7.003691153315386
 30
0.0
 11
3.002012975385279
 21
7.003691153315386
 31
0.0
  0
LINE
  5
4F6
330
2
100
AcDbEntity
  8
IMAGE
100
AcDbLine
 10
2.950709498205323
 20
7.003691153315386
 30
0.0
 11
2.950709498205323
 21
7.01803063451475
 31
0.0
  0
LINE
  5
4F7
330
2
100
AcDbEntity
  8
IMAGE
100
AcDbLine
 10
2.960587807476005
 20
7.080168386378672
 30
0.0
 11
2.960587807476005
 21
7.032370115714114
 31
0.0
  0
LINE
  5
4F8
330
2
100
AcDbEntity
  8
IMAGE
100
AcDbLine
 10
3.002012975385279
 20
7.032370115714114
 30
0.0
 11
3.002012975385279
 21
7.003691153315386
 31
0.0
  0
LINE
  5
4F9
330
2
100
AcDbEntity
  8
IMAGE
100
AcDbLine
 10
2.855431612013993
 20
7.080168386378672
 30
0.0
 11
2.855431612013993
 21
7.032370115714114
 31
0.0
  0
LINE
  5
4FA
330
2
100
AcDbEntity
  8
IMAGE
100
AcDbLine
 10
2.864513283440252
 20
6.924027368874475
 30
0.0
 11
2.950709498205323
 21
7.003691153315386
 31
0.0
  0
POLYLINE
  5
4FB
330
2
100
AcDbEntity
  8
IMAGE
100
AcDb2dPolyline
 66
     1
 10
0.0
 20
0.0
 30
0.0
 70
     4
 75
     6
  0
VERTEX
  5
4FC
330
4FB
100
AcDbEntity
  8
IMAGE
100
AcDbVertex
100
AcDb2dVertex
 10
6.090207757326152
 20
4.901248325604345
 30
0.0
 70
    16
  0
VERTEX
  5
4FD
330
4FB
100
AcDbEntity
  8
IMAGE
100
AcDbVertex
100
AcDb2dVertex
 10
6.090207757326152
 20
4.901248325604345
 30
0.0
 70
     8
  0
VERTEX
  5
4FE
330
4FB
100
AcDbEntity
  8
IMAGE
100
AcDbVertex
100
AcDb2dVertex
 10
6.110707559602587
 20
5.047580742439875
 30
0.0
 70
     8
  0
VERTEX
  5
4FF
330
4FB
100
AcDbEntity
  8
IMAGE
100
AcDbVertex
100
AcDb2dVertex
 10
6.128074065328522
 20
5.170477368110897
 30
0.0
 70
     8
  0
VERTEX
  5
500
330
4FB
100
AcDbEntity
  8
IMAGE
100
AcDbVertex
100
AcDb2dVertex
 10
6.142994883449879
 20
5.273140154261631
 30
0.0
 70
     8
  0
VERTEX
  5
501
330
4FB
100
AcDbEntity
  8
IMAGE
100
AcDbVertex
100
AcDb2dVertex
 10
6.15615762291258
 20
5.358771052536297
 30
0.0
 70
     8
  0
VERTEX
  5
502
330
4FB
100
AcDbEntity
  8
IMAGE
100
AcDbVertex
100
AcDb2dVertex
 10
6.168249892662549
 20
5.430572014579111
 30
0.0
 70
     8
  0
VERTEX
  5
503
330
4FB
100
AcDbEntity
  8
IMAGE
100
AcDbVertex
100
AcDb2dVertex
 10
6.179959301645711
 20
5.491744992034294
 30
0.0
 70
     8
  0
VERTEX
  5
504
330
4FB
100
AcDbEntity
  8
IMAGE
100
AcDbVertex
100
AcDb2dVertex
 10
6.191973458807986
 20
5.545491936546063
 30
0.0
 70
     8
  0
VERTEX
  5
505
330
4FB
100
AcDbEntity
  8
IMAGE
100
AcDbVertex
100
AcDb2dVertex
 10
6.204979973095299
 20
5.595014799758632
 30
0.0
 70
     8
  0
VERTEX
  5
506
330
4FB
100
AcDbEntity
  8
IMAGE
100
AcDbVertex
100
AcDb2dVertex
 10
6.219565547332968
 20
5.643022942427211
 30
0.0
 70
     8
  0
VERTEX
  5
507
330
4FB
100
AcDbEntity
  8
IMAGE
100
AcDbVertex
100
AcDb2dVertex
 10
6.235913259863893
 20
5.690255361750938
 30
0.0
 70
     8
  0
VERTEX
  5
508
330
4FB
100
AcDbEntity
  8
IMAGE
100
AcDbVertex
100
AcDb2dVertex
 10
6.254105282910369
 20
5.736958464039932
 30
0.0
 70
     8
  0
VERTEX
  5
509
330
4FB
100
AcDbEntity
  8
IMAGE
100
AcDbVertex
100
AcDb2dVertex
 10
6.27422378869469
 20
5.783378655604315
 30
0.0
 70
     8
  0
VERTEX
  5
50A
330
4FB
100
AcDbEntity
  8
IMAGE
100
AcDbVertex
100
AcDb2dVertex
 10
6.296350949439154
 20
5.829762342754214
 30
0.0
 70
     8
  0
VERTEX
  5
50B
330
4FB
100
AcDbEntity
  8
IMAGE
100
AcDbVertex
100
AcDb2dVertex
 10
6.320568937366052
 20
5.876355931799749
 30
0.0
 70
     8
  0
VERTEX
  5
50C
330
4FB
100
AcDbEntity
  8
IMAGE
100
AcDbVertex
100
AcDb2dVertex
 10
6.346959924697681
 20
5.92340582905104
 30
0.0
 70
     8
  0
VERTEX
  5
50D
330
4FB
100
AcDbEntity
  8
IMAGE
100
AcDbVertex
100
AcDb2dVertex
 10
6.375606083656338
 20
5.971158440818217
 30
0.0
 70
     8
  0
VERTEX
  5
50E
330
4FB
100
AcDbEntity
  8
IMAGE
100
AcDbVertex
100
AcDb2dVertex
 10
6.406481036282878
 20
6.019702622943802
 30
0.0
 70
     8
  0
VERTEX
  5
50F
330
4FB
100
AcDbEntity
  8
IMAGE
100
AcDbVertex
100
AcDb2dVertex
 10
6.439124203892411
 20
6.068497029399941
 30
0.0
 70
     8
  0
VERTEX
  5
510
330
4FB
100
AcDbEntity
  8
IMAGE
100
AcDbVertex
100
AcDb2dVertex
 10
6.472966457618611
 20
6.116842763691184
 30
0.0
 70
     8
  0
VERTEX
  5
511
330
4FB
100
AcDbEntity
  8
IMAGE
100
AcDbVertex
100
AcDb2dVertex
 10
6.507438668595152
 20
6.164040929322083
 30
0.0
 70
     8
  0
VERTEX
  5
512
330
4FB
100
AcDbEntity
  8
IMAGE
100
AcDbVertex
100
AcDb2dVertex
 10
6.541971707955705
 20
6.209392629797181
 30
0.0
 70
     8
  0
VERTEX
  5
513
330
4FB
100
AcDbEntity
  8
IMAGE
100
AcDbVertex
100
AcDb2dVertex
 10
6.575996446833944
 20
6.252198968621036
 30
0.0
 70
     8
  0
VERTEX
  5
514
330
4FB
100
AcDbEntity
  8
IMAGE
100
AcDbVertex
100
AcDb2dVertex
 10
6.608943756363541
 20
6.291761049298194
 30
0.0
 70
     8
  0
VERTEX
  5
515
330
4FB
100
AcDbEntity
  8
IMAGE
100
AcDbVertex
100
AcDb2dVertex
 10
6.640244507678169
 20
6.327379975333204
 30
0.0
 70
     8
  0
VERTEX
  5
516
330
4FB
100
AcDbEntity
  8
IMAGE
100
AcDbVertex
100
AcDb2dVertex
 10
6.669476129002576
 20
6.358561409336785
 30
0.0
 70
     8
  0
VERTEX
  5
517
330
4FB
100
AcDbEntity
  8
IMAGE
100
AcDbVertex
100
AcDb2dVertex
 10
6.696802276925803
 20
6.385629250344314
 30
0.0
 70
     8
  0
VERTEX
  5
518
330
4FB
100
AcDbEntity
  8
IMAGE
100
AcDbVertex
100
AcDb2dVertex
 10
6.722533165127964
 20
6.409111956497343
 30
0.0
 70
     8
  0
VERTEX
  5
519
330
4FB
100
AcDbEntity
  8
IMAGE
100
AcDbVertex
100
AcDb2dVertex
 10
6.746979007289177
 20
6.429537985937421
 30
0.0
 70
     8
  0
VERTEX
  5
51A
330
4FB
100
AcDbEntity
  8
IMAGE
100
AcDbVertex
100
AcDb2dVertex
 10
6.770450017089555
 20
6.447435796806089
 30
0.0
 70
     8
  0
VERTEX
  5
51B
330
4FB
100
AcDbEntity
  8
IMAGE
100
AcDbVertex
100
AcDb2dVertex
 10
6.793256408209216
 20
6.463333847244899
 30
0.0
 70
     8
  0
VERTEX
  5
51C
330
4FB
100
AcDbEntity
  8
IMAGE
100
AcDbVertex
100
AcDb2dVertex
 10
6.815708394328273
 20
6.477760595395401
 30
0.0
 70
     8
  0
VERTEX
  5
51D
330
4FB
100
AcDbEntity
  8
IMAGE
100
AcDbVertex
100
AcDb2dVertex
 10
6.838116189126843
 20
6.491244499399139
 30
0.0
 70
     8
  0
VERTEX
  5
51E
330
4FB
100
AcDbEntity
  8
IMAGE
100
AcDbVertex
100
AcDb2dVertex
 10
6.860712733647987
 20
6.504208298801212
 30
0.0
 70
     8
  0
VERTEX
  5
51F
330
4FB
100
AcDbEntity
  8
IMAGE
100
AcDbVertex
100
AcDb2dVertex
 10
6.883421878386553
 20
6.516651858760943
 30
0.0
 70
     8
  0
VERTEX
  5
520
330
4FB
100
AcDbEntity
  8
IMAGE
100
AcDbVertex
100
AcDb2dVertex
 10
6.906090201200338
 20
6.528469325841196
 30
0.0
 70
     8
  0
VERTEX
  5
521
330
4FB
100
AcDbEntity
  8
IMAGE
100
AcDbVertex
100
AcDb2dVertex
 10
6.928564279947134
 20
6.539554846604839
 30
0.0
 70
     8
  0
VERTEX
  5
522
330
4FB
100
AcDbEntity
  8
IMAGE
100
AcDbVertex
100
AcDb2dVertex
 10
6.950690692484738
 20
6.549802567614743
 30
0.0
 70
     8
  0
VERTEX
  5
523
330
4FB
100
AcDbEntity
  8
IMAGE
100
AcDbVertex
100
AcDb2dVertex
 10
6.972316016670945
 20
6.559106635433773
 30
0.0
 70
     8
  0
VERTEX
  5
524
330
4FB
100
AcDbEntity
  8
IMAGE
100
AcDbVertex
100
AcDb2dVertex
 10
6.99328683036355
 20
6.567361196624807
 30
0.0
 70
     8
  0
VERTEX
  5
525
330
4FB
100
AcDbEntity
  8
IMAGE
100
AcDbVertex
100
AcDb2dVertex
 10
7.013449711420347
 20
6.574460397750704
 30
0.0
 70
     8
  0
VERTEX
  5
526
330
4FB
100
AcDbEntity
  8
IMAGE
100
AcDbVertex
100
AcDb2dVertex
 10
7.032664712535233
 20
6.580334795694088
 30
0.0
 70
     8
  0
VERTEX
  5
527
330
4FB
100
AcDbEntity
  8
IMAGE
100
AcDbVertex
100
AcDb2dVertex
 10
7.050845785746506
 20
6.58506058861658
 30
0.0
 70
     8
  0
VERTEX
  5
528
330
4FB
100
AcDbEntity
  8
IMAGE
100
AcDbVertex
100
AcDb2dVertex
 10
7.067920357928571
 20
6.588750384999545
 30
0.0
 70
     8
  0
VERTEX
  5
529
330
4FB
100
AcDbEntity
  8
IMAGE
100
AcDbVertex
100
AcDb2dVertex
 10
7.083815855955826
 20
6.591516793324355
 30
0.0
 70
     8
  0
VERTEX
  5
52A
330
4FB
100
AcDbEntity
  8
IMAGE
100
AcDbVertex
100
AcDb2dVertex
 10
7.098459706702675
 20
6.593472422072379
 30
0.0
 70
     8
  0
VERTEX
  5
52B
330
4FB
100
AcDbEntity
  8
IMAGE
100
AcDbVertex
100
AcDb2dVertex
 10
7.111779337043516
 20
6.594729879724986
 30
0.0
 70
     8
  0
VERTEX
  5
52C
330
4FB
100
AcDbEntity
  8
IMAGE
100
AcDbVertex
100
AcDb2dVertex
 10
7.123702173852753
 20
6.595401774763547
 30
0.0
 70
     8
  0
VERTEX
  5
52D
330
4FB
100
AcDbEntity
  8
IMAGE
100
AcDbVertex
100
AcDb2dVertex
 10
7.134155644004787
 20
6.595600715669429
 30
0.0
 70
     8
  0
VERTEX
  5
52E
330
4FB
100
AcDbEntity
  8
IMAGE
100
AcDbVertex
100
AcDb2dVertex
 10
6.149662833415914
 20
5.325562004624408
 30
0.0
 70
    16
  0
VERTEX
  5
52F
330
4FB
100
AcDbEntity
  8
IMAGE
100
AcDbVertex
100
AcDb2dVertex
 10
6.187060335005051
 20
5.605917516078387
 30
0.0
 70
    16
  0
VERTEX
  5
530
330
4FB
100
AcDbEntity
  8
IMAGE
100
AcDbVertex
100
AcDb2dVertex
 10
6.350674415930247
 20
5.961034485340838
 30
0.0
 70
    16
  0
VERTEX
  5
531
330
4FB
100
AcDbEntity
  8
IMAGE
100
AcDbVertex
100
AcDb2dVertex
 10
6.663878503211989
 20
6.376895187467574
 30
0.0
 70
    16
  0
VERTEX
  5
532
330
4FB
100
AcDbEntity
  8
IMAGE
100
AcDbVertex
100
AcDb2dVertex
 10
6.835278617290812
 20
6.4956646167881
 30
0.0
 70
    16
  0
VERTEX
  5
533
330
4FB
100
AcDbEntity
  8
IMAGE
100
AcDbVertex
100
AcDb2dVertex
 10
7.023704162385814
 20
6.587913341774853
 30
0.0
 70
    16
  0
VERTEX
  5
534
330
4FB
100
AcDbEntity
  8
IMAGE
100
AcDbVertex
100
AcDb2dVertex
 10
7.108303388587279
 20
6.595600715669429
 30
0.0
 70
    16
  0
VERTEX
  5
535
330
4FB
100
AcDbEntity
  8
IMAGE
100
AcDbVertex
100
AcDb2dVertex
 10
7.134155644004787
 20
6.595600715669429
 30
0.0
 70
    16
  0
SEQEND
  5
536
330
4FB
100
AcDbEntity
  8
IMAGE
  0
POLYLINE
  5
537
330
2
100
AcDbEntity
  8
IMAGE
100
AcDb2dPolyline
 66
     1
 10
0.0
 20
0.0
 30
0.0
 70
     4
 75
     6
  0
VERTEX
  5
538
330
537
100
AcDbEntity
  8
IMAGE
100
AcDbVertex
100
AcDb2dVertex
 10
6.053551052700276
 20
4.906384684082733
 30
0.0
 70
    16
  0
VERTEX
  5
539
330
537
100
AcDbEntity
  8
IMAGE
100
AcDbVertex
100
AcDb2dVertex
 10
6.053551052700276
 20
4.906384684082733
 30
0.0
 70
     8
  0
VERTEX
  5
53A
330
537
100
AcDbEntity
  8
IMAGE
100
AcDbVertex
100
AcDb2dVertex
 10
6.07406240760532
 20
5.05279879361809
 30
0.0
 70
     8
  0
VERTEX
  5
53B
330
537
100
AcDbEntity
  8
IMAGE
100
AcDbVertex
100
AcDb2dVertex
 10
6.091477135141492
 20
5.176009938250301
 30
0.0
 70
     8
  0
VERTEX
  5
53C
330
537
100
AcDbEntity
  8
IMAGE
100
AcDbVertex
100
AcDb2dVertex
 10
6.10648411006497
 20
5.279188061930599
 30
0.0
 70
     8
  0
VERTEX
  5
53D
330
537
100
AcDbEntity
  8
IMAGE
100
AcDbVertex
100
AcDb2dVertex
 10
6.119772207131934
 20
5.365503108610204
 30
0.0
 70
     8
  0
VERTEX
  5
53E
330
537
100
AcDbEntity
  8
IMAGE
100
AcDbVertex
100
AcDb2dVertex
 10
6.132030301098564
 20
5.438125022240334
 30
0.0
 70
     8
  0
VERTEX
  5
53F
330
537
100
AcDbEntity
  8
IMAGE
100
AcDbVertex
100
AcDb2dVertex
 10
6.143947266721037
 20
5.500223746772216
 30
0.0
 70
     8
  0
VERTEX
  5
540
330
537
100
AcDbEntity
  8
IMAGE
100
AcDbVertex
100
AcDb2dVertex
 10
6.156211978755535
 20
5.554969226157076
 30
0.0
 70
     8
  0
VERTEX
  5
541
330
537
100
AcDbEntity
  8
IMAGE
100
AcDbVertex
100
AcDb2dVertex
 10
6.169513311958233
 20
5.605531404346129
 30
0.0
 70
     8
  0
VERTEX
  5
542
330
537
100
AcDbEntity
  8
IMAGE
100
AcDbVertex
100
AcDb2dVertex
 10
6.184438719707959
 20
5.654592545528784
 30
0.0
 70
     8
  0
VERTEX
  5
543
330
537
100
AcDbEntity
  8
IMAGE
100
AcDbVertex
100
AcDb2dVertex
 10
6.201169969874117
 20
5.702884194847174
 30
0.0
 70
     8
  0
VERTEX
  5
544
330
537
100
AcDbEntity
  8
IMAGE
100
AcDbVertex
100
AcDb2dVertex
 10
6.21978740894876
 20
5.750650217681608
 30
0.0
 70
     8
  0
VERTEX
  5
545
330
537
100
AcDbEntity
  8
IMAGE
100
AcDbVertex
100
AcDb2dVertex
 10
6.240371383423939
 20
5.798134479412396
 30
0.0
 70
     8
  0
VERTEX
  5
546
330
537
100
AcDbEntity
  8
IMAGE
100
AcDbVertex
100
AcDb2dVertex
 10
6.263002239791707
 20
5.845580845419852
 30
0.0
 70
     8
  0
VERTEX
  5
547
330
537
100
AcDbEntity
  8
IMAGE
100
AcDbVertex
100
AcDb2dVertex
 10
6.287760324544115
 20
5.89323318108429
 30
0.0
 70
     8
  0
VERTEX
  5
548
330
537
100
AcDbEntity
  8
IMAGE
100
AcDbVertex
100
AcDb2dVertex
 10
6.314725984173215
 20
5.941335351786018
 30
0.0
 70
     8
  0
VERTEX
  5
549
330
537
100
AcDbEntity
  8
IMAGE
100
AcDbVertex
100
AcDb2dVertex
 10
6.343979565171058
 20
5.99013122290535
 30
0.0
 70
     8
  0
VERTEX
  5
54A
330
537
100
AcDbEntity
  8
IMAGE
100
AcDbVertex
100
AcDb2dVertex
 10
6.375492921296953
 20
6.039706814209618
 30
0.0
 70
     8
  0
VERTEX
  5
54B
330
537
100
AcDbEntity
  8
IMAGE
100
AcDbVertex
100
AcDb2dVertex
 10
6.40880393537924
 20
6.089516763014262
 30
0.0
 70
     8
  0
VERTEX
  5
54C
330
537
100
AcDbEntity
  8
IMAGE
100
AcDbVertex
100
AcDb2dVertex
 10
6.443341997513512
 20
6.138857861021729
 30
0.0
 70
     8
  0
VERTEX
  5
54D
330
537
100
AcDbEntity
  8
IMAGE
100
AcDbVertex
100
AcDb2dVertex
 10
6.478536497795366
 20
6.187026899934479
 30
0.0
 70
     8
  0
VERTEX
  5
54E
330
537
100
AcDbEntity
  8
IMAGE
100
AcDbVertex
100
AcDb2dVertex
 10
6.513816826320397
 20
6.233320671454964
 30
0.0
 70
     8
  0
VERTEX
  5
54F
330
537
100
AcDbEntity
  8
IMAGE
100
AcDbVertex
100
AcDb2dVertex
 10
6.5486123731842
 20
6.27703596728564
 30
0.0
 70
     8
  0
VERTEX
  5
550
330
537
100
AcDbEntity
  8
IMAGE
100
AcDbVertex
100
AcDb2dVertex
 10
6.58235252848237
 20
6.317469579128963
 30
0.0
 70
     8
  0
VERTEX
  5
551
330
537
100
AcDbEntity
  8
IMAGE
100
AcDbVertex
100
AcDb2dVertex
 10
6.614466682310504
 20
6.353918298687392
 30
0.0
 70
     8
  0
VERTEX
  5
552
330
537
100
AcDbEntity
  8
IMAGE
100
AcDbVertex
100
AcDb2dVertex
 10
6.64453110107209
 20
6.385884908408367
 30
0.0
 70
     8
  0
VERTEX
  5
553
330
537
100
AcDbEntity
  8
IMAGE
100
AcDbVertex
100
AcDb2dVertex
 10
6.6727095564022
 20
6.413696153719327
 30
0.0
 70
     8
  0
VERTEX
  5
554
330
537
100
AcDbEntity
  8
IMAGE
100
AcDbVertex
100
AcDb2dVertex
 10
6.699312696243798
 20
6.437884770792698
 30
0.0
 70
     8
  0
VERTEX
  5
555
330
537
100
AcDbEntity
  8
IMAGE
100
AcDbVertex
100
AcDb2dVertex
 10
6.724651168539849
 20
6.458983495800899
 30
0.0
 70
     8
  0
VERTEX
  5
556
330
537
100
AcDbEntity
  8
IMAGE
100
AcDbVertex
100
AcDb2dVertex
 10
6.749035621233318
 20
6.477525064916366
 30
0.0
 70
     8
  0
VERTEX
  5
557
330
537
100
AcDbEntity
  8
IMAGE
100
AcDbVertex
100
AcDb2dVertex
 10
6.77277670226717
 20
6.494042214311515
 30
0.0
 70
     8
  0
VERTEX
  5
558
330
537
100
AcDbEntity
  8
IMAGE
100
AcDbVertex
100
AcDb2dVertex
 10
6.796185059584368
 20
6.509067680158778
 30
0.0
 70
     8
  0
VERTEX
  5
559
330
537
100
AcDbEntity
  8
IMAGE
100
AcDbVertex
100
AcDb2dVertex
 10
6.819571341127881
 20
6.523134198630581
 30
0.0
 70
     8
  0
VERTEX
  5
55A
330
537
100
AcDbEntity
  8
IMAGE
100
AcDbVertex
100
AcDb2dVertex
 10
6.843169702592342
 20
6.536667319582408
 30
0.0
 70
     8
  0
VERTEX
  5
55B
330
537
100
AcDbEntity
  8
IMAGE
100
AcDbVertex
100
AcDb2dVertex
 10
6.866908330679069
 20
6.549663847601997
 30
0.0
 70
     8
  0
VERTEX
  5
55C
330
537
100
AcDbEntity
  8
IMAGE
100
AcDbVertex
100
AcDb2dVertex
 10
6.890638919841052
 20
6.562013400960146
 30
0.0
 70
     8
  0
VERTEX
  5
55D
330
537
100
AcDbEntity
  8
IMAGE
100
AcDbVertex
100
AcDb2dVertex
 10
6.914213164531278
 20
6.573605597927648
 30
0.0
 70
     8
  0
VERTEX
  5
55E
330
537
100
AcDbEntity
  8
IMAGE
100
AcDbVertex
100
AcDb2dVertex
 10
6.937482759202738
 20
6.584330056775306
 30
0.0
 70
     8
  0
VERTEX
  5
55F
330
537
100
AcDbEntity
  8
IMAGE
100
AcDbVertex
100
AcDb2dVertex
 10
6.960299398308419
 20
6.594076395773917
 30
0.0
 70
     8
  0
VERTEX
  5
560
330
537
100
AcDbEntity
  8
IMAGE
100
AcDbVertex
100
AcDb2dVertex
 10
6.98251477630131
 20
6.602734233194275
 30
0.0
 70
     8
  0
VERTEX
  5
561
330
537
100
AcDbEntity
  8
IMAGE
100
AcDbVertex
100
AcDb2dVertex
 10
7.0039805876344
 20
6.610193187307177
 30
0.0
 70
     8
  0
VERTEX
  5
562
330
537
100
AcDbEntity
  8
IMAGE
100
AcDbVertex
100
AcDb2dVertex
 10
7.02455483463392
 20
6.616380291055707
 30
0.0
 70
     8
  0
VERTEX
  5
563
330
537
100
AcDbEntity
  8
IMAGE
100
AcDbVertex
100
AcDb2dVertex
 10
7.044120751119068
 20
6.621372236072075
 30
0.0
 70
     8
  0
VERTEX
  5
564
330
537
100
AcDbEntity
  8
IMAGE
100
AcDbVertex
100
AcDb2dVertex
 10
7.062567878782283
 20
6.625283128660774
 30
0.0
 70
     8
  0
VERTEX
  5
565
330
537
100
AcDbEntity
  8
IMAGE
100
AcDbVertex
100
AcDb2dVertex
 10
7.079785759316008
 20
6.628227075126299
 30
0.0
 70
     8
  0
VERTEX
  5
566
330
537
100
AcDbEntity
  8
IMAGE
100
AcDbVertex
100
AcDb2dVertex
 10
7.09566393441268
 20
6.630318181773144
 30
0.0
 70
     8
  0
VERTEX
  5
567
330
537
100
AcDbEntity
  8
IMAGE
100
AcDbVertex
100
AcDb2dVertex
 10
7.11009194576474
 20
6.631670554905801
 30
0.0
 70
     8
  0
VERTEX
  5
568
330
537
100
AcDbEntity
  8
IMAGE
100
AcDbVertex
100
AcDb2dVertex
 10
7.12295933506463
 20
6.632398300828767
 30
0.0
 70
     8
  0
VERTEX
  5
569
330
537
100
AcDbEntity
  8
IMAGE
100
AcDbVertex
100
AcDb2dVertex
 10
7.134155644004787
 20
6.632615525846534
 30
0.0
 70
     8
  0
VERTEX
  5
56A
330
537
100
AcDbEntity
  8
IMAGE
100
AcDbVertex
100
AcDb2dVertex
 10
6.112989168722158
 20
5.330577324004507
 30
0.0
 70
    16
  0
VERTEX
  5
56B
330
537
100
AcDbEntity
  8
IMAGE
100
AcDbVertex
100
AcDb2dVertex
 10
6.151108022098168
 20
5.616340548288312
 30
0.0
 70
    16
  0
VERTEX
  5
56C
330
537
100
AcDbEntity
  8
IMAGE
100
AcDbVertex
100
AcDb2dVertex
 10
6.318718041322574
 20
5.980130521060917
 30
0.0
 70
    16
  0
VERTEX
  5
56D
330
537
100
AcDbEntity
  8
IMAGE
100
AcDbVertex
100
AcDb2dVertex
 10
6.637897203637882
 20
6.403924704900116
 30
0.0
 70
    16
  0
VERTEX
  5
56E
330
537
100
AcDbEntity
  8
IMAGE
100
AcDbVertex
100
AcDb2dVertex
 10
6.816493237988918
 20
6.527680451462962
 30
0.0
 70
    16
  0
VERTEX
  5
56F
330
537
100
AcDbEntity
  8
IMAGE
100
AcDbVertex
100
AcDb2dVertex
 10
7.013557891173729
 20
6.624158681031516
 30
0.0
 70
    16
  0
VERTEX
  5
570
330
537
100
AcDbEntity
  8
IMAGE
100
AcDbVertex
100
AcDb2dVertex
 10
7.106625112472951
 20
6.632615525846534
 30
0.0
 70
    16
  0
VERTEX
  5
571
330
537
100
AcDbEntity
  8
IMAGE
100
AcDbVertex
100
AcDb2dVertex
 10
7.134155644004787
 20
6.632615525846534
 30
0.0
 70
    16
  0
SEQEND
  5
572
330
537
100
AcDbEntity
  8
IMAGE
  0
POLYLINE
  5
573
330
2
100
AcDbEntity
  8
IMAGE
100
AcDb2dPolyline
 66
     1
 10
0.0
 20
0.0
 30
0.0
 70
     4
 75
     6
  0
VERTEX
  5
574
330
573
100
AcDbEntity
  8
IMAGE
100
AcDbVertex
100
AcDb2dVertex
 10
7.500609052433011
 20
6.595313205276915
 30
0.0
 70
    16
  0
VERTEX
  5
575
330
573
100
AcDbEntity
  8
IMAGE
100
AcDbVertex
100
AcDb2dVertex
 10
7.500609052433011
 20
6.595313205276915
 30
0.0
 70
     8
  0
VERTEX
  5
576
330
573
100
AcDbEntity
  8
IMAGE
100
AcDbVertex
100
AcDb2dVertex
 10
7.522798246005711
 20
6.59533488885918
 30
0.0
 70
     8
  0
VERTEX
  5
577
330
573
100
AcDbEntity
  8
IMAGE
100
AcDbVertex
100
AcDb2dVertex
 10
7.547698231990647
 20
6.595359486547471
 30
0.0
 70
     8
  0
VERTEX
  5
578
330
573
100
AcDbEntity
  8
IMAGE
100
AcDbVertex
100
AcDb2dVertex
 10
7.575446572256252
 20
6.595326318754042
 30
0.0
 70
     8
  0
VERTEX
  5
579
330
573
100
AcDbEntity
  8
IMAGE
100
AcDbVertex
100
AcDb2dVertex
 10
7.606180828670958
 20
6.595174705891149
 30
0.0
 70
     8
  0
VERTEX
  5
57A
330
573
100
AcDbEntity
  8
IMAGE
100
AcDbVertex
100
AcDb2dVertex
 10
7.6400385631032
 20
6.59484396837104
 30
0.0
 70
     8
  0
VERTEX
  5
57B
330
573
100
AcDbEntity
  8
IMAGE
100
AcDbVertex
100
AcDb2dVertex
 10
7.67715733742141
 20
6.594273426605968
 30
0.0
 70
     8
  0
VERTEX
  5
57C
330
573
100
AcDbEntity
  8
IMAGE
100
AcDbVertex
100
AcDb2dVertex
 10
7.71767471349402
 20
6.593402401008183
 30
0.0
 70
     8
  0
VERTEX
  5
57D
330
573
100
AcDbEntity
  8
IMAGE
100
AcDbVertex
100
AcDb2dVertex
 10
7.761728253189463
 20
6.59217021198994
 30
0.0
 70
     8
  0
VERTEX
  5
57E
330
573
100
AcDbEntity
  8
IMAGE
100
AcDbVertex
100
AcDb2dVertex
 10
7.809347925830155
 20
6.590528580827622
 30
0.0
 70
     8
  0
VERTEX
  5
57F
330
573
100
AcDbEntity
  8
IMAGE
100
AcDbVertex
100
AcDb2dVertex
 10
7.860133330554434
 20
6.588478832254124
 30
0.0
 70
     8
  0
VERTEX
  5
580
330
573
100
AcDbEntity
  8
IMAGE
100
AcDbVertex
100
AcDb2dVertex
 10
7.913576473954622
 20
6.586034691866472
 30
0.0
 70
     8
  0
VERTEX
  5
581
330
573
100
AcDbEntity
  8
IMAGE
100
AcDbVertex
100
AcDb2dVertex
 10
7.969169362623039
 20
6.583209885261694
 30
0.0
 70
     8
  0
VERTEX
  5
582
330
573
100
AcDbEntity
  8
IMAGE
100
AcDbVertex
100
AcDb2dVertex
 10
8.026404003152006
 20
6.580018138036815
 30
0.0
 70
     8
  0
VERTEX
  5
583
330
573
100
AcDbEntity
  8
IMAGE
100
AcDbVertex
100
AcDb2dVertex
 10
8.084772402133843
 20
6.576473175788861
 30
0.0
 70
     8
  0
VERTEX
  5
584
330
573
100
AcDbEntity
  8
IMAGE
100
AcDbVertex
100
AcDb2dVertex
 10
8.143766566160874
 20
6.572588724114864
 30
0.0
 70
     8
  0
VERTEX
  5
585
330
573
100
AcDbEntity
  8
IMAGE
100
AcDbVertex
100
AcDb2dVertex
 10
8.202878501825413
 20
6.568378508611842
 30
0.0
 70
     8
  0
VERTEX
  5
586
330
573
100
AcDbEntity
  8
IMAGE
100
AcDbVertex
100
AcDb2dVertex
 10
8.26170114052816
 20
6.56384746653899
 30
0.0
 70
     8
  0
VERTEX
  5
587
330
573
100
AcDbEntity
  8
IMAGE
100
AcDbVertex
100
AcDb2dVertex
 10
8.320231112903279
 20
6.558965381804145
 30
0.0
 70
     8
  0
VERTEX
  5
588
330
573
100
AcDbEntity
  8
IMAGE
100
AcDbVertex
100
AcDb2dVertex
 10
8.378565974393314
 20
6.553693249977313
 30
0.0
 70
     8
  0
VERTEX
  5
589
330
573
100
AcDbEntity
  8
IMAGE
100
AcDbVertex
100
AcDb2dVertex
 10
8.436803280440809
 20
6.547992066628494
 30
0.0
 70
     8
  0
VERTEX
  5
58A
330
573
100
AcDbEntity
  8
IMAGE
100
AcDbVertex
100
AcDb2dVertex
 10
8.495040586488306
 20
6.541822827327687
 30
0.0
 70
     8
  0
VERTEX
  5
58B
330
573
100
AcDbEntity
  8
IMAGE
100
AcDbVertex
100
AcDb2dVertex
 10
8.553375447978341
 20
6.535146527644903
 30
0.0
 70
     8
  0
VERTEX
  5
58C
330
573
100
AcDbEntity
  8
IMAGE
100
AcDbVertex
100
AcDb2dVertex
 10
8.611905420353462
 20
6.527924163150138
 30
0.0
 70
     8
  0
VERTEX
  5
58D
330
573
100
AcDbEntity
  8
IMAGE
100
AcDbVertex
100
AcDb2dVertex
 10
8.670728059056207
 20
6.520116729413394
 30
0.0
 70
     8
  0
VERTEX
  5
58E
330
573
100
AcDbEntity
  8
IMAGE
100
AcDbVertex
100
AcDb2dVertex
 10
8.729862875216912
 20
6.511706349462424
 30
0.0
 70
     8
  0
VERTEX
  5
58F
330
573
100
AcDbEntity
  8
IMAGE
100
AcDbVertex
100
AcDb2dVertex
 10
8.789017202717094
 20
6.502759656155975
 30
0.0
 70
     8
  0
VERTEX
  5
590
330
573
100
AcDbEntity
  8
IMAGE
100
AcDbVertex
100
AcDb2dVertex
 10
8.847820331126055
 20
6.493364409810548
 30
0.0
 70
     8
  0
VERTEX
  5
591
330
573
100
AcDbEntity
  8
IMAGE
100
AcDbVertex
100
AcDb2dVertex
 10
8.905901550013105
 20
6.483608370742632
 30
0.0
 70
     8
  0
VERTEX
  5
592
330
573
100
AcDbEntity
  8
IMAGE
100
AcDbVertex
100
AcDb2dVertex
 10
8.962890148947552
 20
6.473579299268727
 30
0.0
 70
     8
  0
VERTEX
  5
593
330
573
100
AcDbEntity
  8
IMAGE
100
AcDbVertex
100
AcDb2dVertex
 10
9.018415417498705
 20
6.463364955705325
 30
0.0
 70
     8
  0
VERTEX
  5
594
330
573
100
AcDbEntity
  8
IMAGE
100
AcDbVertex
100
AcDb2dVertex
 10
9.072106645235866
 20
6.453053100368928
 30
0.0
 70
     8
  0
VERTEX
  5
595
330
573
100
AcDbEntity
  8
IMAGE
100
AcDbVertex
100
AcDb2dVertex
 10
9.123593121728347
 20
6.442731493576029
 30
0.0
 70
     8
  0
VERTEX
  5
596
330
573
100
AcDbEntity
  8
IMAGE
100
AcDbVertex
100
AcDb2dVertex
 10
9.172590310447997
 20
6.432463517777434
 30
0.0
 70
     8
  0
VERTEX
  5
597
330
573
100
AcDbEntity
  8
IMAGE
100
AcDbVertex
100
AcDb2dVertex
 10
9.219158370476822
 20
6.422215043961169
 30
0.0
 70
     8
  0
VERTEX
  5
598
330
573
100
AcDbEntity
  8
IMAGE
100
AcDbVertex
100
AcDb2dVertex
 10
9.263443634799376
 20
6.411927565249569
 30
0.0
 70
     8
  0
VERTEX
  5
599
330
573
100
AcDbEntity
  8
IMAGE
100
AcDbVertex
100
AcDb2dVertex
 10
9.30559243640021
 20
6.401542574764973
 30
0.0
 70
     8
  0
VERTEX
  5
59A
330
573
100
AcDbEntity
  8
IMAGE
100
AcDbVertex
100
AcDb2dVertex
 10
9.345751108263876
 20
6.391001565629717
 30
0.0
 70
     8
  0
VERTEX
  5
59B
330
573
100
AcDbEntity
  8
IMAGE
100
AcDbVertex
100
AcDb2dVertex
 10
9.384065983374922
 20
6.380246030966133
 30
0.0
 70
     8
  0
VERTEX
  5
59C
330
573
100
AcDbEntity
  8
IMAGE
100
AcDbVertex
100
AcDb2dVertex
 10
9.420683394717904
 20
6.36921746389656
 30
0.0
 70
     8
  0
VERTEX
  5
59D
330
573
100
AcDbEntity
  8
IMAGE
100
AcDbVertex
100
AcDb2dVertex
 10
9.45574967527737
 20
6.357857357543333
 30
0.0
 70
     8
  0
VERTEX
  5
59E
330
573
100
AcDbEntity
  8
IMAGE
100
AcDbVertex
100
AcDb2dVertex
 10
9.489372948876654
 20
6.346112893184524
 30
0.0
 70
     8
  0
VERTEX
  5
59F
330
573
100
AcDbEntity
  8
IMAGE
100
AcDbVertex
100
AcDb2dVertex
 10
9.521508502694222
 20
6.333954004721149
 30
0.0
 70
     8
  0
VERTEX
  5
5A0
330
573
100
AcDbEntity
  8
IMAGE
100
AcDbVertex
100
AcDb2dVertex
 10
9.552073414747326
 20
6.321356314209956
 30
0.0
 70
     8
  0
VERTEX
  5
5A1
330
573
100
AcDbEntity
  8
IMAGE
100
AcDbVertex
100
AcDb2dVertex
 10
9.58098476305321
 20
6.308295443707694
 30
0.0
 70
     8
  0
VERTEX
  5
5A2
330
573
100
AcDbEntity
  8
IMAGE
100
AcDbVertex
100
AcDb2dVertex
 10
9.608159625629124
 20
6.294747015271119
 30
0.0
 70
     8
  0
VERTEX
  5
5A3
330
573
100
AcDbEntity
  8
IMAGE
100
AcDbVertex
100
AcDb2dVertex
 10
9.633515080492317
 20
6.280686650956982
 30
0.0
 70
     8
  0
VERTEX
  5
5A4
330
573
100
AcDbEntity
  8
IMAGE
100
AcDbVertex
100
AcDb2dVertex
 10
9.656968205660039
 20
6.266089972822025
 30
0.0
 70
     8
  0
VERTEX
  5
5A5
330
573
100
AcDbEntity
  8
IMAGE
100
AcDbVertex
100
AcDb2dVertex
 10
9.678436079149536
 20
6.25093260292301
 30
0.0
 70
     8
  0
VERTEX
  5
5A6
330
573
100
AcDbEntity
  8
IMAGE
100
AcDbVertex
100
AcDb2dVertex
 10
9.697829275257987
 20
6.235248114459657
 30
0.0
 70
     8
  0
VERTEX
  5
5A7
330
573
100
AcDbEntity
  8
IMAGE
100
AcDbVertex
100
AcDb2dVertex
 10
9.715032353402287
 20
6.219301885203612
 30
0.0
 70
     8
  0
VERTEX
  5
5A8
330
573
100
AcDbEntity
  8
IMAGE
100
AcDbVertex
100
AcDb2dVertex
 10
9.729923369279257
 20
6.203417244069497
 30
0.0
 70
     8
  0
VERTEX
  5
5A9
330
573
100
AcDbEntity
  8
IMAGE
100
AcDbVertex
100
AcDb2dVertex
 10
9.742380378585719
 20
6.187917519971935
 30
0.0
 70
     8
  0
VERTEX
  5
5AA
330
573
100
AcDbEntity
  8
IMAGE
100
AcDbVertex
100
AcDb2dVertex
 10
9.752281437018499
 20
6.173126041825542
 30
0.0
 70
     8
  0
VERTEX
  5
5AB
330
573
100
AcDbEntity
  8
IMAGE
100
AcDbVertex
100
AcDb2dVertex
 10
9.75950460027442
 20
6.159366138544942
 30
0.0
 70
     8
  0
VERTEX
  5
5AC
330
573
100
AcDbEntity
  8
IMAGE
100
AcDbVertex
100
AcDb2dVertex
 10
9.7639279240503
 20
6.146961139044754
 30
0.0
 70
     8
  0
VERTEX
  5
5AD
330
573
100
AcDbEntity
  8
IMAGE
100
AcDbVertex
100
AcDb2dVertex
 10
9.765429464042966
 20
6.136234372239601
 30
0.0
 70
     8
  0
VERTEX
  5
5AE
330
573
100
AcDbEntity
  8
IMAGE
100
AcDbVertex
100
AcDb2dVertex
 10
7.556288122626948
 20
6.595313205276915
 30
0.0
 70
    16
  0
VERTEX
  5
5AF
330
573
100
AcDbEntity
  8
IMAGE
100
AcDbVertex
100
AcDb2dVertex
 10
7.722541847949285
 20
6.596669870744142
 30
0.0
 70
    16
  0
VERTEX
  5
5B0
330
573
100
AcDbEntity
  8
IMAGE
100
AcDbVertex
100
AcDb2dVertex
 10
8.207040867373859
 20
6.57170691641978
 30
0.0
 70
    16
  0
VERTEX
  5
5B1
330
573
100
AcDbEntity
  8
IMAGE
100
AcDbVertex
100
AcDb2dVertex
 10
8.666565693507761
 20
6.526773515247792
 30
0.0
 70
    16
  0
VERTEX
  5
5B2
330
573
100
AcDbEntity
  8
IMAGE
100
AcDbVertex
100
AcDb2dVertex
 10
9.151064712932335
 20
6.441899399069415
 30
0.0
 70
    16
  0
VERTEX
  5
5B3
330
573
100
AcDbEntity
  8
IMAGE
100
AcDbVertex
100
AcDb2dVertex
 10
9.470734185132986
 20
6.362017849930729
 30
0.0
 70
    16
  0
VERTEX
  5
5B4
330
573
100
AcDbEntity
  8
IMAGE
100
AcDbVertex
100
AcDb2dVertex
 10
9.700496598199936
 20
6.25717334646768
 30
0.0
 70
    16
  0
VERTEX
  5
5B5
330
573
100
AcDbEntity
  8
IMAGE
100
AcDbVertex
100
AcDb2dVertex
 10
9.765429464042966
 20
6.162314036646967
 30
0.0
 70
    16
  0
VERTEX
  5
5B6
330
573
100
AcDbEntity
  8
IMAGE
100
AcDbVertex
100
AcDb2dVertex
 10
9.765429464042966
 20
6.136234372239601
 30
0.0
 70
    16
  0
SEQEND
  5
5B7
330
573
100
AcDbEntity
  8
IMAGE
  0
POLYLINE
  5
5B8
330
2
100
AcDbEntity
  8
IMAGE
100
AcDb2dPolyline
 66
     1
 10
0.0
 20
0.0
 30
0.0
 70
     4
 75
     6
  0
VERTEX
  5
5B9
330
5B8
100
AcDbEntity
  8
IMAGE
100
AcDbVertex
100
AcDb2dVertex
 10
7.500609052433011
 20
6.63232801545402
 30
0.0
 70
    16
  0
VERTEX
  5
5BA
330
5B8
100
AcDbEntity
  8
IMAGE
100
AcDbVertex
100
AcDb2dVertex
 10
7.500609052433011
 20
6.63232801545402
 30
0.0
 70
     8
  0
VERTEX
  5
5BB
330
5B8
100
AcDbEntity
  8
IMAGE
100
AcDbVertex
100
AcDb2dVertex
 10
7.522769972946445
 20
6.632349837159735
 30
0.0
 70
     8
  0
VERTEX
  5
5BC
330
5B8
100
AcDbEntity
  8
IMAGE
100
AcDbVertex
100
AcDb2dVertex
 10
7.547694184993123
 20
6.63237467263801
 30
0.0
 70
     8
  0
VERTEX
  5
5BD
330
5B8
100
AcDbEntity
  8
IMAGE
100
AcDbVertex
100
AcDb2dVertex
 10
7.575512918758377
 20
6.632341577430522
 30
0.0
 70
     8
  0
VERTEX
  5
5BE
330
5B8
100
AcDbEntity
  8
IMAGE
100
AcDbVertex
100
AcDb2dVertex
 10
7.606357404427539
 20
6.632189607078955
 30
0.0
 70
     8
  0
VERTEX
  5
5BF
330
5B8
100
AcDbEntity
  8
IMAGE
100
AcDbVertex
100
AcDb2dVertex
 10
7.640358872185937
 20
6.631857817124998
 30
0.0
 70
     8
  0
VERTEX
  5
5C0
330
5B8
100
AcDbEntity
  8
IMAGE
100
AcDbVertex
100
AcDb2dVertex
 10
7.677648552218905
 20
6.631285263110334
 30
0.0
 70
     8
  0
VERTEX
  5
5C1
330
5B8
100
AcDbEntity
  8
IMAGE
100
AcDbVertex
100
AcDb2dVertex
 10
7.718357674711771
 20
6.630411000576642
 30
0.0
 70
     8
  0
VERTEX
  5
5C2
330
5B8
100
AcDbEntity
  8
IMAGE
100
AcDbVertex
100
AcDb2dVertex
 10
7.762617469849868
 20
6.629174085065609
 30
0.0
 70
     8
  0
VERTEX
  5
5C3
330
5B8
100
AcDbEntity
  8
IMAGE
100
AcDbVertex
100
AcDb2dVertex
 10
7.810452555916153
 20
6.627526014911668
 30
0.0
 70
     8
  0
VERTEX
  5
5C4
330
5B8
100
AcDbEntity
  8
IMAGE
100
AcDbVertex
100
AcDb2dVertex
 10
7.86146110358409
 20
6.625468059620266
 30
0.0
 70
     8
  0
VERTEX
  5
5C5
330
5B8
100
AcDbEntity
  8
IMAGE
100
AcDbVertex
100
AcDb2dVertex
 10
7.915134671624771
 20
6.623013931489594
 30
0.0
 70
     8
  0
VERTEX
  5
5C6
330
5B8
100
AcDbEntity
  8
IMAGE
100
AcDbVertex
100
AcDb2dVertex
 10
7.970964818809289
 20
6.620177342817842
 30
0.0
 70
     8
  0
VERTEX
  5
5C7
330
5B8
100
AcDbEntity
  8
IMAGE
100
AcDbVertex
100
AcDb2dVertex
 10
8.028443103908731
 20
6.616972005903206
 30
0.0
 70
     8
  0
VERTEX
  5
5C8
330
5B8
100
AcDbEntity
  8
IMAGE
100
AcDbVertex
100
AcDb2dVertex
 10
8.087061085694195
 20
6.613411633043877
 30
0.0
 70
     8
  0
VERTEX
  5
5C9
330
5B8
100
AcDbEntity
  8
IMAGE
100
AcDbVertex
100
AcDb2dVertex
 10
8.146310322936766
 20
6.609509936538052
 30
0.0
 70
     8
  0
VERTEX
  5
5CA
330
5B8
100
AcDbEntity
  8
IMAGE
100
AcDbVertex
100
AcDb2dVertex
 10
8.20568237440754
 20
6.605280628683924
 30
0.0
 70
     8
  0
VERTEX
  5
5CB
330
5B8
100
AcDbEntity
  8
IMAGE
100
AcDbVertex
100
AcDb2dVertex
 10
8.264769846274223
 20
6.600728592646464
 30
0.0
 70
     8
  0
VERTEX
  5
5CC
330
5B8
100
AcDbEntity
  8
IMAGE
100
AcDbVertex
100
AcDb2dVertex
 10
8.323569534290996
 20
6.595823395057784
 30
0.0
 70
     8
  0
VERTEX
  5
5CD
330
5B8
100
AcDbEntity
  8
IMAGE
100
AcDbVertex
100
AcDb2dVertex
 10
8.382179281608646
 20
6.590525773416767
 30
0.0
 70
     8
  0
VERTEX
  5
5CE
330
5B8
100
AcDbEntity
  8
IMAGE
100
AcDbVertex
100
AcDb2dVertex
 10
8.440696931377971
 20
6.58479646522231
 30
0.0
 70
     8
  0
VERTEX
  5
5CF
330
5B8
100
AcDbEntity
  8
IMAGE
100
AcDbVertex
100
AcDb2dVertex
 10
8.499220326749767
 20
6.578596207973297
 30
0.0
 70
     8
  0
VERTEX
  5
5D0
330
5B8
100
AcDbEntity
  8
IMAGE
100
AcDbVertex
100
AcDb2dVertex
 10
8.557847310874823
 20
6.57188573916862
 30
0.0
 70
     8
  0
VERTEX
  5
5D1
330
5B8
100
AcDbEntity
  8
IMAGE
100
AcDbVertex
100
AcDb2dVertex
 10
8.616675726903935
 20
6.564625796307164
 30
0.0
 70
     8
  0
VERTEX
  5
5D2
330
5B8
100
AcDbEntity
  8
IMAGE
100
AcDbVertex
100
AcDb2dVertex
 10
8.675803417987896
 20
6.556777116887825
 30
0.0
 70
     8
  0
VERTEX
  5
5D3
330
5B8
100
AcDbEntity
  8
IMAGE
100
AcDbVertex
100
AcDb2dVertex
 10
8.735250607953606
 20
6.548321471195531
 30
0.0
 70
     8
  0
VERTEX
  5
5D4
330
5B8
100
AcDbEntity
  8
IMAGE
100
AcDbVertex
100
AcDb2dVertex
 10
8.794727043332374
 20
6.539324760659403
 30
0.0
 70
     8
  0
VERTEX
  5
5D5
330
5B8
100
AcDbEntity
  8
IMAGE
100
AcDbVertex
100
AcDb2dVertex
 10
8.853864851331618
 20
6.529873919494604
 30
0.0
 70
     8
  0
VERTEX
  5
5D6
330
5B8
100
AcDbEntity
  8
IMAGE
100
AcDbVertex
100
AcDb2dVertex
 10
8.912296159158753
 20
6.520055881916301
 30
0.0
 70
     8
  0
VERTEX
  5
5D7
330
5B8
100
AcDbEntity
  8
IMAGE
100
AcDbVertex
100
AcDb2dVertex
 10
8.969653094021197
 20
6.509957582139651
 30
0.0
 70
     8
  0
VERTEX
  5
5D8
330
5B8
100
AcDbEntity
  8
IMAGE
100
AcDbVertex
100
AcDb2dVertex
 10
9.025567783126362
 20
6.499665954379824
 30
0.0
 70
     8
  0
VERTEX
  5
5D9
330
5B8
100
AcDbEntity
  8
IMAGE
100
AcDbVertex
100
AcDb2dVertex
 10
9.079672353681669
 20
6.489267932851979
 30
0.0
 70
     8
  0
VERTEX
  5
5DA
330
5B8
100
AcDbEntity
  8
IMAGE
100
AcDbVertex
100
AcDb2dVertex
 10
9.131598932894533
 20
6.478850451771285
 30
0.0
 70
     8
  0
VERTEX
  5
5DB
330
5B8
100
AcDbEntity
  8
IMAGE
100
AcDbVertex
100
AcDb2dVertex
 10
9.181067295811253
 20
6.468474946934942
 30
0.0
 70
     8
  0
VERTEX
  5
5DC
330
5B8
100
AcDbEntity
  8
IMAGE
100
AcDbVertex
100
AcDb2dVertex
 10
9.228147808833675
 20
6.458100860468337
 30
0.0
 70
     8
  0
VERTEX
  5
5DD
330
5B8
100
AcDbEntity
  8
IMAGE
100
AcDbVertex
100
AcDb2dVertex
 10
9.272998486202528
 20
6.447662136078895
 30
0.0
 70
     8
  0
VERTEX
  5
5DE
330
5B8
100
AcDbEntity
  8
IMAGE
100
AcDbVertex
100
AcDb2dVertex
 10
9.31577734215854
 20
6.437092717474039
 30
0.0
 70
     8
  0
VERTEX
  5
5DF
330
5B8
100
AcDbEntity
  8
IMAGE
100
AcDbVertex
100
AcDb2dVertex
 10
9.356642390942443
 20
6.426326548361198
 30
0.0
 70
     8
  0
VERTEX
  5
5E0
330
5B8
100
AcDbEntity
  8
IMAGE
100
AcDbVertex
100
AcDb2dVertex
 10
9.395751646794964
 20
6.415297572447793
 30
0.0
 70
     8
  0
VERTEX
  5
5E1
330
5B8
100
AcDbEntity
  8
IMAGE
100
AcDbVertex
100
AcDb2dVertex
 10
9.433263123956836
 20
6.403939733441254
 30
0.0
 70
     8
  0
VERTEX
  5
5E2
330
5B8
100
AcDbEntity
  8
IMAGE
100
AcDbVertex
100
AcDb2dVertex
 10
9.469334836668783
 20
6.392186975049003
 30
0.0
 70
     8
  0
VERTEX
  5
5E3
330
5B8
100
AcDbEntity
  8
IMAGE
100
AcDbVertex
100
AcDb2dVertex
 10
9.504084022756773
 20
6.379974752684328
 30
0.0
 70
     8
  0
VERTEX
  5
5E4
330
5B8
100
AcDbEntity
  8
IMAGE
100
AcDbVertex
100
AcDb2dVertex
 10
9.537464814387703
 20
6.367244568583962
 30
0.0
 70
     8
  0
VERTEX
  5
5E5
330
5B8
100
AcDbEntity
  8
IMAGE
100
AcDbVertex
100
AcDb2dVertex
 10
9.569390567313709
 20
6.353939436690494
 30
0.0
 70
     8
  0
VERTEX
  5
5E6
330
5B8
100
AcDbEntity
  8
IMAGE
100
AcDbVertex
100
AcDb2dVertex
 10
9.599774637286921
 20
6.34000237094652
 30
0.0
 70
     8
  0
VERTEX
  5
5E7
330
5B8
100
AcDbEntity
  8
IMAGE
100
AcDbVertex
100
AcDb2dVertex
 10
9.628530380059475
 20
6.325376385294634
 30
0.0
 70
     8
  0
VERTEX
  5
5E8
330
5B8
100
AcDbEntity
  8
IMAGE
100
AcDbVertex
100
AcDb2dVertex
 10
9.655571151383503
 20
6.310004493677427
 30
0.0
 70
     8
  0
VERTEX
  5
5E9
330
5B8
100
AcDbEntity
  8
IMAGE
100
AcDbVertex
100
AcDb2dVertex
 10
9.680810307011139
 20
6.293829710037491
 30
0.0
 70
     8
  0
VERTEX
  5
5EA
330
5B8
100
AcDbEntity
  8
IMAGE
100
AcDbVertex
100
AcDb2dVertex
 10
9.704161202694516
 20
6.27679504831742
 30
0.0
 70
     8
  0
VERTEX
  5
5EB
330
5B8
100
AcDbEntity
  8
IMAGE
100
AcDbVertex
100
AcDb2dVertex
 10
9.725517371087713
 20
6.258908972763431
 30
0.0
 70
     8
  0
VERTEX
  5
5EC
330
5B8
100
AcDbEntity
  8
IMAGE
100
AcDbVertex
100
AcDb2dVertex
 10
9.744693052452587
 20
6.240441748836249
 30
0.0
 70
     8
  0
VERTEX
  5
5ED
330
5B8
100
AcDbEntity
  8
IMAGE
100
AcDbVertex
100
AcDb2dVertex
 10
9.761482663952945
 20
6.221729092300221
 30
0.0
 70
     8
  0
VERTEX
  5
5EE
330
5B8
100
AcDbEntity
  8
IMAGE
100
AcDbVertex
100
AcDb2dVertex
 10
9.775680622752588
 20
6.203106718919698
 30
0.0
 70
     8
  0
VERTEX
  5
5EF
330
5B8
100
AcDbEntity
  8
IMAGE
100
AcDbVertex
100
AcDb2dVertex
 10
9.787081346015318
 20
6.184910344459022
 30
0.0
 70
     8
  0
VERTEX
  5
5F0
330
5B8
100
AcDbEntity
  8
IMAGE
100
AcDbVertex
100
AcDb2dVertex
 10
9.795479250904939
 20
6.167475684682549
 30
0.0
 70
     8
  0
VERTEX
  5
5F1
330
5B8
100
AcDbEntity
  8
IMAGE
100
AcDbVertex
100
AcDb2dVertex
 10
9.800668754585258
 20
6.151138455354625
 30
0.0
 70
     8
  0
VERTEX
  5
5F2
330
5B8
100
AcDbEntity
  8
IMAGE
100
AcDbVertex
100
AcDb2dVertex
 10
9.802444274220073
 20
6.136234372239601
 30
0.0
 70
     8
  0
VERTEX
  5
5F3
330
5B8
100
AcDbEntity
  8
IMAGE
100
AcDbVertex
100
AcDb2dVertex
 10
7.556137100811467
 20
6.63232801545402
 30
0.0
 70
    16
  0
VERTEX
  5
5F4
330
5B8
100
AcDbEntity
  8
IMAGE
100
AcDbVertex
100
AcDb2dVertex
 10
7.723343839657218
 20
6.633692457712622
 30
0.0
 70
    16
  0
VERTEX
  5
5F5
330
5B8
100
AcDbEntity
  8
IMAGE
100
AcDbVertex
100
AcDb2dVertex
 10
8.209795729081747
 20
6.608628885218446
 30
0.0
 70
    16
  0
VERTEX
  5
5F6
330
5B8
100
AcDbEntity
  8
IMAGE
100
AcDbVertex
100
AcDb2dVertex
 10
8.671567490461034
 20
6.563475773517132
 30
0.0
 70
    16
  0
VERTEX
  5
5F7
330
5B8
100
AcDbEntity
  8
IMAGE
100
AcDbVertex
100
AcDb2dVertex
 10
9.158754817001497
 20
6.478130722039966
 30
0.0
 70
    16
  0
VERTEX
  5
5F8
330
5B8
100
AcDbEntity
  8
IMAGE
100
AcDbVertex
100
AcDb2dVertex
 10
9.483006838900172
 20
6.397104048950708
 30
0.0
 70
    16
  0
VERTEX
  5
5F9
330
5B8
100
AcDbEntity
  8
IMAGE
100
AcDbVertex
100
AcDb2dVertex
 10
9.725226847410517
 20
6.286574932451208
 30
0.0
 70
    16
  0
VERTEX
  5
5FA
330
5B8
100
AcDbEntity
  8
IMAGE
100
AcDbVertex
100
AcDb2dVertex
 10
9.802444274220073
 20
6.17376931824972
 30
0.0
 70
    16
  0
VERTEX
  5
5FB
330
5B8
100
AcDbEntity
  8
IMAGE
100
AcDbVertex
100
AcDb2dVertex
 10
9.802444274220073
 20
6.136234372239601
 30
0.0
 70
    16
  0
SEQEND
  5
5FC
330
5B8
100
AcDbEntity
  8
IMAGE
  0
POLYLINE
  5
5FD
330
2
100
AcDbEntity
  8
IMAGE
100
AcDb2dPolyline
 66
     1
 10
0.0
 20
0.0
 30
0.0
 70
     4
 75
     6
  0
VERTEX
  5
5FE
330
5FD
100
AcDbEntity
  8
IMAGE
100
AcDbVertex
100
AcDb2dVertex
 10
6.031062254107024
 20
4.901248325604345
 30
0.0
 70
    16
  0
VERTEX
  5
5FF
330
5FD
100
AcDbEntity
  8
IMAGE
100
AcDbVertex
100
AcDb2dVertex
 10
6.031062254107024
 20
4.901248325604345
 30
0.0
 70
     8
  0
VERTEX
  5
600
330
5FD
100
AcDbEntity
  8
IMAGE
100
AcDbVertex
100
AcDb2dVertex
 10
6.046735971671217
 20
5.001536144178404
 30
0.0
 70
     8
  0
VERTEX
  5
601
330
5FD
100
AcDbEntity
  8
IMAGE
100
AcDbVertex
100
AcDb2dVertex
 10
6.061160518427455
 20
5.094498062898295
 30
0.0
 70
     8
  0
VERTEX
  5
602
330
5FD
100
AcDbEntity
  8
IMAGE
100
AcDbVertex
100
AcDb2dVertex
 10
6.074570577730766
 20
5.180568297122259
 30
0.0
 70
     8
  0
VERTEX
  5
603
330
5FD
100
AcDbEntity
  8
IMAGE
100
AcDbVertex
100
AcDb2dVertex
 10
6.087200832936175
 20
5.260181062208547
 30
0.0
 70
     8
  0
VERTEX
  5
604
330
5FD
100
AcDbEntity
  8
IMAGE
100
AcDbVertex
100
AcDb2dVertex
 10
6.099285967398707
 20
5.3337705735154
 30
0.0
 70
     8
  0
VERTEX
  5
605
330
5FD
100
AcDbEntity
  8
IMAGE
100
AcDbVertex
100
AcDb2dVertex
 10
6.111060664473392
 20
5.401771046401065
 30
0.0
 70
     8
  0
VERTEX
  5
606
330
5FD
100
AcDbEntity
  8
IMAGE
100
AcDbVertex
100
AcDb2dVertex
 10
6.122759607515254
 20
5.464616696223784
 30
0.0
 70
     8
  0
VERTEX
  5
607
330
5FD
100
AcDbEntity
  8
IMAGE
100
AcDbVertex
100
AcDb2dVertex
 10
6.134617479879318
 20
5.522741738341809
 30
0.0
 70
     8
  0
VERTEX
  5
608
330
5FD
100
AcDbEntity
  8
IMAGE
100
AcDbVertex
100
AcDb2dVertex
 10
6.146889867672066
 20
5.576655606277038
 30
0.0
 70
     8
  0
VERTEX
  5
609
330
5FD
100
AcDbEntity
  8
IMAGE
100
AcDbVertex
100
AcDb2dVertex
 10
6.15991596800578
 20
5.627168606206033
 30
0.0
 70
     8
  0
VERTEX
  5
60A
330
5FD
100
AcDbEntity
  8
IMAGE
100
AcDbVertex
100
AcDb2dVertex
 10
6.174055880744198
 20
5.675166262469004
 30
0.0
 70
     8
  0
VERTEX
  5
60B
330
5FD
100
AcDbEntity
  8
IMAGE
100
AcDbVertex
100
AcDb2dVertex
 10
6.189669705751057
 20
5.721534099406166
 30
0.0
 70
     8
  0
VERTEX
  5
60C
330
5FD
100
AcDbEntity
  8
IMAGE
100
AcDbVertex
100
AcDb2dVertex
 10
6.207117542890094
 20
5.767157641357733
 30
0.0
 70
     8
  0
VERTEX
  5
60D
330
5FD
100
AcDbEntity
  8
IMAGE
100
AcDbVertex
100
AcDb2dVertex
 10
6.226759492025046
 20
5.812922412663922
 30
0.0
 70
     8
  0
VERTEX
  5
60E
330
5FD
100
AcDbEntity
  8
IMAGE
100
AcDbVertex
100
AcDb2dVertex
 10
6.248955653019651
 20
5.859713937664941
 30
0.0
 70
     8
  0
VERTEX
  5
60F
330
5FD
100
AcDbEntity
  8
IMAGE
100
AcDbVertex
100
AcDb2dVertex
 10
6.274066125737644
 20
5.908417740701014
 30
0.0
 70
     8
  0
VERTEX
  5
610
330
5FD
100
AcDbEntity
  8
IMAGE
100
AcDbVertex
100
AcDb2dVertex
 10
6.302321888250919
 20
5.959639653202805
 30
0.0
 70
     8
  0
VERTEX
  5
611
330
5FD
100
AcDbEntity
  8
IMAGE
100
AcDbVertex
100
AcDb2dVertex
 10
6.333437431463988
 20
6.012866734962801
 30
0.0
 70
     8
  0
VERTEX
  5
612
330
5FD
100
AcDbEntity
  8
IMAGE
100
AcDbVertex
100
AcDb2dVertex
 10
6.366998124489521
 20
6.067306352863943
 30
0.0
 70
     8
  0
VERTEX
  5
613
330
5FD
100
AcDbEntity
  8
IMAGE
100
AcDbVertex
100
AcDb2dVertex
 10
6.402589336440188
 20
6.122165873789177
 30
0.0
 70
     8
  0
VERTEX
  5
614
330
5FD
100
AcDbEntity
  8
IMAGE
100
AcDbVertex
100
AcDb2dVertex
 10
6.439796436428657
 20
6.176652664621442
 30
0.0
 70
     8
  0
VERTEX
  5
615
330
5FD
100
AcDbEntity
  8
IMAGE
100
AcDbVertex
100
AcDb2dVertex
 10
6.478204793567597
 20
6.229974092243678
 30
0.0
 70
     8
  0
VERTEX
  5
616
330
5FD
100
AcDbEntity
  8
IMAGE
100
AcDbVertex
100
AcDb2dVertex
 10
6.517399776969678
 20
6.281337523538833
 30
0.0
 70
     8
  0
VERTEX
  5
617
330
5FD
100
AcDbEntity
  8
IMAGE
100
AcDbVertex
100
AcDb2dVertex
 10
6.556966755747567
 20
6.32995032538984
 30
0.0
 70
     8
  0
VERTEX
  5
618
330
5FD
100
AcDbEntity
  8
IMAGE
100
AcDbVertex
100
AcDb2dVertex
 10
6.596522248954139
 20
6.375186099346854
 30
0.0
 70
     8
  0
VERTEX
  5
619
330
5FD
100
AcDbEntity
  8
IMAGE
100
AcDbVertex
100
AcDb2dVertex
 10
6.635807375403077
 20
6.417083385628827
 30
0.0
 70
     8
  0
VERTEX
  5
61A
330
5FD
100
AcDbEntity
  8
IMAGE
100
AcDbVertex
100
AcDb2dVertex
 10
6.674594403848268
 20
6.455846959121926
 30
0.0
 70
     8
  0
VERTEX
  5
61B
330
5FD
100
AcDbEntity
  8
IMAGE
100
AcDbVertex
100
AcDb2dVertex
 10
6.712655603043602
 20
6.491681594712306
 30
0.0
 70
     8
  0
VERTEX
  5
61C
330
5FD
100
AcDbEntity
  8
IMAGE
100
AcDbVertex
100
AcDb2dVertex
 10
6.749763241742966
 20
6.524792067286134
 30
0.0
 70
     8
  0
VERTEX
  5
61D
330
5FD
100
AcDbEntity
  8
IMAGE
100
AcDbVertex
100
AcDb2dVertex
 10
6.785689588700248
 20
6.555383151729571
 30
0.0
 70
     8
  0
VERTEX
  5
61E
330
5FD
100
AcDbEntity
  8
IMAGE
100
AcDbVertex
100
AcDb2dVertex
 10
6.820206912669334
 20
6.58365962292878
 30
0.0
 70
     8
  0
VERTEX
  5
61F
330
5FD
100
AcDbEntity
  8
IMAGE
100
AcDbVertex
100
AcDb2dVertex
 10
6.853087482404114
 20
6.609826255769919
 30
0.0
 70
     8
  0
VERTEX
  5
620
330
5FD
100
AcDbEntity
  8
IMAGE
100
AcDbVertex
100
AcDb2dVertex
 10
6.884251146674375
 20
6.634086482384197
 30
0.0
 70
     8
  0
VERTEX
  5
621
330
5FD
100
AcDbEntity
  8
IMAGE
100
AcDbVertex
100
AcDb2dVertex
 10
6.914208074313503
 20
6.656638363882986
 30
0.0
 70
     8
  0
VERTEX
  5
622
330
5FD
100
AcDbEntity
  8
IMAGE
100
AcDbVertex
100
AcDb2dVertex
 10
6.943616014170782
 20
6.677678618622699
 30
0.0
 70
     8
  0
VERTEX
  5
623
330
5FD
100
AcDbEntity
  8
IMAGE
100
AcDbVertex
100
AcDb2dVertex
 10
6.973132715095499
 20
6.69740396495976
 30
0.0
 70
     8
  0
VERTEX
  5
624
330
5FD
100
AcDbEntity
  8
IMAGE
100
AcDbVertex
100
AcDb2dVertex
 10
7.003415925936939
 20
6.716011121250583
 30
0.0
 70
     8
  0
VERTEX
  5
625
330
5FD
100
AcDbEntity
  8
IMAGE
100
AcDbVertex
100
AcDb2dVertex
 10
7.035123395544387
 20
6.733696805851589
 30
0.0
 70
     8
  0
VERTEX
  5
626
330
5FD
100
AcDbEntity
  8
IMAGE
100
AcDbVertex
100
AcDb2dVertex
 10
7.068912872767129
 20
6.750657737119186
 30
0.0
 70
     8
  0
VERTEX
  5
627
330
5FD
100
AcDbEntity
  8
IMAGE
100
AcDbVertex
100
AcDb2dVertex
 10
7.105442106454451
 20
6.767090633409799
 30
0.0
 70
     8
  0
VERTEX
  5
628
330
5FD
100
AcDbEntity
  8
IMAGE
100
AcDbVertex
100
AcDb2dVertex
 10
7.145360299951124
 20
6.783088677110945
 30
0.0
 70
     8
  0
VERTEX
  5
629
330
5FD
100
AcDbEntity
  8
IMAGE
100
AcDbVertex
100
AcDb2dVertex
 10
7.189282474583869
 20
6.798330906734551
 30
0.0
 70
     8
  0
VERTEX
  5
62A
330
5FD
100
AcDbEntity
  8
IMAGE
100
AcDbVertex
100
AcDb2dVertex
 10
7.237815106174894
 20
6.812392824823649
 30
0.0
 70
     8
  0
VERTEX
  5
62B
330
5FD
100
AcDbEntity
  8
IMAGE
100
AcDbVertex
100
AcDb2dVertex
 10
7.291564670546407
 20
6.824849933921266
 30
0.0
 70
     8
  0
VERTEX
  5
62C
330
5FD
100
AcDbEntity
  8
IMAGE
100
AcDbVertex
100
AcDb2dVertex
 10
7.351137643520616
 20
6.835277736570435
 30
0.0
 70
     8
  0
VERTEX
  5
62D
330
5FD
100
AcDbEntity
  8
IMAGE
100
AcDbVertex
100
AcDb2dVertex
 10
7.417140500919729
 20
6.843251735314185
 30
0.0
 70
     8
  0
VERTEX
  5
62E
330
5FD
100
AcDbEntity
  8
IMAGE
100
AcDbVertex
100
AcDb2dVertex
 10
7.490179718565953
 20
6.84834743269555
 30
0.0
 70
     8
  0
VERTEX
  5
62F
330
5FD
100
AcDbEntity
  8
IMAGE
100
AcDbVertex
100
AcDb2dVertex
 10
7.570861772281496
 20
6.850140331257551
 30
0.0
 70
     8
  0
VERTEX
  5
630
330
5FD
100
AcDbEntity
  8
IMAGE
100
AcDbVertex
100
AcDb2dVertex
 10
6.074733002782168
 20
5.178836344148062
 30
0.0
 70
    16
  0
VERTEX
  5
631
330
5FD
100
AcDbEntity
  8
IMAGE
100
AcDbVertex
100
AcDb2dVertex
 10
6.130418944655532
 20
5.56846325670397
 30
0.0
 70
    16
  0
VERTEX
  5
632
330
5FD
100
AcDbEntity
  8
IMAGE
100
AcDbVertex
100
AcDb2dVertex
 10
6.239139068808301
 20
5.878574515364866
 30
0.0
 70
    16
  0
VERTEX
  5
633
330
5FD
100
AcDbEntity
  8
IMAGE
100
AcDbVertex
100
AcDb2dVertex
 10
6.55742153453713
 20
6.367745126042652
 30
0.0
 70
    16
  0
VERTEX
  5
634
330
5FD
100
AcDbEntity
  8
IMAGE
100
AcDbVertex
100
AcDb2dVertex
 10
6.872975327528582
 20
6.630146932803582
 30
0.0
 70
    16
  0
VERTEX
  5
635
330
5FD
100
AcDbEntity
  8
IMAGE
100
AcDbVertex
100
AcDb2dVertex
 10
7.069202049773228
 20
6.77062467736254
 30
0.0
 70
    16
  0
VERTEX
  5
636
330
5FD
100
AcDbEntity
  8
IMAGE
100
AcDbVertex
100
AcDb2dVertex
 10
7.344980091327882
 20
6.850140331257551
 30
0.0
 70
    16
  0
VERTEX
  5
637
330
5FD
100
AcDbEntity
  8
IMAGE
100
AcDbVertex
100
AcDb2dVertex
 10
7.570861772281496
 20
6.850140331257551
 30
0.0
 70
    16
  0
SEQEND
  5
638
330
5FD
100
AcDbEntity
  8
IMAGE
  0
POLYLINE
  5
639
330
2
100
AcDbEntity
  8
IMAGE
100
AcDb2dPolyline
 66
     1
 10
0.0
 20
0.0
 30
0.0
 70
     4
 75
     6
  0
VERTEX
  5
63A
330
639
100
AcDbEntity
  8
IMAGE
100
AcDbVertex
100
AcDb2dVertex
 10
5.994497175867758
 20
4.907000822957981
 30
0.0
 70
    16
  0
VERTEX
  5
63B
330
639
100
AcDbEntity
  8
IMAGE
100
AcDbVertex
100
AcDb2dVertex
 10
5.994497175867758
 20
4.907000822957981
 30
0.0
 70
     8
  0
VERTEX
  5
63C
330
639
100
AcDbEntity
  8
IMAGE
100
AcDbVertex
100
AcDb2dVertex
 10
6.010168851401849
 20
5.007279310398554
 30
0.0
 70
     8
  0
VERTEX
  5
63D
330
639
100
AcDbEntity
  8
IMAGE
100
AcDbVertex
100
AcDb2dVertex
 10
6.024618028932033
 20
5.100394753418846
 30
0.0
 70
     8
  0
VERTEX
  5
63E
330
639
100
AcDbEntity
  8
IMAGE
100
AcDbVertex
100
AcDb2dVertex
 10
6.03807995568713
 20
5.186763974497963
 30
0.0
 70
     8
  0
VERTEX
  5
63F
330
639
100
AcDbEntity
  8
IMAGE
100
AcDbVertex
100
AcDb2dVertex
 10
6.050789878895965
 20
5.266803796115008
 30
0.0
 70
     8
  0
VERTEX
  5
640
330
639
100
AcDbEntity
  8
IMAGE
100
AcDbVertex
100
AcDb2dVertex
 10
6.06298304578736
 20
5.340931040749082
 30
0.0
 70
     8
  0
VERTEX
  5
641
330
639
100
AcDbEntity
  8
IMAGE
100
AcDbVertex
100
AcDb2dVertex
 10
6.074894703590137
 20
5.409562530879287
 30
0.0
 70
     8
  0
VERTEX
  5
642
330
639
100
AcDbEntity
  8
IMAGE
100
AcDbVertex
100
AcDb2dVertex
 10
6.086760099533119
 20
5.473115088984729
 30
0.0
 70
     8
  0
VERTEX
  5
643
330
639
100
AcDbEntity
  8
IMAGE
100
AcDbVertex
100
AcDb2dVertex
 10
6.098814480845129
 20
5.532005537544512
 30
0.0
 70
     8
  0
VERTEX
  5
644
330
639
100
AcDbEntity
  8
IMAGE
100
AcDbVertex
100
AcDb2dVertex
 10
6.111314180509737
 20
5.58672822087736
 30
0.0
 70
     8
  0
VERTEX
  5
645
330
639
100
AcDbEntity
  8
IMAGE
100
AcDbVertex
100
AcDb2dVertex
 10
6.124599874529513
 20
5.63808757066049
 30
0.0
 70
     8
  0
VERTEX
  5
646
330
639
100
AcDbEntity
  8
IMAGE
100
AcDbVertex
100
AcDb2dVertex
 10
6.139033324661768
 20
5.686965540410738
 30
0.0
 70
     8
  0
VERTEX
  5
647
330
639
100
AcDbEntity
  8
IMAGE
100
AcDbVertex
100
AcDb2dVertex
 10
6.154976292663821
 20
5.734244083644944
 30
0.0
 70
     8
  0
VERTEX
  5
648
330
639
100
AcDbEntity
  8
IMAGE
100
AcDbVertex
100
AcDb2dVertex
 10
6.172790540292986
 20
5.780805153879945
 30
0.0
 70
     8
  0
VERTEX
  5
649
330
639
100
AcDbEntity
  8
IMAGE
100
AcDbVertex
100
AcDb2dVertex
 10
6.192837829306578
 20
5.827530704632581
 30
0.0
 70
     8
  0
VERTEX
  5
64A
330
639
100
AcDbEntity
  8
IMAGE
100
AcDbVertex
100
AcDb2dVertex
 10
6.215479921461912
 20
5.875302689419689
 30
0.0
 70
     8
  0
VERTEX
  5
64B
330
639
100
AcDbEntity
  8
IMAGE
100
AcDbVertex
100
AcDb2dVertex
 10
6.241078578516304
 20
5.92500306175811
 30
0.0
 70
     8
  0
VERTEX
  5
64C
330
639
100
AcDbEntity
  8
IMAGE
100
AcDbVertex
100
AcDb2dVertex
 10
6.269865200199483
 20
5.977233116756756
 30
0.0
 70
     8
  0
VERTEX
  5
64D
330
639
100
AcDbEntity
  8
IMAGE
100
AcDbVertex
100
AcDb2dVertex
 10
6.301549738130834
 20
6.031471515892859
 30
0.0
 70
     8
  0
VERTEX
  5
64E
330
639
100
AcDbEntity
  8
IMAGE
100
AcDbVertex
100
AcDb2dVertex
 10
6.335711781902155
 20
6.086916262235727
 30
0.0
 70
     8
  0
VERTEX
  5
64F
330
639
100
AcDbEntity
  8
IMAGE
100
AcDbVertex
100
AcDb2dVertex
 10
6.371930921105245
 20
6.142765358854666
 30
0.0
 70
     8
  0
VERTEX
  5
650
330
639
100
AcDbEntity
  8
IMAGE
100
AcDbVertex
100
AcDb2dVertex
 10
6.409786745331902
 20
6.198216808818986
 30
0.0
 70
     8
  0
VERTEX
  5
651
330
639
100
AcDbEntity
  8
IMAGE
100
AcDbVertex
100
AcDb2dVertex
 10
6.448858844173924
 20
6.252468615197993
 30
0.0
 70
     8
  0
VERTEX
  5
652
330
639
100
AcDbEntity
  8
IMAGE
100
AcDbVertex
100
AcDb2dVertex
 10
6.488726807223112
 20
6.304718781060993
 30
0.0
 70
     8
  0
VERTEX
  5
653
330
639
100
AcDbEntity
  8
IMAGE
100
AcDbVertex
100
AcDb2dVertex
 10
6.528970224071262
 20
6.354165309477294
 30
0.0
 70
     8
  0
VERTEX
  5
654
330
639
100
AcDbEntity
  8
IMAGE
100
AcDbVertex
100
AcDb2dVertex
 10
6.569201148472338
 20
6.400175313976652
 30
0.0
 70
     8
  0
VERTEX
  5
655
330
639
100
AcDbEntity
  8
IMAGE
100
AcDbVertex
100
AcDb2dVertex
 10
6.609161490828967
 20
6.442792349930601
 30
0.0
 70
     8
  0
VERTEX
  5
656
330
639
100
AcDbEntity
  8
IMAGE
100
AcDbVertex
100
AcDb2dVertex
 10
6.648625625705939
 20
6.482229083171129
 30
0.0
 70
     8
  0
VERTEX
  5
657
330
639
100
AcDbEntity
  8
IMAGE
100
AcDbVertex
100
AcDb2dVertex
 10
6.687367927668046
 20
6.518698179530217
 30
0.0
 70
     8
  0
VERTEX
  5
658
330
639
100
AcDbEntity
  8
IMAGE
100
AcDbVertex
100
AcDb2dVertex
 10
6.725162771280078
 20
6.55241230483985
 30
0.0
 70
     8
  0
VERTEX
  5
659
330
639
100
AcDbEntity
  8
IMAGE
100
AcDbVertex
100
AcDb2dVertex
 10
6.761784531106829
 20
6.583584124932008
 30
0.0
 70
     8
  0
VERTEX
  5
65A
330
639
100
AcDbEntity
  8
IMAGE
100
AcDbVertex
100
AcDb2dVertex
 10
6.797007581713087
 20
6.612426305638684
 30
0.0
 70
     8
  0
VERTEX
  5
65B
330
639
100
AcDbEntity
  8
IMAGE
100
AcDbVertex
100
AcDb2dVertex
 10
6.830606297663644
 20
6.63915151279185
 30
0.0
 70
     8
  0
VERTEX
  5
65C
330
639
100
AcDbEntity
  8
IMAGE
100
AcDbVertex
100
AcDb2dVertex
 10
6.86250538046708
 20
6.663969847036521
 30
0.0
 70
     8
  0
VERTEX
  5
65D
330
639
100
AcDbEntity
  8
IMAGE
100
AcDbVertex
100
AcDb2dVertex
 10
6.893230839407127
 20
6.687081148269785
 30
0.0
 70
     8
  0
VERTEX
  5
65E
330
639
100
AcDbEntity
  8
IMAGE
100
AcDbVertex
100
AcDb2dVertex
 10
6.923459010711304
 20
6.70868269120175
 30
0.0
 70
     8
  0
VERTEX
  5
65F
330
639
100
AcDbEntity
  8
IMAGE
100
AcDbVertex
100
AcDb2dVertex
 10
6.953866230607133
 20
6.728971750542529
 30
0.0
 70
     8
  0
VERTEX
  5
660
330
639
100
AcDbEntity
  8
IMAGE
100
AcDbVertex
100
AcDb2dVertex
 10
6.985128835322131
 20
6.748145601002238
 30
0.0
 70
     8
  0
VERTEX
  5
661
330
639
100
AcDbEntity
  8
IMAGE
100
AcDbVertex
100
AcDb2dVertex
 10
7.017923161083821
 20
6.766401517290982
 30
0.0
 70
     8
  0
VERTEX
  5
662
330
639
100
AcDbEntity
  8
IMAGE
100
AcDbVertex
100
AcDb2dVertex
 10
7.052925544119721
 20
6.78393677411888
 30
0.0
 70
     8
  0
VERTEX
  5
663
330
639
100
AcDbEntity
  8
IMAGE
100
AcDbVertex
100
AcDb2dVertex
 10
7.090812320657352
 20
6.800948646196039
 30
0.0
 70
     8
  0
VERTEX
  5
664
330
639
100
AcDbEntity
  8
IMAGE
100
AcDbVertex
100
AcDb2dVertex
 10
7.132244117404621
 20
6.817527534022484
 30
0.0
 70
     8
  0
VERTEX
  5
665
330
639
100
AcDbEntity
  8
IMAGE
100
AcDbVertex
100
AcDb2dVertex
 10
7.177818722990986
 20
6.833336341257878
 30
0.0
 70
     8
  0
VERTEX
  5
666
330
639
100
AcDbEntity
  8
IMAGE
100
AcDbVertex
100
AcDb2dVertex
 10
7.228118216526291
 20
6.847931097351806
 30
0.0
 70
     8
  0
VERTEX
  5
667
330
639
100
AcDbEntity
  8
IMAGE
100
AcDbVertex
100
AcDb2dVertex
 10
7.283724677120382
 20
6.860867831753842
 30
0.0
 70
     8
  0
VERTEX
  5
668
330
639
100
AcDbEntity
  8
IMAGE
100
AcDbVertex
100
AcDb2dVertex
 10
7.345220183883102
 20
6.871702573913565
 30
0.0
 70
     8
  0
VERTEX
  5
669
330
639
100
AcDbEntity
  8
IMAGE
100
AcDbVertex
100
AcDb2dVertex
 10
7.413186815924299
 20
6.879991353280558
 30
0.0
 70
     8
  0
VERTEX
  5
66A
330
639
100
AcDbEntity
  8
IMAGE
100
AcDbVertex
100
AcDb2dVertex
 10
7.488206652353815
 20
6.885290199304395
 30
0.0
 70
     8
  0
VERTEX
  5
66B
330
639
100
AcDbEntity
  8
IMAGE
100
AcDbVertex
100
AcDb2dVertex
 10
7.570861772281496
 20
6.887155141434656
 30
0.0
 70
     8
  0
VERTEX
  5
66C
330
639
100
AcDbEntity
  8
IMAGE
100
AcDbVertex
100
AcDb2dVertex
 10
6.038127416611721
 20
5.184331357563528
 30
0.0
 70
    16
  0
VERTEX
  5
66D
330
639
100
AcDbEntity
  8
IMAGE
100
AcDbVertex
100
AcDb2dVertex
 10
6.094289333134724
 20
5.577288599587791
 30
0.0
 70
    16
  0
VERTEX
  5
66E
330
639
100
AcDbEntity
  8
IMAGE
100
AcDbVertex
100
AcDb2dVertex
 10
6.205683094181656
 20
5.895026090364519
 30
0.0
 70
    16
  0
VERTEX
  5
66F
330
639
100
AcDbEntity
  8
IMAGE
100
AcDbVertex
100
AcDb2dVertex
 10
6.529449761236475
 20
6.392625409502794
 30
0.0
 70
    16
  0
VERTEX
  5
670
330
639
100
AcDbEntity
  8
IMAGE
100
AcDbVertex
100
AcDb2dVertex
 10
6.850339205300011
 20
6.659464128488067
 30
0.0
 70
    16
  0
VERTEX
  5
671
330
639
100
AcDbEntity
  8
IMAGE
100
AcDbVertex
100
AcDb2dVertex
 10
7.052831203545344
 20
6.804427153296052
 30
0.0
 70
    16
  0
VERTEX
  5
672
330
639
100
AcDbEntity
  8
IMAGE
100
AcDbVertex
100
AcDb2dVertex
 10
7.339750337490264
 20
6.887155141434656
 30
0.0
 70
    16
  0
VERTEX
  5
673
330
639
100
AcDbEntity
  8
IMAGE
100
AcDbVertex
100
AcDb2dVertex
 10
7.570861772281496
 20
6.887155141434656
 30
0.0
 70
    16
  0
SEQEND
  5
674
330
639
100
AcDbEntity
  8
IMAGE
  0
POLYLINE
  5
6ED
330
2
100
AcDbEntity
  8
IMAGE
 62
     5
100
AcDb2dPolyline
 66
     1
 10
0.0
 20
0.0
 30
0.0
 70
     4
 40
0.037
 41
0.037
 75
     6
  0
VERTEX
  5
6EE
330
6ED
100
AcDbEntity
  8
IMAGE
 62
     5
100
AcDbVertex
100
AcDb2dVertex
 10
5.737780050754079
 20
4.646199517617755
 30
0.0
 70
    16
  0
VERTEX
  5
6EF
330
6ED
100
AcDbEntity
  8
IMAGE
 62
     5
100
AcDbVertex
100
AcDb2dVertex
 10
5.737780050754079
 20
4.646199517617756
 30
0.0
 70
     8
  0
VERTEX
  5
6F0
330
6ED
100
AcDbEntity
  8
IMAGE
 62
     5
100
AcDbVertex
100
AcDb2dVertex
 10
5.724394616942807
 20
4.774137514471298
 30
0.0
 70
     8
  0
VERTEX
  5
6F1
330
6ED
100
AcDbEntity
  8
IMAGE
 62
     5
100
AcDbVertex
100
AcDb2dVertex
 10
5.703535676296985
 20
4.905108686646264
 30
0.0
 70
     8
  0
VERTEX
  5
6F2
330
6ED
100
AcDbEntity
  8
IMAGE
 62
     5
100
AcDbVertex
100
AcDb2dVertex
 10
5.676063181696235
 20
5.037098247733193
 30
0.0
 70
     8
  0
VERTEX
  5
6F3
330
6ED
100
AcDbEntity
  8
IMAGE
 62
     5
100
AcDbVertex
100
AcDb2dVertex
 10
5.642837086020172
 20
5.168091411322619
 30
0.0
 70
     8
  0
VERTEX
  5
6F4
330
6ED
100
AcDbEntity
  8
IMAGE
 62
     5
100
AcDbVertex
100
AcDb2dVertex
 10
5.604717342148417
 20
5.296073391005072
 30
0.0
 70
     8
  0
VERTEX
  5
6F5
330
6ED
100
AcDbEntity
  8
IMAGE
 62
     5
100
AcDbVertex
100
AcDb2dVertex
 10
5.562563902960588
 20
5.41902940037109
 30
0.0
 70
     8
  0
VERTEX
  5
6F6
330
6ED
100
AcDbEntity
  8
IMAGE
 62
     5
100
AcDbVertex
100
AcDb2dVertex
 10
5.517236721336304
 20
5.534944653011208
 30
0.0
 70
     8
  0
VERTEX
  5
6F7
330
6ED
100
AcDbEntity
  8
IMAGE
 62
     5
100
AcDbVertex
100
AcDb2dVertex
 10
5.469595750155182
 20
5.641804362515958
 30
0.0
 70
     8
  0
VERTEX
  5
6F8
330
6ED
100
AcDbEntity
  8
IMAGE
 62
     5
100
AcDbVertex
100
AcDb2dVertex
 10
5.420307824665136
 20
5.738122815940697
 30
0.0
 70
     8
  0
VERTEX
  5
6F9
330
6ED
100
AcDbEntity
  8
IMAGE
 62
     5
100
AcDbVertex
100
AcDb2dVertex
 10
5.369267309587254
 20
5.824530594200086
 30
0.0
 70
     8
  0
VERTEX
  5
6FA
330
6ED
100
AcDbEntity
  8
IMAGE
 62
     5
100
AcDbVertex
100
AcDb2dVertex
 10
5.316175452010919
 20
5.902187351673602
 30
0.0
 70
     8
  0
VERTEX
  5
6FB
330
6ED
100
AcDbEntity
  8
IMAGE
 62
     5
100
AcDbVertex
100
AcDb2dVertex
 10
5.260733499025513
 20
5.972252742740724
 30
0.0
 70
     8
  0
VERTEX
  5
6FC
330
6ED
100
AcDbEntity
  8
IMAGE
 62
     5
100
AcDbVertex
100
AcDb2dVertex
 10
5.202642697720418
 20
6.035886421780932
 30
0.0
 70
     8
  0
VERTEX
  5
6FD
330
6ED
100
AcDbEntity
  8
IMAGE
 62
     5
100
AcDbVertex
100
AcDb2dVertex
 10
5.141604295185017
 20
6.094248043173702
 30
0.0
 70
     8
  0
VERTEX
  5
6FE
330
6ED
100
AcDbEntity
  8
IMAGE
 62
     5
100
AcDbVertex
100
AcDb2dVertex
 10
5.077319538508693
 20
6.148497261298518
 30
0.0
 70
     8
  0
VERTEX
  5
6FF
330
6ED
100
AcDbEntity
  8
IMAGE
 62
     5
100
AcDbVertex
100
AcDb2dVertex
 10
5.009489674780829
 20
6.199793730534856
 30
0.0
 70
     8
  0
VERTEX
  5
700
330
6ED
100
AcDbEntity
  8
IMAGE
 62
     5
100
AcDbVertex
100
AcDb2dVertex
 10
4.937994916822236
 20
6.249059240855053
 30
0.0
 70
     8
  0
VERTEX
  5
701
330
6ED
100
AcDbEntity
  8
IMAGE
 62
     5
100
AcDbVertex
100
AcDb2dVertex
 10
4.863431340379462
 20
6.29626412460287
 30
0.0
 70
     8
  0
VERTEX
  5
702
330
6ED
100
AcDbEntity
  8
IMAGE
 62
     5
100
AcDbVertex
100
AcDb2dVertex
 10
4.786573986930481
 20
6.341140849714927
 30
0.0
 70
     8
  0
VERTEX
  5
703
330
6ED
100
AcDbEntity
  8
IMAGE
 62
     5
100
AcDbVertex
100
AcDb2dVertex
 10
4.708197897953271
 20
6.383421884127836
 30
0.0
 70
     8
  0
VERTEX
  5
704
330
6ED
100
AcDbEntity
  8
IMAGE
 62
     5
100
AcDbVertex
100
AcDb2dVertex
 10
4.629078114925808
 20
6.422839695778221
 30
0.0
 70
     8
  0
VERTEX
  5
705
330
6ED
100
AcDbEntity
  8
IMAGE
 62
     5
100
AcDbVertex
100
AcDb2dVertex
 10
4.549989679326066
 20
6.459126752602698
 30
0.0
 70
     8
  0
VERTEX
  5
706
330
6ED
100
AcDbEntity
  8
IMAGE
 62
     5
100
AcDbVertex
100
AcDb2dVertex
 10
4.471707632632026
 20
6.492015522537882
 30
0.0
 70
     8
  0
VERTEX
  5
707
330
6ED
100
AcDbEntity
  8
IMAGE
 62
     5
100
AcDbVertex
100
AcDb2dVertex
 10
4.395007016321659
 20
6.521238473520393
 30
0.0
 70
     8
  0
VERTEX
  5
708
330
6ED
100
AcDbEntity
  8
IMAGE
 62
     5
100
AcDbVertex
100
AcDb2dVertex
 10
4.320245343496003
 20
6.546588980853853
 30
0.0
 70
     8
  0
VERTEX
  5
709
330
6ED
100
AcDbEntity
  8
IMAGE
 62
     5
100
AcDbVertex
100
AcDb2dVertex
 10
4.24611001374832
 20
6.568104049309915
 30
0.0
 70
     8
  0
VERTEX
  5
70A
330
6ED
100
AcDbEntity
  8
IMAGE
 62
     5
100
AcDbVertex
100
AcDb2dVertex
 10
4.170870898294931
 20
6.585881591027237
 30
0.0
 70
     8
  0
VERTEX
  5
70B
330
6ED
100
AcDbEntity
  8
IMAGE
 62
     5
100
AcDbVertex
100
AcDb2dVertex
 10
4.092797868352159
 20
6.600019518144473
 30
0.0
 70
     8
  0
VERTEX
  5
70C
330
6ED
100
AcDbEntity
  8
IMAGE
 62
     5
100
AcDbVertex
100
AcDb2dVertex
 10
4.010160795136328
 20
6.610615742800287
 30
0.0
 70
     8
  0
VERTEX
  5
70D
330
6ED
100
AcDbEntity
  8
IMAGE
 62
     5
100
AcDbVertex
100
AcDb2dVertex
 10
3.921229549863759
 20
6.617768177133334
 30
0.0
 70
     8
  0
VERTEX
  5
70E
330
6ED
100
AcDbEntity
  8
IMAGE
 62
     5
100
AcDbVertex
100
AcDb2dVertex
 10
3.824274003750772
 20
6.621574733282272
 30
0.0
 70
     8
  0
VERTEX
  5
70F
330
6ED
100
AcDbEntity
  8
IMAGE
 62
     5
100
AcDbVertex
100
AcDb2dVertex
 10
3.717564028013689
 20
6.622133323385756
 30
0.0
 70
     8
  0
VERTEX
  5
710
330
6ED
100
AcDbEntity
  8
IMAGE
 62
     5
100
AcDbVertex
100
AcDb2dVertex
 10
5.712814638929745
 20
4.981532354212439
 30
0.0
 70
    16
  0
VERTEX
  5
711
330
6ED
100
AcDbEntity
  8
IMAGE
 62
     5
100
AcDbVertex
100
AcDb2dVertex
 10
5.485103341378843
 20
5.759887877660836
 30
0.0
 70
    16
  0
VERTEX
  5
712
330
6ED
100
AcDbEntity
  8
IMAGE
 62
     5
100
AcDbVertex
100
AcDb2dVertex
 10
5.050490847710521
 20
6.218920071964162
 30
0.0
 70
    16
  0
VERTEX
  5
713
330
6ED
100
AcDbEntity
  8
IMAGE
 62
     5
100
AcDbVertex
100
AcDb2dVertex
 10
4.369871316464041
 20
6.563194217691658
 30
0.0
 70
    16
  0
VERTEX
  5
714
330
6ED
100
AcDbEntity
  8
IMAGE
 62
     5
100
AcDbVertex
100
AcDb2dVertex
 10
4.016667761730194
 20
6.624887338158258
 30
0.0
 70
    16
  0
VERTEX
  5
715
330
6ED
100
AcDbEntity
  8
IMAGE
 62
     5
100
AcDbVertex
100
AcDb2dVertex
 10
3.717564028013689
 20
6.622133323385756
 30
0.0
 70
    16
  0
SEQEND
  5
716
330
6ED
100
AcDbEntity
  8
IMAGE
 62
     5
  0
POLYLINE
  5
717
330
2
100
AcDbEntity
  8
IMAGE
 62
     5
100
AcDb2dPolyline
 66
     1
 10
0.0
 20
0.0
 30
0.0
 70
     4
 40
0.037
 41
0.037
 75
     6
  0
VERTEX
  5
718
330
717
100
AcDbEntity
  8
IMAGE
 62
     5
100
AcDbVertex
100
AcDb2dVertex
 10
5.787933451464223
 20
4.646199517617755
 30
0.0
 70
    16
  0
VERTEX
  5
719
330
717
100
AcDbEntity
  8
IMAGE
 62
     5
100
AcDbVertex
100
AcDb2dVertex
 10
5.787933451464223
 20
4.646199517617756
 30
0.0
 70
     8
  0
VERTEX
  5
71A
330
717
100
AcDbEntity
  8
IMAGE
 62
     5
100
AcDbVertex
100
AcDb2dVertex
 10
5.776027037080092
 20
4.803887311861173
 30
0.0
 70
     8
  0
VERTEX
  5
71B
330
717
100
AcDbEntity
  8
IMAGE
 62
     5
100
AcDbVertex
100
AcDb2dVertex
 10
5.760712210621018
 20
4.944450996278088
 30
0.0
 70
     8
  0
VERTEX
  5
71C
330
717
100
AcDbEntity
  8
IMAGE
 62
     5
100
AcDbVertex
100
AcDb2dVertex
 10
5.742350088110508
 20
5.069857823851513
 30
0.0
 70
     8
  0
VERTEX
  5
71D
330
717
100
AcDbEntity
  8
IMAGE
 62
     5
100
AcDbVertex
100
AcDb2dVertex
 10
5.721301785572068
 20
5.182075047564445
 30
0.0
 70
     8
  0
VERTEX
  5
71E
330
717
100
AcDbEntity
  8
IMAGE
 62
     5
100
AcDbVertex
100
AcDb2dVertex
 10
5.697928419029204
 20
5.283069920399895
 30
0.0
 70
     8
  0
VERTEX
  5
71F
330
717
100
AcDbEntity
  8
IMAGE
 62
     5
100
AcDbVertex
100
AcDb2dVertex
 10
5.672591104505422
 20
5.374809695340856
 30
0.0
 70
     8
  0
VERTEX
  5
720
330
717
100
AcDbEntity
  8
IMAGE
 62
     5
100
AcDbVertex
100
AcDb2dVertex
 10
5.64565095802423
 20
5.459261625370344
 30
0.0
 70
     8
  0
VERTEX
  5
721
330
717
100
AcDbEntity
  8
IMAGE
 62
     5
100
AcDbVertex
100
AcDb2dVertex
 10
5.617469095609132
 20
5.538392963471358
 30
0.0
 70
     8
  0
VERTEX
  5
722
330
717
100
AcDbEntity
  8
IMAGE
 62
     5
100
AcDbVertex
100
AcDb2dVertex
 10
5.588284421062421
 20
5.613876271208055
 30
0.0
 70
     8
  0
VERTEX
  5
723
330
717
100
AcDbEntity
  8
IMAGE
 62
     5
100
AcDbVertex
100
AcDb2dVertex
 10
5.557846989301517
 20
5.68620534446921
 30
0.0
 70
     8
  0
VERTEX
  5
724
330
717
100
AcDbEntity
  8
IMAGE
 62
     5
100
AcDbVertex
100
AcDb2dVertex
 10
5.525784643022632
 20
5.755579287724748
 30
0.0
 70
     8
  0
VERTEX
  5
725
330
717
100
AcDbEntity
  8
IMAGE
 62
     5
100
AcDbVertex
100
AcDb2dVertex
 10
5.491725224921972
 20
5.822197205444598
 30
0.0
 70
     8
  0
VERTEX
  5
726
330
717
100
AcDbEntity
  8
IMAGE
 62
     5
100
AcDbVertex
100
AcDb2dVertex
 10
5.455296577695745
 20
5.88625820209869
 30
0.0
 70
     8
  0
VERTEX
  5
727
330
717
100
AcDbEntity
  8
IMAGE
 62
     5
100
AcDbVertex
100
AcDb2dVertex
 10
5.416126544040159
 20
5.947961382156946
 30
0.0
 70
     8
  0
VERTEX
  5
728
330
717
100
AcDbEntity
  8
IMAGE
 62
     5
100
AcDbVertex
100
AcDb2dVertex
 10
5.373842966651423
 20
6.007505850089294
 30
0.0
 70
     8
  0
VERTEX
  5
729
330
717
100
AcDbEntity
  8
IMAGE
 62
     5
100
AcDbVertex
100
AcDb2dVertex
 10
5.328073688225745
 20
6.065090710365661
 30
0.0
 70
     8
  0
VERTEX
  5
72A
330
717
100
AcDbEntity
  8
IMAGE
 62
     5
100
AcDbVertex
100
AcDb2dVertex
 10
5.278510324837173
 20
6.120916814000753
 30
0.0
 70
     8
  0
VERTEX
  5
72B
330
717
100
AcDbEntity
  8
IMAGE
 62
     5
100
AcDbVertex
100
AcDb2dVertex
 10
5.225099586071141
 20
6.175191998188355
 30
0.0
 70
     8
  0
VERTEX
  5
72C
330
717
100
AcDbEntity
  8
IMAGE
 62
     5
100
AcDbVertex
100
AcDb2dVertex
 10
5.167851954890918
 20
6.228125846667036
 30
0.0
 70
     8
  0
VERTEX
  5
72D
330
717
100
AcDbEntity
  8
IMAGE
 62
     5
100
AcDbVertex
100
AcDb2dVertex
 10
5.106777914259773
 20
6.279927943175358
 30
0.0
 70
     8
  0
VERTEX
  5
72E
330
717
100
AcDbEntity
  8
IMAGE
 62
     5
100
AcDbVertex
100
AcDb2dVertex
 10
5.04188794714098
 20
6.330807871451887
 30
0.0
 70
     8
  0
VERTEX
  5
72F
330
717
100
AcDbEntity
  8
IMAGE
 62
     5
100
AcDbVertex
100
AcDb2dVertex
 10
4.973192536497813
 20
6.380975215235188
 30
0.0
 70
     8
  0
VERTEX
  5
730
330
717
100
AcDbEntity
  8
IMAGE
 62
     5
100
AcDbVertex
100
AcDb2dVertex
 10
4.90070216529354
 20
6.430639558263822
 30
0.0
 70
     8
  0
VERTEX
  5
731
330
717
100
AcDbEntity
  8
IMAGE
 62
     5
100
AcDbVertex
100
AcDb2dVertex
 10
4.824427316491433
 20
6.480010484276358
 30
0.0
 70
     8
  0
VERTEX
  5
732
330
717
100
AcDbEntity
  8
IMAGE
 62
     5
100
AcDbVertex
100
AcDb2dVertex
 10
4.744469328524203
 20
6.529206757391317
 30
0.0
 70
     8
  0
VERTEX
  5
733
330
717
100
AcDbEntity
  8
IMAGE
 62
     5
100
AcDbVertex
100
AcDb2dVertex
 10
4.661292961702304
 20
6.577983863247037
 30
0.0
 70
     8
  0
VERTEX
  5
734
330
717
100
AcDbEntity
  8
IMAGE
 62
     5
100
AcDbVertex
100
AcDb2dVertex
 10
4.575453831805631
 20
6.626006467861816
 30
0.0
 70
     8
  0
VERTEX
  5
735
330
717
100
AcDbEntity
  8
IMAGE
 62
     5
100
AcDbVertex
100
AcDb2dVertex
 10
4.487507554614079
 20
6.672939237253948
 30
0.0
 70
     8
  0
VERTEX
  5
736
330
717
100
AcDbEntity
  8
IMAGE
 62
     5
100
AcDbVertex
100
AcDb2dVertex
 10
4.398009745907539
 20
6.718446837441731
 30
0.0
 70
     8
  0
VERTEX
  5
737
330
717
100
AcDbEntity
  8
IMAGE
 62
     5
100
AcDbVertex
100
AcDb2dVertex
 10
4.307516021465906
 20
6.762193934443465
 30
0.0
 70
     8
  0
VERTEX
  5
738
330
717
100
AcDbEntity
  8
IMAGE
 62
     5
100
AcDbVertex
100
AcDb2dVertex
 10
4.216581997069073
 20
6.803845194277442
 30
0.0
 70
     8
  0
VERTEX
  5
739
330
717
100
AcDbEntity
  8
IMAGE
 62
     5
100
AcDbVertex
100
AcDb2dVertex
 10
4.125763288496936
 20
6.843065282961958
 30
0.0
 70
     8
  0
VERTEX
  5
73A
330
717
100
AcDbEntity
  8
IMAGE
 62
     5
100
AcDbVertex
100
AcDb2dVertex
 10
4.035559600535431
 20
6.87955729024611
 30
0.0
 70
     8
  0
VERTEX
  5
73B
330
717
100
AcDbEntity
  8
IMAGE
 62
     5
100
AcDbVertex
100
AcDb2dVertex
 10
3.946246993994679
 20
6.913178000802179
 30
0.0
 70
     8
  0
VERTEX
  5
73C
330
717
100
AcDbEntity
  8
IMAGE
 62
     5
100
AcDbVertex
100
AcDb2dVertex
 10
3.858045618690845
 20
6.943822623033251
 30
0.0
 70
     8
  0
VERTEX
  5
73D
330
717
100
AcDbEntity
  8
IMAGE
 62
     5
100
AcDbVertex
100
AcDb2dVertex
 10
3.771175624440091
 20
6.971386365342406
 30
0.0
 70
     8
  0
VERTEX
  5
73E
330
717
100
AcDbEntity
  8
IMAGE
 62
     5
100
AcDbVertex
100
AcDb2dVertex
 10
3.685857161058582
 20
6.995764436132726
 30
0.0
 70
     8
  0
VERTEX
  5
73F
330
717
100
AcDbEntity
  8
IMAGE
 62
     5
100
AcDbVertex
100
AcDb2dVertex
 10
3.602310378362484
 20
7.016852043807292
 30
0.0
 70
     8
  0
VERTEX
  5
740
330
717
100
AcDbEntity
  8
IMAGE
 62
     5
100
AcDbVertex
100
AcDb2dVertex
 10
3.520755426167958
 20
7.034544396769187
 30
0.0
 70
     8
  0
VERTEX
  5
741
330
717
100
AcDbEntity
  8
IMAGE
 62
     5
100
AcDbVertex
100
AcDb2dVertex
 10
3.441412454291172
 20
7.048736703421492
 30
0.0
 70
     8
  0
VERTEX
  5
742
330
717
100
AcDbEntity
  8
IMAGE
 62
     5
100
AcDbVertex
100
AcDb2dVertex
 10
3.364595108366299
 20
7.059387786919596
 30
0.0
 70
     8
  0
VERTEX
  5
743
330
717
100
AcDbEntity
  8
IMAGE
 62
     5
100
AcDbVertex
100
AcDb2dVertex
 10
3.290991017299549
 20
7.066710929428125
 30
0.0
 70
     8
  0
VERTEX
  5
744
330
717
100
AcDbEntity
  8
IMAGE
 62
     5
100
AcDbVertex
100
AcDb2dVertex
 10
3.221381305815142
 20
7.070983027864008
 30
0.0
 70
     8
  0
VERTEX
  5
745
330
717
100
AcDbEntity
  8
IMAGE
 62
     5
100
AcDbVertex
100
AcDb2dVertex
 10
3.156547098637301
 20
7.072480979144184
 30
0.0
 70
     8
  0
VERTEX
  5
746
330
717
100
AcDbEntity
  8
IMAGE
 62
     5
100
AcDbVertex
100
AcDb2dVertex
 10
3.097269520490246
 20
7.071481680185576
 30
0.0
 70
     8
  0
VERTEX
  5
747
330
717
100
AcDbEntity
  8
IMAGE
 62
     5
100
AcDbVertex
100
AcDb2dVertex
 10
3.044329696098198
 20
7.068262027905119
 30
0.0
 70
     8
  0
VERTEX
  5
748
330
717
100
AcDbEntity
  8
IMAGE
 62
     5
100
AcDbVertex
100
AcDb2dVertex
 10
2.998508750185377
 20
7.06309891921975
 30
0.0
 70
     8
  0
VERTEX
  5
749
330
717
100
AcDbEntity
  8
IMAGE
 62
     5
100
AcDbVertex
100
AcDb2dVertex
 10
2.960587807476005
 20
7.056269251046393
 30
0.0
 70
     8
  0
VERTEX
  5
74A
330
717
100
AcDbEntity
  8
IMAGE
 62
     5
100
AcDbVertex
100
AcDb2dVertex
 10
5.761048554560691
 20
5.091281118020421
 30
0.0
 70
    16
  0
VERTEX
  5
74B
330
717
100
AcDbEntity
  8
IMAGE
 62
     5
100
AcDbVertex
100
AcDb2dVertex
 10
5.62686216132005
 20
5.574161912223035
 30
0.0
 70
    16
  0
VERTEX
  5
74C
330
717
100
AcDbEntity
  8
IMAGE
 62
     5
100
AcDbVertex
100
AcDb2dVertex
 10
5.369224177193581
 20
6.083869411016887
 30
0.0
 70
    16
  0
VERTEX
  5
74D
330
717
100
AcDbEntity
  8
IMAGE
 62
     5
100
AcDbVertex
100
AcDb2dVertex
 10
4.864683259260089
 20
6.480904705903394
 30
0.0
 70
    16
  0
VERTEX
  5
74E
330
717
100
AcDbEntity
  8
IMAGE
 62
     5
100
AcDbVertex
100
AcDb2dVertex
 10
4.118606684714662
 20
6.872574671027694
 30
0.0
 70
    16
  0
VERTEX
  5
74F
330
717
100
AcDbEntity
  8
IMAGE
 62
     5
100
AcDbVertex
100
AcDb2dVertex
 10
3.415469732862876
 20
7.087188307757574
 30
0.0
 70
    16
  0
VERTEX
  5
750
330
717
100
AcDbEntity
  8
IMAGE
 62
     5
100
AcDbVertex
100
AcDb2dVertex
 10
3.05048265067487
 20
7.076457648233158
 30
0.0
 70
    16
  0
VERTEX
  5
751
330
717
100
AcDbEntity
  8
IMAGE
 62
     5
100
AcDbVertex
100
AcDb2dVertex
 10
2.960587807476005
 20
7.056269251046393
 30
0.0
 70
    16
  0
SEQEND
  5
752
330
717
100
AcDbEntity
  8
IMAGE
 62
     5
  0
LWPOLYLINE
  5
753
330
2
100
AcDbEntity
  8
IMAGE
 62
     8
100
AcDbPolyline
 90
        2
 70
     0
 43
0.09
 10
1.120595133151952
 20
9.881243660858284
 10
1.135711966549247
 20
7.925142572634012
  0
POLYLINE
  5
754
330
2
100
AcDbEntity
  8
IMAGE
 62
     5
100
AcDb2dPolyline
 66
     1
 10
0.0
 20
0.0
 30
0.0
 70
     4
 40
0.037
 41
0.037
 75
     6
  0
VERTEX
  5
755
330
754
100
AcDbEntity
  8
IMAGE
 62
     5
100
AcDbVertex
100
AcDb2dVertex
 10
1.165818758105229
 20
7.925708183826674
 30
0.0
 70
    16
  0
VERTEX
  5
756
330
754
100
AcDbEntity
  8
IMAGE
 62
     5
100
AcDbVertex
100
AcDb2dVertex
 10
1.165818758105229
 20
7.925708183826674
 30
0.0
 70
     8
  0
VERTEX
  5
757
330
754
100
AcDbEntity
  8
IMAGE
 62
     5
100
AcDbVertex
100
AcDb2dVertex
 10
1.1772685893706
 20
7.847578410386574
 30
0.0
 70
     8
  0
VERTEX
  5
758
330
754
100
AcDbEntity
  8
IMAGE
 62
     5
100
AcDbVertex
100
AcDb2dVertex
 10
1.189081105480814
 20
7.782940309377142
 30
0.0
 70
     8
  0
VERTEX
  5
759
330
754
100
AcDbEntity
  8
IMAGE
 62
     5
100
AcDbVertex
100
AcDb2dVertex
 10
1.201242499600287
 20
7.729843282570165
 30
0.0
 70
     8
  0
VERTEX
  5
75A
330
754
100
AcDbEntity
  8
IMAGE
 62
     5
100
AcDbVertex
100
AcDb2dVertex
 10
1.213738964893441
 20
7.686336731737444
 30
0.0
 70
     8
  0
VERTEX
  5
75B
330
754
100
AcDbEntity
  8
IMAGE
 62
     5
100
AcDbVertex
100
AcDb2dVertex
 10
1.226556694524693
 20
7.650470058650771
 30
0.0
 70
     8
  0
VERTEX
  5
75C
330
754
100
AcDbEntity
  8
IMAGE
 62
     5
100
AcDbVertex
100
AcDb2dVertex
 10
1.239681881658461
 20
7.620292665081947
 30
0.0
 70
     8
  0
VERTEX
  5
75D
330
754
100
AcDbEntity
  8
IMAGE
 62
     5
100
AcDbVertex
100
AcDb2dVertex
 10
1.253100719459168
 20
7.593853952802767
 30
0.0
 70
     8
  0
VERTEX
  5
75E
330
754
100
AcDbEntity
  8
IMAGE
 62
     5
100
AcDbVertex
100
AcDb2dVertex
 10
1.266799401091229
 20
7.569203323585028
 30
0.0
 70
     8
  0
VERTEX
  5
75F
330
754
100
AcDbEntity
  8
IMAGE
 62
     5
100
AcDbVertex
100
AcDb2dVertex
 10
1.280785511592672
 20
7.544721126974021
 30
0.0
 70
     8
  0
VERTEX
  5
760
330
754
100
AcDbEntity
  8
IMAGE
 62
     5
100
AcDbVertex
100
AcDb2dVertex
 10
1.295152203495956
 20
7.520111503609026
 30
0.0
 70
     8
  0
VERTEX
  5
761
330
754
100
AcDbEntity
  8
IMAGE
 62
     5
100
AcDbVertex
100
AcDb2dVertex
 10
1.310014021207149
 20
7.495409541902823
 30
0.0
 70
     8
  0
VERTEX
  5
762
330
754
100
AcDbEntity
  8
IMAGE
 62
     5
100
AcDbVertex
100
AcDb2dVertex
 10
1.325485509132316
 20
7.470650330268188
 30
0.0
 70
     8
  0
VERTEX
  5
763
330
754
100
AcDbEntity
  8
IMAGE
 62
     5
100
AcDbVertex
100
AcDb2dVertex
 10
1.341681211677527
 20
7.445868957117898
 30
0.0
 70
     8
  0
VERTEX
  5
764
330
754
100
AcDbEntity
  8
IMAGE
 62
     5
100
AcDbVertex
100
AcDb2dVertex
 10
1.358715673248846
 20
7.421100510864732
 30
0.0
 70
     8
  0
VERTEX
  5
765
330
754
100
AcDbEntity
  8
IMAGE
 62
     5
100
AcDbVertex
100
AcDb2dVertex
 10
1.376703438252339
 20
7.39638007992147
 30
0.0
 70
     8
  0
VERTEX
  5
766
330
754
100
AcDbEntity
  8
IMAGE
 62
     5
100
AcDbVertex
100
AcDb2dVertex
 10
1.395759051094077
 20
7.371742752700885
 30
0.0
 70
     8
  0
VERTEX
  5
767
330
754
100
AcDbEntity
  8
IMAGE
 62
     5
100
AcDbVertex
100
AcDb2dVertex
 10
1.415932394087447
 20
7.347265169767617
 30
0.0
 70
     8
  0
VERTEX
  5
768
330
754
100
AcDbEntity
  8
IMAGE
 62
     5
100
AcDbVertex
100
AcDb2dVertex
 10
1.437014701175132
 20
7.323190180293753
 30
0.0
 70
     8
  0
VERTEX
  5
769
330
754
100
AcDbEntity
  8
IMAGE
 62
     5
100
AcDbVertex
100
AcDb2dVertex
 10
1.45873254420714
 20
7.29980218560324
 30
0.0
 70
     8
  0
VERTEX
  5
76A
330
754
100
AcDbEntity
  8
IMAGE
 62
     5
100
AcDbVertex
100
AcDb2dVertex
 10
1.480812495033474
 20
7.27738558702002
 30
0.0
 70
     8
  0
VERTEX
  5
76B
330
754
100
AcDbEntity
  8
IMAGE
 62
     5
100
AcDbVertex
100
AcDb2dVertex
 10
1.502981125504141
 20
7.256224785868038
 30
0.0
 70
     8
  0
VERTEX
  5
76C
330
754
100
AcDbEntity
  8
IMAGE
 62
     5
100
AcDbVertex
100
AcDb2dVertex
 10
1.524965007469146
 20
7.236604183471246
 30
0.0
 70
     8
  0
VERTEX
  5
76D
330
754
100
AcDbEntity
  8
IMAGE
 62
     5
100
AcDbVertex
100
AcDb2dVertex
 10
1.546490712778495
 20
7.218808181153586
 30
0.0
 70
     8
  0
VERTEX
  5
76E
330
754
100
AcDbEntity
  8
IMAGE
 62
     5
100
AcDbVertex
100
AcDb2dVertex
 10
1.567284813282195
 20
7.203121180239008
 30
0.0
 70
     8
  0
VERTEX
  5
76F
330
754
100
AcDbEntity
  8
IMAGE
 62
     5
100
AcDbVertex
100
AcDb2dVertex
 10
1.587160096917943
 20
7.189735243946294
 30
0.0
 70
     8
  0
VERTEX
  5
770
330
754
100
AcDbEntity
  8
IMAGE
 62
     5
100
AcDbVertex
100
AcDb2dVertex
 10
1.606274215974221
 20
7.17847308307359
 30
0.0
 70
     8
  0
VERTEX
  5
771
330
754
100
AcDbEntity
  8
IMAGE
 62
     5
100
AcDbVertex
100
AcDb2dVertex
 10
1.624871038827204
 20
7.169065070313883
 30
0.0
 70
     8
  0
VERTEX
  5
772
330
754
100
AcDbEntity
  8
IMAGE
 62
     5
100
AcDbVertex
100
AcDb2dVertex
 10
1.64319443385306
 20
7.161241578360161
 30
0.0
 70
     8
  0
VERTEX
  5
773
330
754
100
AcDbEntity
  8
IMAGE
 62
     5
100
AcDbVertex
100
AcDb2dVertex
 10
1.661488269427969
 20
7.154732979905406
 30
0.0
 70
     8
  0
VERTEX
  5
774
330
754
100
AcDbEntity
  8
IMAGE
 62
     5
100
AcDbVertex
100
AcDb2dVertex
 10
1.679996413928098
 20
7.149269647642607
 30
0.0
 70
     8
  0
VERTEX
  5
775
330
754
100
AcDbEntity
  8
IMAGE
 62
     5
100
AcDbVertex
100
AcDb2dVertex
 10
1.698962735729627
 20
7.14458195426475
 30
0.0
 70
     8
  0
VERTEX
  5
776
330
754
100
AcDbEntity
  8
IMAGE
 62
     5
100
AcDbVertex
100
AcDb2dVertex
 10
1.718631103208726
 20
7.140400272464819
 30
0.0
 70
     8
  0
VERTEX
  5
777
330
754
100
AcDbEntity
  8
IMAGE
 62
     5
100
AcDbVertex
100
AcDb2dVertex
 10
1.739215824940841
 20
7.136494988166151
 30
0.0
 70
     8
  0
VERTEX
  5
778
330
754
100
AcDbEntity
  8
IMAGE
 62
     5
100
AcDbVertex
100
AcDb2dVertex
 10
1.760812970298517
 20
7.132796540213479
 30
0.0
 70
     8
  0
VERTEX
  5
779
330
754
100
AcDbEntity
  8
IMAGE
 62
     5
100
AcDbVertex
100
AcDb2dVertex
 10
1.783489048853565
 20
7.129275380681881
 30
0.0
 70
     8
  0
VERTEX
  5
77A
330
754
100
AcDbEntity
  8
IMAGE
 62
     5
100
AcDbVertex
100
AcDb2dVertex
 10
1.8073105701778
 20
7.125901961646444
 30
0.0
 70
     8
  0
VERTEX
  5
77B
330
754
100
AcDbEntity
  8
IMAGE
 62
     5
100
AcDbVertex
100
AcDb2dVertex
 10
1.832344043843035
 20
7.122646735182246
 30
0.0
 70
     8
  0
VERTEX
  5
77C
330
754
100
AcDbEntity
  8
IMAGE
 62
     5
100
AcDbVertex
100
AcDb2dVertex
 10
1.858655979421086
 20
7.11948015336437
 30
0.0
 70
     8
  0
VERTEX
  5
77D
330
754
100
AcDbEntity
  8
IMAGE
 62
     5
100
AcDbVertex
100
AcDb2dVertex
 10
1.886312886483767
 20
7.116372668267895
 30
0.0
 70
     8
  0
VERTEX
  5
77E
330
754
100
AcDbEntity
  8
IMAGE
 62
     5
100
AcDbVertex
100
AcDb2dVertex
 10
1.915381274602892
 20
7.113294731967903
 30
0.0
 70
     8
  0
VERTEX
  5
77F
330
754
100
AcDbEntity
  8
IMAGE
 62
     5
100
AcDbVertex
100
AcDb2dVertex
 10
1.945891627352387
 20
7.110222336764052
 30
0.0
 70
     8
  0
VERTEX
  5
780
330
754
100
AcDbEntity
  8
IMAGE
 62
     5
100
AcDbVertex
100
AcDb2dVertex
 10
1.977730324314634
 20
7.107153635854291
 30
0.0
 70
     8
  0
VERTEX
  5
781
330
754
100
AcDbEntity
  8
IMAGE
 62
     5
100
AcDbVertex
100
AcDb2dVertex
 10
2.010747719074129
 20
7.10409232266114
 30
0.0
 70
     8
  0
VERTEX
  5
782
330
754
100
AcDbEntity
  8
IMAGE
 62
     5
100
AcDbVertex
100
AcDb2dVertex
 10
2.044794165215365
 20
7.101042090607129
 30
0.0
 70
     8
  0
VERTEX
  5
783
330
754
100
AcDbEntity
  8
IMAGE
 62
     5
100
AcDbVertex
100
AcDb2dVertex
 10
2.079720016322837
 20
7.098006633114777
 30
0.0
 70
     8
  0
VERTEX
  5
784
330
754
100
AcDbEntity
  8
IMAGE
 62
     5
100
AcDbVertex
100
AcDb2dVertex
 10
2.11537562598104
 20
7.094989643606608
 30
0.0
 70
     8
  0
VERTEX
  5
785
330
754
100
AcDbEntity
  8
IMAGE
 62
     5
100
AcDbVertex
100
AcDb2dVertex
 10
2.151611347774468
 20
7.091994815505151
 30
0.0
 70
     8
  0
VERTEX
  5
786
330
754
100
AcDbEntity
  8
IMAGE
 62
     5
100
AcDbVertex
100
AcDb2dVertex
 10
2.188277535287617
 20
7.089025842232923
 30
0.0
 70
     8
  0
VERTEX
  5
787
330
754
100
AcDbEntity
  8
IMAGE
 62
     5
100
AcDbVertex
100
AcDb2dVertex
 10
2.225449128369834
 20
7.086066146139084
 30
0.0
 70
     8
  0
VERTEX
  5
788
330
754
100
AcDbEntity
  8
IMAGE
 62
     5
100
AcDbVertex
100
AcDb2dVertex
 10
2.26409941192989
 20
7.083018065279325
 30
0.0
 70
     8
  0
VERTEX
  5
789
330
754
100
AcDbEntity
  8
IMAGE
 62
     5
100
AcDbVertex
100
AcDb2dVertex
 10
2.305426257141408
 20
7.079763666635961
 30
0.0
 70
     8
  0
VERTEX
  5
78A
330
754
100
AcDbEntity
  8
IMAGE
 62
     5
100
AcDbVertex
100
AcDb2dVertex
 10
2.350627535178012
 20
7.07618501719132
 30
0.0
 70
     8
  0
VERTEX
  5
78B
330
754
100
AcDbEntity
  8
IMAGE
 62
     5
100
AcDbVertex
100
AcDb2dVertex
 10
2.400901117213327
 20
7.07216418392772
 30
0.0
 70
     8
  0
VERTEX
  5
78C
330
754
100
AcDbEntity
  8
IMAGE
 62
     5
100
AcDbVertex
100
AcDb2dVertex
 10
2.457444874420978
 20
7.067583233827483
 30
0.0
 70
     8
  0
VERTEX
  5
78D
330
754
100
AcDbEntity
  8
IMAGE
 62
     5
100
AcDbVertex
100
AcDb2dVertex
 10
2.521456677974586
 20
7.062324233872934
 30
0.0
 70
     8
  0
VERTEX
  5
78E
330
754
100
AcDbEntity
  8
IMAGE
 62
     5
100
AcDbVertex
100
AcDb2dVertex
 10
2.59413439904778
 20
7.056269251046393
 30
0.0
 70
     8
  0
VERTEX
  5
78F
330
754
100
AcDbEntity
  8
IMAGE
 62
     5
100
AcDbVertex
100
AcDb2dVertex
 10
1.195855788943693
 20
7.697639359653795
 30
0.0
 70
    16
  0
VERTEX
  5
790
330
754
100
AcDbEntity
  8
IMAGE
 62
     5
100
AcDbVertex
100
AcDb2dVertex
 10
1.263961673136303
 20
7.57093681869718
 30
0.0
 70
    16
  0
VERTEX
  5
791
330
754
100
AcDbEntity
  8
IMAGE
 62
     5
100
AcDbVertex
100
AcDb2dVertex
 10
1.383146867154773
 20
7.370482036589347
 30
0.0
 70
    16
  0
VERTEX
  5
792
330
754
100
AcDbEntity
  8
IMAGE
 62
     5
100
AcDbVertex
100
AcDb2dVertex
 10
1.578005164809069
 20
7.177591551150739
 30
0.0
 70
    16
  0
VERTEX
  5
793
330
754
100
AcDbEntity
  8
IMAGE
 62
     5
100
AcDbVertex
100
AcDb2dVertex
 10
1.708541353302119
 20
7.137878840241742
 30
0.0
 70
    16
  0
VERTEX
  5
794
330
754
100
AcDbEntity
  8
IMAGE
 62
     5
100
AcDbVertex
100
AcDb2dVertex
 10
1.899616041234808
 20
7.113294722671205
 30
0.0
 70
    16
  0
VERTEX
  5
795
330
754
100
AcDbEntity
  8
IMAGE
 62
     5
100
AcDbVertex
100
AcDb2dVertex
 10
2.185282129375997
 20
7.088710660880866
 30
0.0
 70
    16
  0
VERTEX
  5
796
330
754
100
AcDbEntity
  8
IMAGE
 62
     5
100
AcDbVertex
100
AcDb2dVertex
 10
2.387707811783267
 20
7.073582011762208
 30
0.0
 70
    16
  0
VERTEX
  5
797
330
754
100
AcDbEntity
  8
IMAGE
 62
     5
100
AcDbVertex
100
AcDb2dVertex
 10
2.59413439904778
 20
7.056269251046393
 30
0.0
 70
    16
  0
SEQEND
  5
798
330
754
100
AcDbEntity
  8
IMAGE
 62
     5
  0
POLYLINE
  5
799
330
2
100
AcDbEntity
  8
IMAGE
 62
     5
100
AcDb2dPolyline
 66
     1
 10
0.0
 20
0.0
 30
0.0
 70
     4
 40
0.037
 41
0.037
 75
     6
  0
VERTEX
  5
79A
330
799
100
AcDbEntity
  8
IMAGE
 62
     5
100
AcDbVertex
100
AcDb2dVertex
 10
3.351110619585464
 20
6.622133323385756
 30
0.0
 70
    16
  0
VERTEX
  5
79B
330
799
100
AcDbEntity
  8
IMAGE
 62
     5
100
AcDbVertex
100
AcDb2dVertex
 10
3.351110619585464
 20
6.622133323385756
 30
0.0
 70
     8
  0
VERTEX
  5
79C
330
799
100
AcDbEntity
  8
IMAGE
 62
     5
100
AcDbVertex
100
AcDb2dVertex
 10
3.269457956261594
 20
6.624775396981795
 30
0.0
 70
     8
  0
VERTEX
  5
79D
330
799
100
AcDbEntity
  8
IMAGE
 62
     5
100
AcDbVertex
100
AcDb2dVertex
 10
3.193910608190496
 20
6.627265218827147
 30
0.0
 70
     8
  0
VERTEX
  5
79E
330
799
100
AcDbEntity
  8
IMAGE
 62
     5
100
AcDbVertex
100
AcDb2dVertex
 10
3.123943767207069
 20
6.629647688576009
 30
0.0
 70
     8
  0
VERTEX
  5
79F
330
799
100
AcDbEntity
  8
IMAGE
 62
     5
100
AcDbVertex
100
AcDb2dVertex
 10
3.059032625146211
 20
6.631967705882586
 30
0.0
 70
     8
  0
VERTEX
  5
7A0
330
799
100
AcDbEntity
  8
IMAGE
 62
     5
100
AcDbVertex
100
AcDb2dVertex
 10
2.998652373842817
 20
6.634270170401072
 30
0.0
 70
     8
  0
VERTEX
  5
7A1
330
799
100
AcDbEntity
  8
IMAGE
 62
     5
100
AcDbVertex
100
AcDb2dVertex
 10
2.942278205131786
 20
6.636599981785667
 30
0.0
 70
     8
  0
VERTEX
  5
7A2
330
799
100
AcDbEntity
  8
IMAGE
 62
     5
100
AcDbVertex
100
AcDb2dVertex
 10
2.889385310848017
 20
6.639002039690566
 30
0.0
 70
     8
  0
VERTEX
  5
7A3
330
799
100
AcDbEntity
  8
IMAGE
 62
     5
100
AcDbVertex
100
AcDb2dVertex
 10
2.839448882826407
 20
6.641521243769974
 30
0.0
 70
     8
  0
VERTEX
  5
7A4
330
799
100
AcDbEntity
  8
IMAGE
 62
     5
100
AcDbVertex
100
AcDb2dVertex
 10
2.791947148365525
 20
6.644208514312231
 30
0.0
 70
     8
  0
VERTEX
  5
7A5
330
799
100
AcDbEntity
  8
IMAGE
 62
     5
100
AcDbVertex
100
AcDb2dVertex
 10
2.746370476618626
 20
6.647138854142276
 30
0.0
 70
     8
  0
VERTEX
  5
7A6
330
799
100
AcDbEntity
  8
IMAGE
 62
     5
100
AcDbVertex
100
AcDb2dVertex
 10
2.702212272202635
 20
6.650393286719185
 30
0.0
 70
     8
  0
VERTEX
  5
7A7
330
799
100
AcDbEntity
  8
IMAGE
 62
     5
100
AcDbVertex
100
AcDb2dVertex
 10
2.658965939734474
 20
6.654052835502041
 30
0.0
 70
     8
  0
VERTEX
  5
7A8
330
799
100
AcDbEntity
  8
IMAGE
 62
     5
100
AcDbVertex
100
AcDb2dVertex
 10
2.61612488383107
 20
6.658198523949923
 30
0.0
 70
     8
  0
VERTEX
  5
7A9
330
799
100
AcDbEntity
  8
IMAGE
 62
     5
100
AcDbVertex
100
AcDb2dVertex
 10
2.573182509109346
 20
6.662911375521914
 30
0.0
 70
     8
  0
VERTEX
  5
7AA
330
799
100
AcDbEntity
  8
IMAGE
 62
     5
100
AcDbVertex
100
AcDb2dVertex
 10
2.529632220186232
 20
6.668272413677096
 30
0.0
 70
     8
  0
VERTEX
  5
7AB
330
799
100
AcDbEntity
  8
IMAGE
 62
     5
100
AcDbVertex
100
AcDb2dVertex
 10
2.484967421678645
 20
6.674362661874549
 30
0.0
 70
     8
  0
VERTEX
  5
7AC
330
799
100
AcDbEntity
  8
IMAGE
 62
     5
100
AcDbVertex
100
AcDb2dVertex
 10
2.438791280505575
 20
6.681259767545951
 30
0.0
 70
     8
  0
VERTEX
  5
7AD
330
799
100
AcDbEntity
  8
IMAGE
 62
     5
100
AcDbVertex
100
AcDb2dVertex
 10
2.391146012794233
 20
6.689027874013418
 30
0.0
 70
     8
  0
VERTEX
  5
7AE
330
799
100
AcDbEntity
  8
IMAGE
 62
     5
100
AcDbVertex
100
AcDb2dVertex
 10
2.342183596973888
 20
6.697727748571653
 30
0.0
 70
     8
  0
VERTEX
  5
7AF
330
799
100
AcDbEntity
  8
IMAGE
 62
     5
100
AcDbVertex
100
AcDb2dVertex
 10
2.292056011473817
 20
6.707420158515371
 30
0.0
 70
     8
  0
VERTEX
  5
7B0
330
799
100
AcDbEntity
  8
IMAGE
 62
     5
100
AcDbVertex
100
AcDb2dVertex
 10
2.240915234723289
 20
6.718165871139276
 30
0.0
 70
     8
  0
VERTEX
  5
7B1
330
799
100
AcDbEntity
  8
IMAGE
 62
     5
100
AcDbVertex
100
AcDb2dVertex
 10
2.188913245151579
 20
6.730025653738084
 30
0.0
 70
     8
  0
VERTEX
  5
7B2
330
799
100
AcDbEntity
  8
IMAGE
 62
     5
100
AcDbVertex
100
AcDb2dVertex
 10
2.136202021187954
 20
6.743060273606498
 30
0.0
 70
     8
  0
VERTEX
  5
7B3
330
799
100
AcDbEntity
  8
IMAGE
 62
     5
100
AcDbVertex
100
AcDb2dVertex
 10
2.082933541261689
 20
6.757330498039233
 30
0.0
 70
     8
  0
VERTEX
  5
7B4
330
799
100
AcDbEntity
  8
IMAGE
 62
     5
100
AcDbVertex
100
AcDb2dVertex
 10
2.029298622850574
 20
6.77287008662025
 30
0.0
 70
     8
  0
VERTEX
  5
7B5
330
799
100
AcDbEntity
  8
IMAGE
 62
     5
100
AcDbVertex
100
AcDb2dVertex
 10
1.975643439626465
 20
6.789604768090518
 30
0.0
 70
     8
  0
VERTEX
  5
7B6
330
799
100
AcDbEntity
  8
IMAGE
 62
     5
100
AcDbVertex
100
AcDb2dVertex
 10
1.922353004309738
 20
6.807433263480265
 30
0.0
 70
     8
  0
VERTEX
  5
7B7
330
799
100
AcDbEntity
  8
IMAGE
 62
     5
100
AcDbVertex
100
AcDb2dVertex
 10
1.869812329620768
 20
6.826254293819704
 30
0.0
 70
     8
  0
VERTEX
  5
7B8
330
799
100
AcDbEntity
  8
IMAGE
 62
     5
100
AcDbVertex
100
AcDb2dVertex
 10
1.818406428279931
 20
6.845966580139065
 30
0.0
 70
     8
  0
VERTEX
  5
7B9
330
799
100
AcDbEntity
  8
IMAGE
 62
     5
100
AcDbVertex
100
AcDb2dVertex
 10
1.768520313007601
 20
6.866468843468569
 30
0.0
 70
     8
  0
VERTEX
  5
7BA
330
799
100
AcDbEntity
  8
IMAGE
 62
     5
100
AcDbVertex
100
AcDb2dVertex
 10
1.720538996524154
 20
6.887659804838437
 30
0.0
 70
     8
  0
VERTEX
  5
7BB
330
799
100
AcDbEntity
  8
IMAGE
 62
     5
100
AcDbVertex
100
AcDb2dVertex
 10
1.674847491549967
 20
6.909438185278893
 30
0.0
 70
     8
  0
VERTEX
  5
7BC
330
799
100
AcDbEntity
  8
IMAGE
 62
     5
100
AcDbVertex
100
AcDb2dVertex
 10
1.631732868944713
 20
6.931780353088426
 30
0.0
 70
     8
  0
VERTEX
  5
7BD
330
799
100
AcDbEntity
  8
IMAGE
 62
     5
100
AcDbVertex
100
AcDb2dVertex
 10
1.591090432125281
 20
6.954973265638595
 30
0.0
 70
     8
  0
VERTEX
  5
7BE
330
799
100
AcDbEntity
  8
IMAGE
 62
     5
100
AcDbVertex
100
AcDb2dVertex
 10
1.552717542647854
 20
6.979381527569223
 30
0.0
 70
     8
  0
VERTEX
  5
7BF
330
799
100
AcDbEntity
  8
IMAGE
 62
     5
100
AcDbVertex
100
AcDb2dVertex
 10
1.516411562068619
 20
7.005369743520136
 30
0.0
 70
     8
  0
VERTEX
  5
7C0
330
799
100
AcDbEntity
  8
IMAGE
 62
     5
100
AcDbVertex
100
AcDb2dVertex
 10
1.481969851943765
 20
7.033302518131161
 30
0.0
 70
     8
  0
VERTEX
  5
7C1
330
799
100
AcDbEntity
  8
IMAGE
 62
     5
100
AcDbVertex
100
AcDb2dVertex
 10
1.449189773829476
 20
7.063544456042119
 30
0.0
 70
     8
  0
VERTEX
  5
7C2
330
799
100
AcDbEntity
  8
IMAGE
 62
     5
100
AcDbVertex
100
AcDb2dVertex
 10
1.417868689281937
 20
7.096460161892834
 30
0.0
 70
     8
  0
VERTEX
  5
7C3
330
799
100
AcDbEntity
  8
IMAGE
 62
     5
100
AcDbVertex
100
AcDb2dVertex
 10
1.387803959857339
 20
7.132414240323138
 30
0.0
 70
     8
  0
VERTEX
  5
7C4
330
799
100
AcDbEntity
  8
IMAGE
 62
     5
100
AcDbVertex
100
AcDb2dVertex
 10
1.358842762402693
 20
7.171663264975516
 30
0.0
 70
     8
  0
VERTEX
  5
7C5
330
799
100
AcDbEntity
  8
IMAGE
 62
     5
100
AcDbVertex
100
AcDb2dVertex
 10
1.331031534928345
 20
7.214031685503146
 30
0.0
 70
     8
  0
VERTEX
  5
7C6
330
799
100
AcDbEntity
  8
IMAGE
 62
     5
100
AcDbVertex
100
AcDb2dVertex
 10
1.304466530735461
 20
7.259235920561856
 30
0.0
 70
     8
  0
VERTEX
  5
7C7
330
799
100
AcDbEntity
  8
IMAGE
 62
     5
100
AcDbVertex
100
AcDb2dVertex
 10
1.279244003125213
 20
7.30699238880749
 30
0.0
 70
     8
  0
VERTEX
  5
7C8
330
799
100
AcDbEntity
  8
IMAGE
 62
     5
100
AcDbVertex
100
AcDb2dVertex
 10
1.25546020539877
 20
7.357017508895879
 30
0.0
 70
     8
  0
VERTEX
  5
7C9
330
799
100
AcDbEntity
  8
IMAGE
 62
     5
100
AcDbVertex
100
AcDb2dVertex
 10
1.233211390857303
 20
7.409027699482866
 30
0.0
 70
     8
  0
VERTEX
  5
7CA
330
799
100
AcDbEntity
  8
IMAGE
 62
     5
100
AcDbVertex
100
AcDb2dVertex
 10
1.212593812801983
 20
7.462739379224288
 30
0.0
 70
     8
  0
VERTEX
  5
7CB
330
799
100
AcDbEntity
  8
IMAGE
 62
     5
100
AcDbVertex
100
AcDb2dVertex
 10
1.193703724533979
 20
7.517868966775978
 30
0.0
 70
     8
  0
VERTEX
  5
7CC
330
799
100
AcDbEntity
  8
IMAGE
 62
     5
100
AcDbVertex
100
AcDb2dVertex
 10
1.176632599066599
 20
7.574032651697358
 30
0.0
 70
     8
  0
VERTEX
  5
7CD
330
799
100
AcDbEntity
  8
IMAGE
 62
     5
100
AcDbVertex
100
AcDb2dVertex
 10
1.161452788261708
 20
7.630445707162181
 30
0.0
 70
     8
  0
VERTEX
  5
7CE
330
799
100
AcDbEntity
  8
IMAGE
 62
     5
100
AcDbVertex
100
AcDb2dVertex
 10
1.148231863693299
 20
7.686223177247782
 30
0.0
 70
     8
  0
VERTEX
  5
7CF
330
799
100
AcDbEntity
  8
IMAGE
 62
     5
100
AcDbVertex
100
AcDb2dVertex
 10
1.137037396935377
 20
7.74048010603149
 30
0.0
 70
     8
  0
VERTEX
  5
7D0
330
799
100
AcDbEntity
  8
IMAGE
 62
     5
100
AcDbVertex
100
AcDb2dVertex
 10
1.127936959561938
 20
7.792331537590641
 30
0.0
 70
     8
  0
VERTEX
  5
7D1
330
799
100
AcDbEntity
  8
IMAGE
 62
     5
100
AcDbVertex
100
AcDb2dVertex
 10
1.120998123146981
 20
7.840892516002572
 30
0.0
 70
     8
  0
VERTEX
  5
7D2
330
799
100
AcDbEntity
  8
IMAGE
 62
     5
100
AcDbVertex
100
AcDb2dVertex
 10
1.116288459264507
 20
7.885278085344612
 30
0.0
 70
     8
  0
VERTEX
  5
7D3
330
799
100
AcDbEntity
  8
IMAGE
 62
     5
100
AcDbVertex
100
AcDb2dVertex
 10
1.113875539488513
 20
7.9246032896941
 30
0.0
 70
     8
  0
VERTEX
  5
7D4
330
799
100
AcDbEntity
  8
IMAGE
 62
     5
100
AcDbVertex
100
AcDb2dVertex
 10
3.124763267571359
 20
6.629421766113174
 30
0.0
 70
    16
  0
VERTEX
  5
7D5
330
799
100
AcDbEntity
  8
IMAGE
 62
     5
100
AcDbVertex
100
AcDb2dVertex
 10
2.813511196457798
 20
6.63979275493046
 30
0.0
 70
    16
  0
VERTEX
  5
7D6
330
799
100
AcDbEntity
  8
IMAGE
 62
     5
100
AcDbVertex
100
AcDb2dVertex
 10
2.502259207999116
 20
6.665720171193476
 30
0.0
 70
    16
  0
VERTEX
  5
7D7
330
799
100
AcDbEntity
  8
IMAGE
 62
     5
100
AcDbVertex
100
AcDb2dVertex
 10
2.087256501617619
 20
6.743502531542918
 30
0.0
 70
    16
  0
VERTEX
  5
7D8
330
799
100
AcDbEntity
  8
IMAGE
 62
     5
100
AcDbVertex
100
AcDb2dVertex
 10
1.646316033100542
 20
6.90425269087025
 30
0.0
 70
    16
  0
VERTEX
  5
7D9
330
799
100
AcDbEntity
  8
IMAGE
 62
     5
100
AcDbVertex
100
AcDb2dVertex
 10
1.376564315280009
 20
7.096115816649436
 30
0.0
 70
    16
  0
VERTEX
  5
7DA
330
799
100
AcDbEntity
  8
IMAGE
 62
     5
100
AcDbVertex
100
AcDb2dVertex
 10
1.174250464923452
 20
7.505769484470828
 30
0.0
 70
    16
  0
VERTEX
  5
7DB
330
799
100
AcDbEntity
  8
IMAGE
 62
     5
100
AcDbVertex
100
AcDb2dVertex
 10
1.117187603127855
 20
7.827269858905687
 30
0.0
 70
    16
  0
VERTEX
  5
7DC
330
799
100
AcDbEntity
  8
IMAGE
 62
     5
100
AcDbVertex
100
AcDb2dVertex
 10
1.113875539488513
 20
7.9246032896941
 30
0.0
 70
    16
  0
SEQEND
  5
7DD
330
799
100
AcDbEntity
  8
IMAGE
 62
     5
  0
TEXT
  5
7DE
330
2
100
AcDbEntity
  8
IMAGE
100
AcDbText
 10
11.70952874071397
 20
6.030408746124416
 30
0.0
 40
0.125
  1
SOLENOID
  7
arial
100
AcDbText
  0
TEXT
  5
7DF
330
2
100
AcDbEntity
  8
IMAGE
100
AcDbText
 10
11.70952874071397
 20
5.789446945305862
 30
0.0
 40
0.125
  1
(VALVE),
  7
arial
100
AcDbText
  0
TEXT
  5
7E0
330
2
100
AcDbEntity
  8
IMAGE
100
AcDbText
 10
11.70952874071397
 20
5.548485144487309
 30
0.0
 40
0.125
  1
MASTER VALVE,
  7
arial
100
AcDbText
  0
TEXT
  5
7E1
330
2
100
AcDbEntity
  8
IMAGE
100
AcDbText
 10
11.70952874071397
 20
5.307523343668755
 30
0.0
 40
0.125
  1
OR BOOSTER 
  7
arial
100
AcDbText
  0
TEXT
  5
7E2
330
2
100
AcDbEntity
  8
IMAGE
100
AcDbText
 10
11.70952874071397
 20
5.066561542850202
 30
0.0
 40
0.125
  1
PUMP / VALVE
  7
arial
100
AcDbText
  0
TEXT
  5
7E3
330
2
100
AcDbEntity
  8
IMAGE
100
AcDbText
 10
6.950387251816253
 20
5.601328262167626
 30
0.0
 40
0.125
  1
DBY 
  7
arial
100
AcDbText
  0
TEXT
  5
7E4
330
2
100
AcDbEntity
  8
IMAGE
100
AcDbText
 10
6.950387251816253
 20
5.360366461349073
 30
0.0
 40
0.125
  1
CONNECTORS
  7
arial
100
AcDbText
  0
TEXT
  5
7E5
330
2
100
AcDbEntity
  8
IMAGE
100
AcDbText
 10
2.428240726513882
 20
5.859491154975407
 30
0.0
 40
0.125
  1
DBY
  7
arial
100
AcDbText
  0
TEXT
  5
7E6
330
2
100
AcDbEntity
  8
IMAGE
100
AcDbText
 10
2.428240726513882
 20
5.618529354156854
 30
0.0
 40
0.125
  1
CONNECTORS
  7
arial
100
AcDbText
  0
TEXT
  5
7E7
330
2
100
AcDbEntity
  8
IMAGE
100
AcDbText
 10
1.38384257326773
 20
9.26499561081394
 30
0.0
 40
0.125
  1
TWO-WIRE
  7
arial
100
AcDbText
  0
TEXT
  5
7E8
330
2
100
AcDbEntity
  8
IMAGE
100
AcDbText
 10
1.38384257326773
 20
9.024033809995387
 30
0.0
 40
0.125
  1
CABLE
  7
arial
100
AcDbText
  0
TEXT
  5
7E9
330
2
100
AcDbEntity
  8
IMAGE
100
AcDbText
 10
5.893404469139838
 20
6.878293411796632
 30
0.0
 40
0.125
  1
WHITE
  7
arial
100
AcDbText
  0
TEXT
  5
7EB
330
2
100
AcDbEntity
  8
IMAGE
 62
     5
100
AcDbText
 10
4.110355445456991
 20
7.09861722378197
 30
0.0
 40
0.125
  1
BLUE
  7
arial
100
AcDbText
  0
TEXT
  5
7ED
330
2
100
AcDbEntity
  8
IMAGE
100
AcDbText
 10
1.38384257326773
 20
7.523918519670392
 30
0.0
 40
0.125
  1
COMMUNICATION WIRE
  7
arial
100
AcDbText
  0
TEXT
  5
7EE
330
2
100
AcDbEntity
  8
IMAGE
100
AcDbText
 10
0.1606193045397495
 20
6.500537326989674
 30
0.0
 40
0.125
  1
COMMUNICATION WIRE
  7
arial
100
AcDbText
  0
TEXT
  5
7EF
330
2
100
AcDbEntity
  8
IMAGE
100
AcDbText
 10
8.539410501080878
 20
7.206399745298271
 30
0.0
 40
0.125
  1
SOLENOID WIRE
  7
arial
100
AcDbText
  0
TEXT
  5
7F0
330
2
100
AcDbEntity
  8
IMAGE
100
AcDbText
 10
8.03226133054868
 20
6.191048101415226
 30
0.0
 40
0.125
  1
SOLENOID WIRE
  7
arial
100
AcDbText
  0
MTEXT
  5
7F2
330
2
100
AcDbEntity
  8
IMAGE
100
AcDbMText
 10
5.522358374798549
 20
3.617747882541396
 30
0.0
 40
0.125
 41
0.8262
 71
     1
 72
     5
  1
FD-102\PTURF\PM10004
  7
arial
 73
     1
 44
1.0
  0
LINE
  5
7F3
330
2
100
AcDbEntity
  8
IMAGE
100
AcDbLine
 10
7.654190090806698
 20
6.594626449400041
 30
0.0
 11
7.654190090806698
 21
6.172741466620641
 31
0.0
  0
LINE
  5
7F4
330
2
100
AcDbEntity
  8
IMAGE
100
AcDbLine
 10
7.841240656673968
 20
6.589241359038076
 30
0.0
 11
7.841240656673969
 21
6.172741466620641
 31
0.0
  0
TEXT
  5
803
330
2
100
AcDbEntity
  8
IMAGE
100
AcDbText
 10
8.990523044737207
 20
6.734327372911582
 30
0.0
 40
0.125
  1
SOLENOID WIRE
  7
arial
100
AcDbText
  0
LINE
  5
906
330
2
100
AcDbEntity
  8
IMAGE
100
AcDbLine
 10
9.648706320634419
 20
8.042884042828049
 30
0.0
 11
9.797930238859398
 21
8.042884042828049
 31
0.0
  0
LWPOLYLINE
  5
907
330
2
100
AcDbEntity
  8
IMAGE
100
AcDbPolyline
 90
        4
 70
     0
 43
0.0
 10
9.797930238859398
 20
8.131567212693553
 10
9.797930238859398
 20
7.56427035145603
 42
-0.4142135623730951
 10
9.788786495971121
 20
7.555126608567753
 10
9.648706320634419
 20
7.555126608567753
  0
LINE
  5
908
330
2
100
AcDbEntity
  8
IMAGE
100
AcDbLine
 10
9.497661075081031
 20
8.59042556909911
 30
0.0
 11
10.08996148152705
 21
8.59042556909911
 31
0.0
  0
LINE
  5
909
330
2
100
AcDbEntity
  8
IMAGE
100
AcDbLine
 10
9.497661075081031
 20
8.448273471552063
 30
0.0
 11
10.08996148152705
 21
8.448273471552063
 31
0.0
  0
LINE
  5
90A
330
2
100
AcDbEntity
  8
IMAGE
100
AcDbLine
 10
9.611754999857128
 20
7.592077929345059
 30
0.0
 11
9.611754999857128
 21
8.005932722050758
 31
0.0
  0
LINE
  5
90B
330
2
100
AcDbEntity
  8
IMAGE
100
AcDbLine
 10
9.611754999857128
 20
7.60486466744792
 30
0.0
 11
9.518263138198124
 21
7.60486466744792
 31
0.0
  0
ARC
  5
90C
330
2
100
AcDbEntity
  8
IMAGE
100
AcDbCircle
 10
9.648706320634419
 20
7.592077929345059
 30
0.0
 40
0.0369513207772945
100
AcDbArc
 50
180.0
 51
270.0
  0
LINE
  5
90D
330
2
100
AcDbEntity
  8
IMAGE
100
AcDbLine
 10
9.611754999857128
 20
7.993145983947904
 30
0.0
 11
9.518263138198124
 21
7.993145983947904
 31
0.0
  0
ARC
  5
90E
330
2
100
AcDbEntity
  8
IMAGE
100
AcDbCircle
 10
9.648706320634419
 20
8.005932722050758
 30
0.0
 40
0.0369513207772945
100
AcDbArc
 50
89.99999999999969
 51
180.0
  0
TEXT
  5
90F
330
2
100
AcDbEntity
  8
IMAGE
100
AcDbText
 10
7.073294660163869
 20
8.425332773784351
 30
0.0
 40
0.125
  1
SOLENOID WIRE
  7
arial
100
AcDbText
  0
LINE
  5
910
330
2
100
AcDbEntity
  8
IMAGE
100
AcDbLine
 10
9.669665113112957
 20
8.297118407827042
 30
0.0
 11
9.669665113112957
 21
8.59042556909911
 31
0.0
  0
LINE
  5
911
330
2
100
AcDbEntity
  8
IMAGE
100
AcDbLine
 10
9.622281080597273
 20
8.297118407827042
 30
0.0
 11
9.622281080597273
 21
8.59042556909911
 31
0.0
  0
LINE
  5
912
330
2
100
AcDbEntity
  8
IMAGE
100
AcDbLine
 10
9.545045107596711
 20
8.59042556909911
 30
0.0
 11
9.545045107596711
 21
8.448273471552063
 31
0.0
  0
LINE
  5
913
330
2
100
AcDbEntity
  8
IMAGE
100
AcDbLine
 10
9.497661075081031
 20
8.59042556909911
 30
0.0
 11
9.497661075081031
 21
8.448273471552063
 31
0.0
  0
LINE
  5
914
330
2
100
AcDbEntity
  8
IMAGE
100
AcDbLine
 10
9.622281080597273
 20
8.297118407827042
 30
0.0
 11
9.669665113112957
 21
8.297118407827042
 31
0.0
  0
LWPOLYLINE
  5
915
330
2
100
AcDbEntity
  8
IMAGE
100
AcDbPolyline
 90
        2
 70
     0
 43
0.0
 10
10.75127383144795
 20
8.133665287151949
 10
10.75127383144795
 20
7.799005325697905
  0
LWPOLYLINE
  5
916
330
2
100
AcDbEntity
  8
IMAGE
100
AcDbPolyline
 90
        2
 70
     0
 43
0.0
 10
10.67127383144795
 20
8.131567212693553
 10
10.67127383144795
 20
7.898431216790434
  0
LWPOLYLINE
  5
917
330
2
100
AcDbEntity
  8
IMAGE
100
AcDbPolyline
 90
        2
 70
     0
 43
0.0
 10
10.30167866389559
 20
8.131567212693553
 10
10.30167866389559
 20
7.799005325697905
  0
LWPOLYLINE
  5
918
330
2
100
AcDbEntity
  8
IMAGE
100
AcDbPolyline
 90
        2
 70
     0
 43
0.0
 10
10.22167866389559
 20
8.131567212693553
 10
10.22167866389559
 20
7.799005325697905
  0
LWPOLYLINE
  5
919
330
2
100
AcDbEntity
  8
IMAGE
100
AcDbPolyline
 90
        2
 70
     0
 43
0.0
 10
9.8779302388594
 20
8.131567212693553
 10
9.8779302388594
 20
7.799005325697905
  0
LINE
  5
91A
330
2
100
AcDbEntity
  8
IMAGE
100
AcDbLine
 10
10.38300784232409
 20
7.596964930671234
 30
0.0
 11
10.67127383144795
 21
7.596964930671234
 31
0.0
  0
ARC
  5
91B
330
2
100
AcDbEntity
  8
IMAGE
100
AcDbCircle
 10
9.725588677678613
 20
9.64868785086724
 30
0.0
 40
2.077413260277443
100
AcDbArc
 50
279.0200653521827
 51
297.0792479580131
  0
LINE
  5
91C
330
2
100
AcDbEntity
  8
IMAGE
100
AcDbLine
 10
10.14952642792331
 20
7.542817560197725
 30
0.0
 11
10.36693574854229
 21
7.542817560197725
 31
0.0
  0
ARC
  5
91D
330
2
100
AcDbEntity
  8
IMAGE
100
AcDbCircle
 10
9.924608247579
 20
8.538292005263301
 30
0.0
 40
0.9498126021764614
100
AcDbArc
 50
262.3355331415187
 51
277.664466858481
  0
LINE
  5
91E
330
2
100
AcDbEntity
  8
IMAGE
100
AcDbLine
 10
10.14952642792331
 20
7.580892836889432
 30
0.0
 11
10.14952642792331
 21
7.542817560197725
 31
0.0
  0
ARC
  5
91F
330
2
100
AcDbEntity
  8
IMAGE
100
AcDbCircle
 10
10.2582310882328
 20
7.542510296357399
 30
0.0
 40
0.1215812912057411
100
AcDbArc
 50
141.7411440853695
 51
156.8323185779213
  0
ARC
  5
920
330
2
100
AcDbEntity
  8
IMAGE
100
AcDbCircle
 10
10.1334543341415
 20
7.580892836889432
 30
0.0
 40
0.0160720937818013
100
AcDbArc
 50
0.0
 51
90.0
  0
LINE
  5
921
330
2
100
AcDbEntity
  8
IMAGE
100
AcDbLine
 10
10.0512862562986
 20
7.596964930671234
 30
0.0
 11
10.1334543341415
 21
7.596964930671234
 31
0.0
  0
LINE
  5
922
330
2
100
AcDbEntity
  8
IMAGE
100
AcDbLine
 10
9.797930238859398
 20
7.799005325697905
 30
0.0
 11
9.8779302388594
 21
7.799005325697905
 31
0.0
  0
LINE
  5
923
330
2
100
AcDbEntity
  8
IMAGE
100
AcDbLine
 10
10.36693574854229
 20
7.580892836889432
 30
0.0
 11
10.36693574854229
 21
7.542817560197725
 31
0.0
  0
ARC
  5
924
330
2
100
AcDbEntity
  8
IMAGE
100
AcDbCircle
 10
10.38300784232409
 20
7.580892836889432
 30
0.0
 40
0.0160720937818013
100
AcDbArc
 50
89.99999999999991
 51
180.0
  0
ARC
  5
925
330
2
100
AcDbEntity
  8
IMAGE
100
AcDbCircle
 10
10.2582310882328
 20
7.542510296357399
 30
0.0
 40
0.1215812912057411
100
AcDbArc
 50
23.16768142207863
 51
66.64339045708148
  0
LINE
  5
926
330
2
100
AcDbEntity
  8
IMAGE
100
AcDbLine
 10
10.22167866389559
 20
7.799005325697905
 30
0.0
 11
10.30167866389559
 21
7.799005325697905
 31
0.0
  0
LINE
  5
927
330
2
100
AcDbEntity
  8
IMAGE
100
AcDbLine
 10
11.23802521635132
 20
7.993145983947904
 30
0.0
 11
10.85744907045022
 21
7.993145983947904
 31
0.0
  0
LINE
  5
928
330
2
100
AcDbEntity
  8
IMAGE
100
AcDbLine
 10
11.23802521635132
 20
7.604864667447913
 30
0.0
 11
10.85744907045022
 21
7.604864667447913
 31
0.0
  0
LINE
  5
929
330
2
100
AcDbEntity
  8
IMAGE
100
AcDbLine
 10
10.88467785818612
 20
7.959452388591955
 30
0.0
 11
10.88467785818612
 21
7.640799375848345
 31
0.0
  0
LINE
  5
92A
330
2
100
AcDbEntity
  8
IMAGE
100
AcDbLine
 10
10.85744907045022
 20
7.592077929345059
 30
0.0
 11
10.85744907045022
 21
8.005932722050758
 31
0.0
  0
LINE
  5
92B
330
2
100
AcDbEntity
  8
IMAGE
100
AcDbLine
 10
10.85744907045022
 20
8.005932722050758
 30
0.0
 11
10.85744907045022
 21
7.592077929345059
 31
0.0
  0
LINE
  5
92C
330
2
100
AcDbEntity
  8
IMAGE
100
AcDbLine
 10
10.67127383144795
 20
7.898431216790434
 30
0.0
 11
10.67127383144795
 21
7.56427035145603
 31
0.0
  0
LINE
  5
92D
330
2
100
AcDbEntity
  8
IMAGE
100
AcDbLine
 10
10.68041757433623
 20
7.555126608567753
 30
0.0
 11
10.82049774967293
 21
7.555126608567753
 31
0.0
  0
ARC
  5
92E
330
2
100
AcDbEntity
  8
IMAGE
100
AcDbCircle
 10
10.68041757433623
 20
7.56427035145603
 30
0.0
 40
0.009143742888277
100
AcDbArc
 50
180.0000000000002
 51
270.0
  0
ARC
  5
92F
330
2
100
AcDbEntity
  8
IMAGE
100
AcDbCircle
 10
10.82049774967293
 20
7.592077929345059
 30
0.0
 40
0.0369513207772945
100
AcDbArc
 50
270.0
 51
0.0
  0
LINE
  5
930
330
2
100
AcDbEntity
  8
IMAGE
100
AcDbLine
 10
10.67127383144795
 20
7.799005325697905
 30
0.0
 11
10.75127383144795
 21
7.799005325697905
 31
0.0
  0
LINE
  5
931
330
2
100
AcDbEntity
  8
IMAGE
100
AcDbLine
 10
10.79312261371936
 20
8.042884042828049
 30
0.0
 11
10.75127383144795
 21
8.042884042828049
 31
0.0
  0
LINE
  5
932
330
2
100
AcDbEntity
  8
IMAGE
100
AcDbLine
 10
10.82049774967293
 20
8.042884042828049
 30
0.0
 11
10.75127383144795
 21
8.042884042828049
 31
0.0
  0
ARC
  5
933
330
2
100
AcDbEntity
  8
IMAGE
100
AcDbCircle
 10
10.82049774967293
 20
8.005932722050758
 30
0.0
 40
0.0369513207772945
100
AcDbArc
 50
0.0
 51
90.00000000000019
  0
ARC
  5
934
330
2
100
AcDbEntity
  8
IMAGE
100
AcDbCircle
 10
10.58200986532075
 20
8.233183344831104
 30
0.0
 40
0.1521972825592481
100
AcDbArc
 50
56.88865803962805
 51
100.4914770123314
  0
LINE
  5
935
330
2
100
AcDbEntity
  8
IMAGE
100
AcDbLine
 10
10.4434424124059
 20
8.353275137357307
 30
0.0
 11
10.66515033706966
 21
8.353275137357307
 31
0.0
  0
LINE
  5
936
330
2
100
AcDbEntity
  8
IMAGE
100
AcDbLine
 10
9.778318638414601
 20
8.131567212693553
 30
0.0
 11
10.73905297862425
 21
8.131567212693553
 31
0.0
  0
LINE
  5
937
330
2
100
AcDbEntity
  8
IMAGE
100
AcDbLine
 10
9.759842978025956
 20
8.353275137357307
 30
0.0
 11
10.73905297862425
 21
8.353275137357307
 31
0.0
  0
LINE
  5
938
330
2
100
AcDbEntity
  8
IMAGE
100
AcDbLine
 10
10.13249665754781
 20
8.778215326296205
 30
0.0
 11
10.13249665754781
 21
9.002385748498355
 31
0.0
  0
LINE
  5
939
330
2
100
AcDbEntity
  8
IMAGE
100
AcDbLine
 10
10.38487495949104
 20
8.778215326296205
 30
0.0
 11
10.38487495949104
 21
9.002385748498355
 31
0.0
  0
LINE
  5
93A
330
2
100
AcDbEntity
  8
IMAGE
100
AcDbLine
 10
10.13249665754781
 20
8.778215326296205
 30
0.0
 11
10.38487495949104
 21
8.778215326296205
 31
0.0
  0
LINE
  5
93B
330
2
100
AcDbEntity
  8
IMAGE
100
AcDbLine
 10
10.18478316696484
 20
8.489995024233309
 30
0.0
 11
10.1293561857989
 21
8.427177778911911
 31
0.0
  0
LINE
  5
93C
330
2
100
AcDbEntity
  8
IMAGE
100
AcDbLine
 10
10.1293561857989
 20
8.427177778911911
 30
0.0
 11
10.2494479783251
 21
8.427177778911911
 31
0.0
  0
LINE
  5
93D
330
2
100
AcDbEntity
  8
IMAGE
100
AcDbLine
 10
10.18478316696484
 20
8.565637745381124
 30
0.0
 11
10.11987978268209
 21
8.472946106486901
 31
0.0
  0
LINE
  5
93E
330
2
100
AcDbEntity
  8
IMAGE
100
AcDbLine
 10
10.08996148152705
 20
8.59042556909911
 30
0.0
 11
10.08996148152705
 21
8.448273471552063
 31
0.0
  0
LINE
  5
93F
330
2
100
AcDbEntity
  8
IMAGE
100
AcDbLine
 10
9.87292079500902
 20
8.59042556909911
 30
0.0
 11
9.87292079500902
 21
8.448273471552063
 31
0.0
  0
LINE
  5
940
330
2
100
AcDbEntity
  8
IMAGE
100
AcDbLine
 10
9.886705799630993
 20
8.59042556909911
 30
0.0
 11
9.886705799630993
 21
8.448273471552063
 31
0.0
  0
LINE
  5
941
330
2
100
AcDbEntity
  8
IMAGE
100
AcDbLine
 10
10.01850222346701
 20
8.41978751475645
 30
0.0
 11
9.907648261135134
 21
8.41978751475645
 31
0.0
  0
LINE
  5
942
330
2
100
AcDbEntity
  8
IMAGE
100
AcDbLine
 10
10.07392920463295
 20
8.353275137357307
 30
0.0
 11
9.852221279969183
 21
8.353275137357307
 31
0.0
  0
ARC
  5
943
330
2
100
AcDbEntity
  8
IMAGE
100
AcDbCircle
 10
9.935361751718103
 20
8.233183344831104
 30
0.0
 40
0.1521972825592481
100
AcDbArc
 50
79.50852298766861
 51
123.1113419603719
  0
LINE
  5
944
330
2
100
AcDbEntity
  8
IMAGE
100
AcDbLine
 10
9.759842978025956
 20
8.353275137357307
 30
0.0
 11
9.759842978025956
 21
8.223945514636788
 31
0.0
  0
LINE
  5
945
330
2
100
AcDbEntity
  8
IMAGE
100
AcDbLine
 10
9.702229061057392
 20
8.192350274565974
 30
0.0
 11
9.702229061057392
 21
8.448273471552063
 31
0.0
  0
LINE
  5
946
330
2
100
AcDbEntity
  8
IMAGE
100
AcDbLine
 10
9.702229061057392
 20
8.192350274565974
 30
0.0
 11
9.759842978025956
 21
8.223945514636788
 31
0.0
  0
ARC
  5
947
330
2
100
AcDbEntity
  8
IMAGE
100
AcDbCircle
 10
9.722891657248664
 20
8.190834946639633
 30
0.0
 40
0.0184756603886473
100
AcDbArc
 50
359.9999999999997
 51
66.30571927358838
  0
LINE
  5
948
330
2
100
AcDbEntity
  8
IMAGE
100
AcDbLine
 10
9.74136731763731
 20
8.190834946639611
 30
0.0
 11
9.74136731763731
 21
8.168518533470852
 31
0.0
  0
ARC
  5
949
330
2
100
AcDbEntity
  8
IMAGE
100
AcDbCircle
 10
9.778318638414601
 20
8.168518533470852
 30
0.0
 40
0.0369513207772945
100
AcDbArc
 50
180.0
 51
270.0
  0
LINE
  5
94A
330
2
100
AcDbEntity
  8
IMAGE
100
AcDbLine
 10
9.907648261135134
 20
8.41978751475645
 30
0.0
 11
9.907648261135134
 21
8.382836193979159
 31
0.0
  0
LINE
  5
94B
330
2
100
AcDbEntity
  8
IMAGE
100
AcDbLine
 10
9.852221279969183
 20
8.360665401512775
 30
0.0
 11
9.852221279969183
 21
8.353275137357307
 31
0.0
  0
ARC
  5
94C
330
2
100
AcDbEntity
  8
IMAGE
100
AcDbCircle
 10
9.990788732884039
 20
8.233183344831104
 30
0.0
 40
0.1521972825592481
100
AcDbArc
 50
56.88865803962805
 51
100.4914770123314
  0
LINE
  5
94D
330
2
100
AcDbEntity
  8
IMAGE
100
AcDbLine
 10
10.01850222346701
 20
8.41978751475645
 30
0.0
 11
10.01850222346701
 21
8.382836193979159
 31
0.0
  0
LINE
  5
94E
330
2
100
AcDbEntity
  8
IMAGE
100
AcDbLine
 10
9.963075242301078
 20
8.41978751475645
 30
0.0
 11
9.963075242301078
 21
8.382836193979159
 31
0.0
  0
LWPOLYLINE
  5
94F
330
2
100
AcDbEntity
  8
IMAGE
100
AcDbPolyline
 90
        5
 70
     0
 43
0.0
 10
10.11987978268209
 20
8.472946106486901
 10
10.11879040741739
 20
8.467712262703031
 10
10.12395960060906
 20
8.443482891460234
 10
10.12137500401323
 20
8.419859254498497
 10
10.1246927674297
 20
8.407418269062965
  0
LINE
  5
950
330
2
100
AcDbEntity
  8
IMAGE
100
AcDbLine
 10
10.1293561857989
 20
8.427177778911911
 30
0.0
 11
10.12600571203827
 21
8.408176297986152
 31
0.0
  0
LINE
  5
951
330
2
100
AcDbEntity
  8
IMAGE
100
AcDbLine
 10
10.16630750657619
 20
8.427177778911911
 30
0.0
 11
10.15706967638187
 21
8.353275137357307
 31
0.0
  0
LINE
  5
952
330
2
100
AcDbEntity
  8
IMAGE
100
AcDbLine
 10
10.05250230872741
 20
8.448273471552063
 30
0.0
 11
10.05250230872741
 21
8.37230720107096
 31
0.0
  0
LINE
  5
953
330
2
100
AcDbEntity
  8
IMAGE
100
AcDbLine
 10
10.07392920463295
 20
8.360665401512775
 30
0.0
 11
10.07392920463295
 21
8.353275137357307
 31
0.0
  0
LINE
  5
954
330
2
100
AcDbEntity
  8
IMAGE
100
AcDbLine
 10
10.15891724242073
 20
8.427177778911911
 30
0.0
 11
10.05876690933606
 21
8.369355957146055
 31
0.0
  0
LINE
  5
955
330
2
100
AcDbEntity
  8
IMAGE
100
AcDbLine
 10
9.710415381076442
 20
8.841324021269649
 30
0.0
 11
10.04921121356357
 21
8.841324021269649
 31
0.0
  0
LINE
  5
956
330
2
100
AcDbEntity
  8
IMAGE
100
AcDbLine
 10
9.909428317642307
 20
8.841324021269649
 30
0.0
 11
9.909428317642307
 21
8.59042556909911
 31
0.0
  0
LINE
  5
957
330
2
100
AcDbEntity
  8
IMAGE
100
AcDbLine
 10
9.850198276997707
 20
8.841324021269649
 30
0.0
 11
9.850198276997707
 21
8.59042556909911
 31
0.0
  0
LINE
  5
958
330
2
100
AcDbEntity
  8
IMAGE
100
AcDbLine
 10
9.72581519164404
 20
8.841324021269649
 30
0.0
 11
9.72581519164404
 21
8.59042556909911
 31
0.0
  0
LINE
  5
959
330
2
100
AcDbEntity
  8
IMAGE
100
AcDbLine
 10
9.710415381076442
 20
8.59042556909911
 30
0.0
 11
9.710415381076442
 21
8.841324021269649
 31
0.0
  0
LINE
  5
95A
330
2
100
AcDbEntity
  8
IMAGE
100
AcDbLine
 10
9.779122228224183
 20
8.841324021269649
 30
0.0
 11
9.779122228224183
 21
8.59042556909911
 31
0.0
  0
LINE
  5
95B
330
2
100
AcDbEntity
  8
IMAGE
100
AcDbLine
 10
10.03381140299597
 20
8.841324021269649
 30
0.0
 11
10.03381140299597
 21
8.59042556909911
 31
0.0
  0
LINE
  5
95C
330
2
100
AcDbEntity
  8
IMAGE
100
AcDbLine
 10
9.98050436641583
 20
8.841324021269649
 30
0.0
 11
9.98050436641583
 21
8.59042556909911
 31
0.0
  0
LINE
  5
95D
330
2
100
AcDbEntity
  8
IMAGE
100
AcDbLine
 10
10.04921121356357
 20
8.59042556909911
 30
0.0
 11
10.04921121356357
 21
8.841324021269649
 31
0.0
  0
LINE
  5
95E
330
2
100
AcDbEntity
  8
IMAGE
100
AcDbLine
 10
10.33258845007402
 20
8.565637745381124
 30
0.0
 11
10.53771694971474
 21
8.41978751475645
 31
0.0
  0
LINE
  5
95F
330
2
100
AcDbEntity
  8
IMAGE
100
AcDbLine
 10
10.33258845007402
 20
8.778215326296205
 30
0.0
 11
10.33258845007402
 21
8.489995024233309
 31
0.0
  0
LINE
  5
960
330
2
100
AcDbEntity
  8
IMAGE
100
AcDbLine
 10
10.26792363871375
 20
8.353275137357307
 30
0.0
 11
10.26792363871375
 21
8.565637745381124
 31
0.0
  0
LINE
  5
961
330
2
100
AcDbEntity
  8
IMAGE
100
AcDbLine
 10
10.2494479783251
 20
8.353275137357307
 30
0.0
 11
10.2494479783251
 21
8.565637745381124
 31
0.0
  0
LINE
  5
962
330
2
100
AcDbEntity
  8
IMAGE
100
AcDbLine
 10
10.18478316696484
 20
8.778215326296205
 30
0.0
 11
10.18478316696484
 21
8.489995024233309
 31
0.0
  0
LINE
  5
963
330
2
100
AcDbEntity
  8
IMAGE
100
AcDbLine
 10
10.35845437461813
 20
8.427177778911911
 30
0.0
 11
10.45860470770279
 21
8.369355957146055
 31
0.0
  0
LINE
  5
964
330
2
100
AcDbEntity
  8
IMAGE
100
AcDbLine
 10
10.26792363871375
 20
8.489995024233309
 30
0.0
 11
10.33258845007402
 21
8.489995024233309
 31
0.0
  0
LINE
  5
965
330
2
100
AcDbEntity
  8
IMAGE
100
AcDbLine
 10
10.26792363871375
 20
8.427177778911911
 30
0.0
 11
10.38801543123996
 21
8.427177778911911
 31
0.0
  0
LINE
  5
966
330
2
100
AcDbEntity
  8
IMAGE
100
AcDbLine
 10
10.18478316696484
 20
8.489995024233309
 30
0.0
 11
10.2494479783251
 21
8.489995024233309
 31
0.0
  0
LINE
  5
967
330
2
100
AcDbEntity
  8
IMAGE
100
AcDbLine
 10
10.38801543123996
 20
8.427177778911911
 30
0.0
 11
10.39136590500058
 21
8.408176297986152
 31
0.0
  0
LINE
  5
968
330
2
100
AcDbEntity
  8
IMAGE
100
AcDbLine
 10
10.35106411046266
 20
8.427177778911911
 30
0.0
 11
10.36030194065699
 21
8.353275137357307
 31
0.0
  0
LINE
  5
969
330
2
100
AcDbEntity
  8
IMAGE
100
AcDbLine
 10
10.33258845007402
 20
8.489995024233309
 30
0.0
 11
10.38801543123996
 21
8.427177778911911
 31
0.0
  0
ARC
  5
96A
330
2
100
AcDbEntity
  8
IMAGE
100
AcDbCircle
 10
10.52658288415481
 20
8.233183344831104
 30
0.0
 40
0.1521972825592481
100
AcDbArc
 50
79.50852298766861
 51
123.1113419603719
  0
LINE
  5
96B
330
2
100
AcDbEntity
  8
IMAGE
100
AcDbLine
 10
10.49886939357184
 20
8.41978751475645
 30
0.0
 11
10.60972335590373
 21
8.41978751475645
 31
0.0
  0
LINE
  5
96C
330
2
100
AcDbEntity
  8
IMAGE
100
AcDbLine
 10
10.4434424124059
 20
8.360665401512775
 30
0.0
 11
10.4434424124059
 21
8.353275137357307
 31
0.0
  0
LINE
  5
96D
330
2
100
AcDbEntity
  8
IMAGE
100
AcDbLine
 10
10.49886939357184
 20
8.41978751475645
 30
0.0
 11
10.49886939357184
 21
8.382836193979159
 31
0.0
  0
LINE
  5
96E
330
2
100
AcDbEntity
  8
IMAGE
100
AcDbLine
 10
10.60972335590373
 20
8.41978751475645
 30
0.0
 11
10.60972335590373
 21
8.382836193979159
 31
0.0
  0
LINE
  5
96F
330
2
100
AcDbEntity
  8
IMAGE
100
AcDbLine
 10
10.55429637473778
 20
8.41978751475645
 30
0.0
 11
10.55429637473778
 21
8.382836193979159
 31
0.0
  0
LINE
  5
970
330
2
100
AcDbEntity
  8
IMAGE
100
AcDbLine
 10
10.2494479783251
 20
8.565637745381124
 30
0.0
 11
10.26792363871375
 21
8.565637745381124
 31
0.0
  0
LINE
  5
971
330
2
100
AcDbEntity
  8
IMAGE
100
AcDbLine
 10
10.00926439327269
 20
9.140953201413211
 30
0.0
 11
10.21868580851943
 21
9.140953201413218
 31
0.0
  0
LINE
  5
972
330
2
100
AcDbEntity
  8
IMAGE
100
AcDbLine
 10
10.00926439327269
 20
9.002385748498355
 30
0.0
 11
10.21868580851943
 21
9.002385748498362
 31
0.0
  0
LWPOLYLINE
  5
973
330
2
100
AcDbEntity
  8
IMAGE
100
AcDbPolyline
 90
        2
 70
     0
 43
0.0
 10
10.00926439327269
 20
9.140953201413211
 10
10.00926439327269
 20
9.002385748498355
  0
LINE
  5
974
330
2
100
AcDbEntity
  8
IMAGE
100
AcDbLine
 10
10.29868580851943
 20
9.140953201413218
 30
0.0
 11
10.50810722376617
 21
9.140953201413211
 31
0.0
  0
LINE
  5
975
330
2
100
AcDbEntity
  8
IMAGE
100
AcDbLine
 10
10.29868580851943
 20
9.002385748498362
 30
0.0
 11
10.50810722376617
 21
9.002385748498355
 31
0.0
  0
LINE
  5
976
330
2
100
AcDbEntity
  8
IMAGE
100
AcDbLine
 10
10.33235759366315
 20
9.140953201413211
 30
0.0
 11
10.33235759366315
 21
9.2148558429678
 31
0.0
  0
LINE
  5
977
330
2
100
AcDbEntity
  8
IMAGE
100
AcDbLine
 10
10.18410458280244
 20
9.140953201413211
 30
0.0
 11
10.18410458280244
 21
9.2148558429678
 31
0.0
  0
LINE
  5
978
330
2
100
AcDbEntity
  8
IMAGE
100
AcDbLine
 10
10.21868580851943
 20
9.100665265591551
 30
0.0
 11
10.29868580851943
 21
9.100665265591551
 31
0.0
  0
LINE
  5
979
330
2
100
AcDbEntity
  8
IMAGE
100
AcDbLine
 10
10.21868580851943
 20
9.042673684320014
 30
0.0
 11
10.29868580851943
 21
9.042673684320021
 31
0.0
  0
LWPOLYLINE
  5
97A
330
2
100
AcDbEntity
  8
IMAGE
100
AcDbPolyline
 90
        2
 70
     0
 43
0.0
 10
10.21868580851943
 20
9.140953201413211
 10
10.21868580851943
 20
9.002385748498355
  0
LWPOLYLINE
  5
97B
330
2
100
AcDbEntity
  8
IMAGE
100
AcDbPolyline
 90
        2
 70
     0
 43
0.0
 10
10.29868580851943
 20
9.140953201413211
 10
10.29868580851943
 20
9.002385748498355
  0
LINE
  5
97C
330
2
100
AcDbEntity
  8
IMAGE
100
AcDbLine
 10
10.18410458280244
 20
9.2148558429678
 30
0.0
 11
10.33235759366315
 21
9.2148558429678
 31
0.0
  0
LWPOLYLINE
  5
97D
330
2
100
AcDbEntity
  8
IMAGE
100
AcDbPolyline
 90
        2
 70
     0
 43
0.0
 10
10.50810722376617
 20
9.140953201413211
 10
10.50810722376617
 20
9.002385748498355
  0
ARC
  5
97E
330
2
100
AcDbEntity
  8
IMAGE
100
AcDbCircle
 10
10.73905297862425
 20
8.31632381658003
 30
0.0
 40
0.0369513207772945
100
AcDbArc
 50
0.0
 51
90.0
  0
ARC
  5
97F
330
2
100
AcDbEntity
  8
IMAGE
100
AcDbCircle
 10
10.73905297862425
 20
8.168518533470852
 30
0.0
 40
0.0369513207772945
100
AcDbArc
 50
270.0
 51
0.0
  0
LINE
  5
980
330
2
100
AcDbEntity
  8
IMAGE
100
AcDbLine
 10
10.77600429940155
 20
8.31632381658003
 30
0.0
 11
10.77600429940155
 21
8.168518533470852
 31
0.0
  0
LINE
  5
981
330
2
100
AcDbEntity
  8
IMAGE
100
AcDbLine
 10
10.66515033706966
 20
8.360665401512775
 30
0.0
 11
10.66515033706966
 21
8.353275137357307
 31
0.0
  0
TEXT
  5
982
330
2
100
AcDbEntity
  8
IMAGE
100
AcDbText
 10
11.70952874071397
 20
8.116699968269912
 30
0.0
 40
0.125
  1
OR BOOSTER 
  7
arial
100
AcDbText
  0
TEXT
  5
983
330
2
100
AcDbEntity
  8
IMAGE
100
AcDbText
 10
11.70952874071397
 20
7.875738167451359
 30
0.0
 40
0.125
  1
PUMP / VALVE
  7
arial
100
AcDbText
  0
TEXT
  5
984
330
2
100
AcDbEntity
  8
IMAGE
100
AcDbText
 10
11.70952874071397
 20
8.839585370725572
 30
0.0
 40
0.125
  1
SOLENOID
  7
arial
100
AcDbText
  0
TEXT
  5
985
330
2
100
AcDbEntity
  8
IMAGE
100
AcDbText
 10
11.70952874071397
 20
8.598623569907019
 30
0.0
 40
0.125
  1
(VALVE),
  7
arial
100
AcDbText
  0
TEXT
  5
986
330
2
100
AcDbEntity
  8
IMAGE
100
AcDbText
 10
11.70952874071397
 20
8.357661769088466
 30
0.0
 40
0.125
  1
MASTER VALVE,
  7
arial
100
AcDbText
  0
TEXT
  5
987
330
2
100
AcDbEntity
  8
IMAGE
100
AcDbText
 10
9.272960374146688
 20
4.466404400468164
 30
0.0
 40
0.125
  1
MAXIMUM 2 VALVES
  7
arial
100
AcDbText
  0
TEXT
  5
988
330
2
100
AcDbEntity
  8
IMAGE
100
AcDbText
 10
9.272960374146688
 20
4.22544259964961
 30
0.0
 40
0.125
  1
CONNECTED TO WHITE WIRES
  7
arial
100
AcDbText
  0
POLYLINE
  5
98A
330
2
100
AcDbEntity
  8
IMAGE
100
AcDb2dPolyline
 66
     1
 10
0.0
 20
0.0
 30
0.0
 70
     4
 75
     6
  0
VERTEX
  5
98B
330
98A
100
AcDbEntity
  8
IMAGE
100
AcDbVertex
100
AcDb2dVertex
 10
9.958745065560581
 20
8.841324021269649
 30
0.0
 70
    16
  0
VERTEX
  5
999
330
98A
100
AcDbEntity
  8
IMAGE
100
AcDbVertex
100
AcDb2dVertex
 10
9.958745065560581
 20
8.841324021269649
 30
0.0
 70
     8
  0
VERTEX
  5
99A
330
98A
100
AcDbEntity
  8
IMAGE
100
AcDbVertex
100
AcDb2dVertex
 10
9.957223729817428
 20
8.874247135769145
 30
0.0
 70
     8
  0
VERTEX
  5
99B
330
98A
100
AcDbEntity
  8
IMAGE
100
AcDbVertex
100
AcDb2dVertex
 10
9.952765778751263
 20
8.901132136486026
 30
0.0
 70
     8
  0
VERTEX
  5
99C
330
98A
100
AcDbEntity
  8
IMAGE
100
AcDbVertex
100
AcDb2dVertex
 10
9.945530296607033
 20
8.922718814123735
 30
0.0
 70
     8
  0
VERTEX
  5
99D
330
98A
100
AcDbEntity
  8
IMAGE
100
AcDbVertex
100
AcDb2dVertex
 10
9.93567636762968
 20
8.939746959385713
 30
0.0
 70
     8
  0
VERTEX
  5
99E
330
98A
100
AcDbEntity
  8
IMAGE
100
AcDbVertex
100
AcDb2dVertex
 10
9.92336307606415
 20
8.952956362975404
 30
0.0
 70
     8
  0
VERTEX
  5
99F
330
98A
100
AcDbEntity
  8
IMAGE
100
AcDbVertex
100
AcDb2dVertex
 10
9.908749506155388
 20
8.963086815596252
 30
0.0
 70
     8
  0
VERTEX
  5
9A0
330
98A
100
AcDbEntity
  8
IMAGE
100
AcDbVertex
100
AcDb2dVertex
 10
9.891994742148336
 20
8.970878107951701
 30
0.0
 70
     8
  0
VERTEX
  5
9A1
330
98A
100
AcDbEntity
  8
IMAGE
100
AcDbVertex
100
AcDb2dVertex
 10
9.873257868287941
 20
8.977070030745192
 30
0.0
 70
     8
  0
VERTEX
  5
9A2
330
98A
100
AcDbEntity
  8
IMAGE
100
AcDbVertex
100
AcDb2dVertex
 10
9.852690802931467
 20
8.982295551492612
 30
0.0
 70
     8
  0
VERTEX
  5
9A3
330
98A
100
AcDbEntity
  8
IMAGE
100
AcDbVertex
100
AcDb2dVertex
 10
9.83041680088548
 20
8.986760344959613
 30
0.0
 70
     8
  0
VERTEX
  5
9A4
330
98A
100
AcDbEntity
  8
IMAGE
100
AcDbVertex
100
AcDb2dVertex
 10
9.806551951068856
 20
8.990563262724297
 30
0.0
 70
     8
  0
VERTEX
  5
9A5
330
98A
100
AcDbEntity
  8
IMAGE
100
AcDbVertex
100
AcDb2dVertex
 10
9.781212342400484
 20
8.993803156364757
 30
0.0
 70
     8
  0
VERTEX
  5
9A6
330
98A
100
AcDbEntity
  8
IMAGE
100
AcDbVertex
100
AcDb2dVertex
 10
9.754514063799243
 20
8.996578877459091
 30
0.0
 70
     8
  0
VERTEX
  5
9A7
330
98A
100
AcDbEntity
  8
IMAGE
100
AcDbVertex
100
AcDb2dVertex
 10
9.726573204184019
 20
8.998989277585398
 30
0.0
 70
     8
  0
VERTEX
  5
9A8
330
98A
100
AcDbEntity
  8
IMAGE
100
AcDbVertex
100
AcDb2dVertex
 10
9.697505852473694
 20
9.001133208321771
 30
0.0
 70
     8
  0
VERTEX
  5
9A9
330
98A
100
AcDbEntity
  8
IMAGE
100
AcDbVertex
100
AcDb2dVertex
 10
9.667428097587151
 20
9.00310952124631
 30
0.0
 70
     8
  0
VERTEX
  5
9AA
330
98A
100
AcDbEntity
  8
IMAGE
100
AcDbVertex
100
AcDb2dVertex
 10
9.636385085285759
 20
9.004990564265009
 30
0.0
 70
     8
  0
VERTEX
  5
9AB
330
98A
100
AcDbEntity
  8
IMAGE
100
AcDbVertex
100
AcDb2dVertex
 10
9.604138188700831
 20
9.00674267059545
 30
0.0
 70
     8
  0
VERTEX
  5
9AC
330
98A
100
AcDbEntity
  8
IMAGE
100
AcDbVertex
100
AcDb2dVertex
 10
9.570377837806164
 20
9.008305669783112
 30
0.0
 70
     8
  0
VERTEX
  5
9AD
330
98A
100
AcDbEntity
  8
IMAGE
100
AcDbVertex
100
AcDb2dVertex
 10
9.534794462575554
 20
9.009619391373476
 30
0.0
 70
     8
  0
VERTEX
  5
9AE
330
98A
100
AcDbEntity
  8
IMAGE
100
AcDbVertex
100
AcDb2dVertex
 10
9.497078492982801
 20
9.010623664912019
 30
0.0
 70
     8
  0
VERTEX
  5
9AF
330
98A
100
AcDbEntity
  8
IMAGE
100
AcDbVertex
100
AcDb2dVertex
 10
9.456920359001703
 20
9.011258319944221
 30
0.0
 70
     8
  0
VERTEX
  5
9B0
330
98A
100
AcDbEntity
  8
IMAGE
100
AcDbVertex
100
AcDb2dVertex
 10
9.414010490606056
 20
9.011463186015566
 30
0.0
 70
     8
  0
VERTEX
  5
9B1
330
98A
100
AcDbEntity
  8
IMAGE
100
AcDbVertex
100
AcDb2dVertex
 10
9.368039317769657
 20
9.011178092671528
 30
0.0
 70
     8
  0
VERTEX
  5
9B2
330
98A
100
AcDbEntity
  8
IMAGE
100
AcDbVertex
100
AcDb2dVertex
 10
9.318945213195267
 20
9.01034000418484
 30
0.0
 70
     8
  0
VERTEX
  5
9B3
330
98A
100
AcDbEntity
  8
IMAGE
100
AcDbVertex
100
AcDb2dVertex
 10
9.267658320501482
 20
9.008874423737228
 30
0.0
 70
     8
  0
VERTEX
  5
9B4
330
98A
100
AcDbEntity
  8
IMAGE
100
AcDbVertex
100
AcDb2dVertex
 10
9.215356726035867
 20
9.006703989237674
 30
0.0
 70
     8
  0
VERTEX
  5
9B5
330
98A
100
AcDbEntity
  8
IMAGE
100
AcDbVertex
100
AcDb2dVertex
 10
9.163218516145981
 20
9.003751338595158
 30
0.0
 70
     8
  0
VERTEX
  5
9B6
330
98A
100
AcDbEntity
  8
IMAGE
100
AcDbVertex
100
AcDb2dVertex
 10
9.112421777179385
 20
8.999939109718653
 30
0.0
 70
     8
  0
VERTEX
  5
9B7
330
98A
100
AcDbEntity
  8
IMAGE
100
AcDbVertex
100
AcDb2dVertex
 10
9.064144595483638
 20
8.995189940517144
 30
0.0
 70
     8
  0
VERTEX
  5
9B8
330
98A
100
AcDbEntity
  8
IMAGE
100
AcDbVertex
100
AcDb2dVertex
 10
9.019565057406303
 20
8.989426468899608
 30
0.0
 70
     8
  0
VERTEX
  5
9B9
330
98A
100
AcDbEntity
  8
IMAGE
100
AcDbVertex
100
AcDb2dVertex
 10
8.979861249294939
 20
8.982571332775023
 30
0.0
 70
     8
  0
VERTEX
  5
9BA
330
98A
100
AcDbEntity
  8
IMAGE
100
AcDbVertex
100
AcDb2dVertex
 10
8.945814262449765
 20
8.974465510136797
 30
0.0
 70
     8
  0
VERTEX
  5
9BB
330
98A
100
AcDbEntity
  8
IMAGE
100
AcDbVertex
100
AcDb2dVertex
 10
8.916617207981619
 20
8.964623339316032
 30
0.0
 70
     8
  0
VERTEX
  5
9BC
330
98A
100
AcDbEntity
  8
IMAGE
100
AcDbVertex
100
AcDb2dVertex
 10
8.891066201954002
 20
8.952477498728264
 30
0.0
 70
     8
  0
VERTEX
  5
9BD
330
98A
100
AcDbEntity
  8
IMAGE
100
AcDbVertex
100
AcDb2dVertex
 10
8.867957360430407
 20
8.937460666789021
 30
0.0
 70
     8
  0
VERTEX
  5
9BE
330
98A
100
AcDbEntity
  8
IMAGE
100
AcDbVertex
100
AcDb2dVertex
 10
8.846086799474335
 20
8.919005521913842
 30
0.0
 70
     8
  0
VERTEX
  5
9BF
330
98A
100
AcDbEntity
  8
IMAGE
100
AcDbVertex
100
AcDb2dVertex
 10
8.824250635149281
 20
8.896544742518251
 30
0.0
 70
     8
  0
VERTEX
  5
9C0
330
98A
100
AcDbEntity
  8
IMAGE
100
AcDbVertex
100
AcDb2dVertex
 10
8.801244983518742
 20
8.869511007017786
 30
0.0
 70
     8
  0
VERTEX
  5
9C1
330
98A
100
AcDbEntity
  8
IMAGE
100
AcDbVertex
100
AcDb2dVertex
 10
8.775865960646218
 20
8.837336993827975
 30
0.0
 70
     8
  0
VERTEX
  5
9C2
330
98A
100
AcDbEntity
  8
IMAGE
100
AcDbVertex
100
AcDb2dVertex
 10
8.747212086791568
 20
8.799558530727972
 30
0.0
 70
     8
  0
VERTEX
  5
9C3
330
98A
100
AcDbEntity
  8
IMAGE
100
AcDbVertex
100
AcDb2dVertex
 10
8.715591499000112
 20
8.756124042951395
 30
0.0
 70
     8
  0
VERTEX
  5
9C4
330
98A
100
AcDbEntity
  8
IMAGE
100
AcDbVertex
100
AcDb2dVertex
 10
8.681614738513536
 20
8.70708510509548
 30
0.0
 70
     8
  0
VERTEX
  5
9C5
330
98A
100
AcDbEntity
  8
IMAGE
100
AcDbVertex
100
AcDb2dVertex
 10
8.645892346573521
 20
8.652493291757464
 30
0.0
 70
     8
  0
VERTEX
  5
9C6
330
98A
100
AcDbEntity
  8
IMAGE
100
AcDbVertex
100
AcDb2dVertex
 10
8.609034864421754
 20
8.592400177534585
 30
0.0
 70
     8
  0
VERTEX
  5
9C7
330
98A
100
AcDbEntity
  8
IMAGE
100
AcDbVertex
100
AcDb2dVertex
 10
8.571652833299918
 20
8.526857337024081
 30
0.0
 70
     8
  0
VERTEX
  5
9C8
330
98A
100
AcDbEntity
  8
IMAGE
100
AcDbVertex
100
AcDb2dVertex
 10
8.534356794449696
 20
8.455916344823187
 30
0.0
 70
     8
  0
VERTEX
  5
9C9
330
98A
100
AcDbEntity
  8
IMAGE
100
AcDbVertex
100
AcDb2dVertex
 10
8.497757289112774
 20
8.379628775529143
 30
0.0
 70
     8
  0
VERTEX
  5
9CA
330
98A
100
AcDbEntity
  8
IMAGE
100
AcDbVertex
100
AcDb2dVertex
 10
8.462417563047505
 20
8.298286885674365
 30
0.0
 70
     8
  0
VERTEX
  5
9CB
330
98A
100
AcDbEntity
  8
IMAGE
100
AcDbVertex
100
AcDb2dVertex
 10
8.428711680078931
 20
8.213145659531996
 30
0.0
 70
     8
  0
VERTEX
  5
9CC
330
98A
100
AcDbEntity
  8
IMAGE
100
AcDbVertex
100
AcDb2dVertex
 10
8.396966408548765
 20
8.125700763310355
 30
0.0
 70
     8
  0
VERTEX
  5
9CD
330
98A
100
AcDbEntity
  8
IMAGE
100
AcDbVertex
100
AcDb2dVertex
 10
8.367508516798716
 20
8.037447863217771
 30
0.0
 70
     8
  0
VERTEX
  5
9CE
330
98A
100
AcDbEntity
  8
IMAGE
100
AcDbVertex
100
AcDb2dVertex
 10
8.340664773170496
 20
7.949882625462564
 30
0.0
 70
     8
  0
VERTEX
  5
9CF
330
98A
100
AcDbEntity
  8
IMAGE
100
AcDbVertex
100
AcDb2dVertex
 10
8.316761946005819
 20
7.864500716253054
 30
0.0
 70
     8
  0
VERTEX
  5
9D0
330
98A
100
AcDbEntity
  8
IMAGE
100
AcDbVertex
100
AcDb2dVertex
 10
8.296126803646394
 20
7.782797801797567
 30
0.0
 70
     8
  0
VERTEX
  5
9D1
330
98A
100
AcDbEntity
  8
IMAGE
100
AcDbVertex
100
AcDb2dVertex
 10
8.279086114433935
 20
7.706269548304423
 30
0.0
 70
     8
  0
VERTEX
  5
9D2
330
98A
100
AcDbEntity
  8
IMAGE
100
AcDbVertex
100
AcDb2dVertex
 10
8.265814728063688
 20
7.636040570702618
 30
0.0
 70
     8
  0
VERTEX
  5
9D3
330
98A
100
AcDbEntity
  8
IMAGE
100
AcDbVertex
100
AcDb2dVertex
 10
8.255879819645056
 20
7.571751278803819
 30
0.0
 70
     8
  0
VERTEX
  5
9D4
330
98A
100
AcDbEntity
  8
IMAGE
100
AcDbVertex
100
AcDb2dVertex
 10
8.24869664564097
 20
7.512671031140367
 30
0.0
 70
     8
  0
VERTEX
  5
9D5
330
98A
100
AcDbEntity
  8
IMAGE
100
AcDbVertex
100
AcDb2dVertex
 10
8.243680462514369
 20
7.4580691862446
 30
0.0
 70
     8
  0
VERTEX
  5
9D6
330
98A
100
AcDbEntity
  8
IMAGE
100
AcDbVertex
100
AcDb2dVertex
 10
8.24024652672819
 20
7.407215102648855
 30
0.0
 70
     8
  0
VERTEX
  5
9D7
330
98A
100
AcDbEntity
  8
IMAGE
100
AcDbVertex
100
AcDb2dVertex
 10
8.237810094745366
 20
7.359378138885475
 30
0.0
 70
     8
  0
VERTEX
  5
9D8
330
98A
100
AcDbEntity
  8
IMAGE
100
AcDbVertex
100
AcDb2dVertex
 10
8.235786423028836
 20
7.313827653486796
 30
0.0
 70
     8
  0
VERTEX
  5
9D9
330
98A
100
AcDbEntity
  8
IMAGE
100
AcDbVertex
100
AcDb2dVertex
 10
8.233590768041532
 20
7.269833004985159
 30
0.0
 70
     8
  0
VERTEX
  5
9DA
330
98A
100
AcDbEntity
  8
IMAGE
100
AcDbVertex
100
AcDb2dVertex
 10
8.230748742248843
 20
7.226849077546063
 30
0.0
 70
     8
  0
VERTEX
  5
9DB
330
98A
100
AcDbEntity
  8
IMAGE
100
AcDbVertex
100
AcDb2dVertex
 10
8.227227382125951
 20
7.185072857867646
 30
0.0
 70
     8
  0
VERTEX
  5
9DC
330
98A
100
AcDbEntity
  8
IMAGE
100
AcDbVertex
100
AcDb2dVertex
 10
8.223104080150484
 20
7.144886858281203
 30
0.0
 70
     8
  0
VERTEX
  5
9DD
330
98A
100
AcDbEntity
  8
IMAGE
100
AcDbVertex
100
AcDb2dVertex
 10
8.218456228800075
 20
7.106673591118036
 30
0.0
 70
     8
  0
VERTEX
  5
9DE
330
98A
100
AcDbEntity
  8
IMAGE
100
AcDbVertex
100
AcDb2dVertex
 10
8.213361220552355
 20
7.070815568709441
 30
0.0
 70
     8
  0
VERTEX
  5
9DF
330
98A
100
AcDbEntity
  8
IMAGE
100
AcDbVertex
100
AcDb2dVertex
 10
8.207896447884955
 20
7.037695303386716
 30
0.0
 70
     8
  0
VERTEX
  5
9E0
330
98A
100
AcDbEntity
  8
IMAGE
100
AcDbVertex
100
AcDb2dVertex
 10
8.202139303275506
 20
7.007695307481159
 30
0.0
 70
     8
  0
VERTEX
  5
9E1
330
98A
100
AcDbEntity
  8
IMAGE
100
AcDbVertex
100
AcDb2dVertex
 10
8.196167179201639
 20
6.981198093324068
 30
0.0
 70
     8
  0
VERTEX
  5
9E2
330
98A
100
AcDbEntity
  8
IMAGE
100
AcDbVertex
100
AcDb2dVertex
 10
8.189829946412126
 20
6.958476332972559
 30
0.0
 70
     8
  0
VERTEX
  5
9E3
330
98A
100
AcDbEntity
  8
IMAGE
100
AcDbVertex
100
AcDb2dVertex
 10
8.182067388740309
 20
6.939363337387022
 30
0.0
 70
     8
  0
VERTEX
  5
9E4
330
98A
100
AcDbEntity
  8
IMAGE
100
AcDbVertex
100
AcDb2dVertex
 10
8.171591768290669
 20
6.923582577253666
 30
0.0
 70
     8
  0
VERTEX
  5
9E5
330
98A
100
AcDbEntity
  8
IMAGE
100
AcDbVertex
100
AcDb2dVertex
 10
8.157115347167687
 20
6.9108575232587
 30
0.0
 70
     8
  0
VERTEX
  5
9E6
330
98A
100
AcDbEntity
  8
IMAGE
100
AcDbVertex
100
AcDb2dVertex
 10
8.137350387475844
 20
6.900911646088331
 30
0.0
 70
     8
  0
VERTEX
  5
9E7
330
98A
100
AcDbEntity
  8
IMAGE
100
AcDbVertex
100
AcDb2dVertex
 10
8.111009151319626
 20
6.893468416428767
 30
0.0
 70
     8
  0
VERTEX
  5
9E8
330
98A
100
AcDbEntity
  8
IMAGE
100
AcDbVertex
100
AcDb2dVertex
 10
8.076803900803511
 20
6.888251304966219
 30
0.0
 70
     8
  0
VERTEX
  5
9E9
330
98A
100
AcDbEntity
  8
IMAGE
100
AcDbVertex
100
AcDb2dVertex
 10
8.033446898031982
 20
6.884983782386894
 30
0.0
 70
     8
  0
VERTEX
  5
98C
330
98A
100
AcDbEntity
  8
IMAGE
100
AcDbVertex
100
AcDb2dVertex
 10
9.958745065560581
 20
8.937827403381524
 30
0.0
 70
    16
  0
VERTEX
  5
98D
330
98A
100
AcDbEntity
  8
IMAGE
100
AcDbVertex
100
AcDb2dVertex
 10
9.892703474777539
 20
8.986238871902671
 30
0.0
 70
    16
  0
VERTEX
  5
98E
330
98A
100
AcDbEntity
  8
IMAGE
100
AcDbVertex
100
AcDb2dVertex
 10
9.676967449665387
 20
9.003843027739511
 30
0.0
 70
    16
  0
VERTEX
  5
98F
330
98A
100
AcDbEntity
  8
IMAGE
100
AcDbVertex
100
AcDb2dVertex
 10
9.403995312083823
 20
9.017046144617141
 30
0.0
 70
    16
  0
VERTEX
  5
990
330
98A
100
AcDbEntity
  8
IMAGE
100
AcDbVertex
100
AcDb2dVertex
 10
8.915287208617261
 20
8.995040949821092
 30
0.0
 70
    16
  0
VERTEX
  5
991
330
98A
100
AcDbEntity
  8
IMAGE
100
AcDbVertex
100
AcDb2dVertex
 10
8.814023349216773
 20
8.898218052748633
 30
0.0
 70
    16
  0
VERTEX
  5
992
330
98A
100
AcDbEntity
  8
IMAGE
100
AcDbVertex
100
AcDb2dVertex
 10
8.483815158392953
 20
8.436108802152229
 30
0.0
 70
    16
  0
VERTEX
  5
993
330
98A
100
AcDbEntity
  8
IMAGE
100
AcDbVertex
100
AcDb2dVertex
 10
8.237259751888052
 20
7.635119391817303
 30
0.0
 70
    16
  0
VERTEX
  5
994
330
98A
100
AcDbEntity
  8
IMAGE
100
AcDbVertex
100
AcDb2dVertex
 10
8.241662520658444
 20
7.261030920405099
 30
0.0
 70
    16
  0
VERTEX
  5
995
330
98A
100
AcDbEntity
  8
IMAGE
100
AcDbVertex
100
AcDb2dVertex
 10
8.197634773727365
 20
6.939754956473255
 30
0.0
 70
    16
  0
VERTEX
  5
996
330
98A
100
AcDbEntity
  8
IMAGE
100
AcDbVertex
100
AcDb2dVertex
 10
8.162412564337072
 20
6.891343527921945
 30
0.0
 70
    16
  0
VERTEX
  5
997
330
98A
100
AcDbEntity
  8
IMAGE
100
AcDbVertex
100
AcDb2dVertex
 10
8.033446898031982
 20
6.884983782386894
 30
0.0
 70
    16
  0
SEQEND
  5
998
330
98A
100
AcDbEntity
  8
IMAGE
  0
POLYLINE
  5
A4E
330
2
100
AcDbEntity
  8
IMAGE
100
AcDb2dPolyline
 66
     1
 10
0.0
 20
0.0
 30
0.0
  0
VERTEX
  5
A4F
330
A4E
100
AcDbEntity
  8
IMAGE
100
AcDbVertex
100
AcDb2dVertex
 10
9.921784504499907
 20
8.839616120195179
 30
0.0
  0
VERTEX
  5
A50
330
A4E
100
AcDbEntity
  8
IMAGE
100
AcDbVertex
100
AcDb2dVertex
 10
9.92036417587478
 20
8.870353347110686
 30
0.0
  0
VERTEX
  5
A51
330
A4E
100
AcDbEntity
  8
IMAGE
100
AcDbVertex
100
AcDb2dVertex
 10
9.916746656057183
 20
8.892169877046958
 30
0.0
  0
VERTEX
  5
A52
330
A4E
100
AcDbEntity
  8
IMAGE
100
AcDbVertex
100
AcDb2dVertex
 10
9.911635380818102
 20
8.907419095924741
 30
0.0
  0
VERTEX
  5
A53
330
A4E
100
AcDbEntity
  8
IMAGE
100
AcDbVertex
100
AcDb2dVertex
 10
9.905752243111585
 20
8.917585489826405
 30
0.0
  0
VERTEX
  5
A54
330
A4E
100
AcDbEntity
  8
IMAGE
100
AcDbVertex
100
AcDb2dVertex
 10
9.899012272531944
 20
8.92481596845962
 30
0.0
  0
VERTEX
  5
A55
330
A4E
100
AcDbEntity
  8
IMAGE
100
AcDbVertex
100
AcDb2dVertex
 10
9.890274485051641
 20
8.930873197639957
 30
0.0
  0
VERTEX
  5
A56
330
A4E
100
AcDbEntity
  8
IMAGE
100
AcDbVertex
100
AcDb2dVertex
 10
9.878343218970558
 20
8.936421469293872
 30
0.0
  0
VERTEX
  5
A57
330
A4E
100
AcDbEntity
  8
IMAGE
100
AcDbVertex
100
AcDb2dVertex
 10
9.862884553233588
 20
8.941530051731206
 30
0.0
  0
VERTEX
  5
A58
330
A4E
100
AcDbEntity
  8
IMAGE
100
AcDbVertex
100
AcDb2dVertex
 10
9.844493906932379
 20
8.946202604773642
 30
0.0
  0
VERTEX
  5
A59
330
A4E
100
AcDbEntity
  8
IMAGE
100
AcDbVertex
100
AcDb2dVertex
 10
9.823866948630858
 20
8.950337250558384
 30
0.0
  0
VERTEX
  5
A5A
330
A4E
100
AcDbEntity
  8
IMAGE
100
AcDbVertex
100
AcDb2dVertex
 10
9.801293126002819
 20
8.953934440222205
 30
0.0
  0
VERTEX
  5
A5B
330
A4E
100
AcDbEntity
  8
IMAGE
100
AcDbVertex
100
AcDb2dVertex
 10
9.776952397110528
 20
8.957046618226781
 30
0.0
  0
VERTEX
  5
A5C
330
A4E
100
AcDbEntity
  8
IMAGE
100
AcDbVertex
100
AcDb2dVertex
 10
9.751010678316562
 20
8.959743682601423
 30
0.0
  0
VERTEX
  5
A5D
330
A4E
100
AcDbEntity
  8
IMAGE
100
AcDbVertex
100
AcDb2dVertex
 10
9.723622224793656
 20
8.962106427797529
 30
0.0
  0
VERTEX
  5
A5E
330
A4E
100
AcDbEntity
  8
IMAGE
100
AcDbVertex
100
AcDb2dVertex
 10
9.694932036603393
 20
8.964222539953411
 30
0.0
  0
VERTEX
  5
A5F
330
A4E
100
AcDbEntity
  8
IMAGE
100
AcDbVertex
100
AcDb2dVertex
 10
9.665096172129171
 20
8.966182959033812
 30
0.0
  0
VERTEX
  5
A60
330
A4E
100
AcDbEntity
  8
IMAGE
100
AcDbVertex
100
AcDb2dVertex
 10
9.634262413918733
 20
8.968051322356895
 30
0.0
  0
VERTEX
  5
A61
330
A4E
100
AcDbEntity
  8
IMAGE
100
AcDbVertex
100
AcDb2dVertex
 10
9.602278882315399
 20
8.969789118986238
 30
0.0
  0
VERTEX
  5
A62
330
A4E
100
AcDbEntity
  8
IMAGE
100
AcDbVertex
100
AcDb2dVertex
 10
9.568839681767293
 20
8.971337249912242
 30
0.0
  0
VERTEX
  5
A63
330
A4E
100
AcDbEntity
  8
IMAGE
100
AcDbVertex
100
AcDb2dVertex
 10
9.533619455108125
 20
8.972637564226996
 30
0.0
  0
VERTEX
  5
A64
330
A4E
100
AcDbEntity
  8
IMAGE
100
AcDbVertex
100
AcDb2dVertex
 10
9.496293704351552
 20
8.973631447300821
 30
0.0
  0
VERTEX
  5
A65
330
A4E
100
AcDbEntity
  8
IMAGE
100
AcDbVertex
100
AcDb2dVertex
 10
9.456539687644673
 20
8.974259715705056
 30
0.0
  0
VERTEX
  5
A66
330
A4E
100
AcDbEntity
  8
IMAGE
100
AcDbVertex
100
AcDb2dVertex
 10
9.414036894014589
 20
8.97446263826524
 30
0.0
  0
VERTEX
  5
A67
330
A4E
100
AcDbEntity
  8
IMAGE
100
AcDbVertex
100
AcDb2dVertex
 10
9.368469825912564
 20
8.974180051004102
 30
0.0
  0
VERTEX
  5
A68
330
A4E
100
AcDbEntity
  8
IMAGE
100
AcDbVertex
100
AcDb2dVertex
 10
9.319789452255415
 20
8.973349025343416
 30
0.0
  0
VERTEX
  5
A69
330
A4E
100
AcDbEntity
  8
IMAGE
100
AcDbVertex
100
AcDb2dVertex
 10
9.268953877881376
 20
8.971896341822688
 30
0.0
  0
VERTEX
  5
A6A
330
A4E
100
AcDbEntity
  8
IMAGE
100
AcDbVertex
100
AcDb2dVertex
 10
9.217169891919157
 20
8.969747387267759
 30
0.0
  0
VERTEX
  5
A6B
330
A4E
100
AcDbEntity
  8
IMAGE
100
AcDbVertex
100
AcDb2dVertex
 10
9.165649229466209
 20
8.966829709092465
 30
0.0
  0
VERTEX
  5
A6C
330
A4E
100
AcDbEntity
  8
IMAGE
100
AcDbVertex
100
AcDb2dVertex
 10
9.115617869993043
 20
8.96307492094672
 30
0.0
  0
VERTEX
  5
A6D
330
A4E
100
AcDbEntity
  8
IMAGE
100
AcDbVertex
100
AcDb2dVertex
 10
9.068328760055988
 20
8.958422951287529
 30
0.0
  0
VERTEX
  5
A6E
330
A4E
100
AcDbEntity
  8
IMAGE
100
AcDbVertex
100
AcDb2dVertex
 10
9.025087153810924
 20
8.952832454368117
 30
0.0
  0
VERTEX
  5
A6F
330
A4E
100
AcDbEntity
  8
IMAGE
100
AcDbVertex
100
AcDb2dVertex
 10
8.987300831454826
 20
8.946308385375241
 30
0.0
  0
VERTEX
  5
A70
330
A4E
100
AcDbEntity
  8
IMAGE
100
AcDbVertex
100
AcDb2dVertex
 10
8.95602978846454
 20
8.938863452602062
 30
0.0
  0
VERTEX
  5
A71
330
A4E
100
AcDbEntity
  8
IMAGE
100
AcDbVertex
100
AcDb2dVertex
 10
8.930517976503058
 20
8.930263557309675
 30
0.0
  0
VERTEX
  5
A72
330
A4E
100
AcDbEntity
  8
IMAGE
100
AcDbVertex
100
AcDb2dVertex
 10
8.909168407257951
 20
8.920114897629179
 30
0.0
  0
VERTEX
  5
A73
330
A4E
100
AcDbEntity
  8
IMAGE
100
AcDbVertex
100
AcDb2dVertex
 10
8.890054331443499
 20
8.907693986616116
 30
0.0
  0
VERTEX
  5
A74
330
A4E
100
AcDbEntity
  8
IMAGE
100
AcDbVertex
100
AcDb2dVertex
 10
8.871343556710664
 20
8.891905179958852
 30
0.0
  0
VERTEX
  5
A75
330
A4E
100
AcDbEntity
  8
IMAGE
100
AcDbVertex
100
AcDb2dVertex
 10
8.851634200123472
 20
8.871632044817346
 30
0.0
  0
VERTEX
  5
A76
330
A4E
100
AcDbEntity
  8
IMAGE
100
AcDbVertex
100
AcDb2dVertex
 10
8.829868873711754
 20
8.846055804389774
 30
0.0
  0
VERTEX
  5
A77
330
A4E
100
AcDbEntity
  8
IMAGE
100
AcDbVertex
100
AcDb2dVertex
 10
8.805133498956653
 20
8.814697769936559
 30
0.0
  0
VERTEX
  5
A78
330
A4E
100
AcDbEntity
  8
IMAGE
100
AcDbVertex
100
AcDb2dVertex
 10
8.776911191803918
 20
8.777488302386903
 30
0.0
  0
VERTEX
  5
A79
330
A4E
100
AcDbEntity
  8
IMAGE
100
AcDbVertex
100
AcDb2dVertex
 10
8.745758686963032
 20
8.734696779988736
 30
0.0
  0
VERTEX
  5
A7A
330
A4E
100
AcDbEntity
  8
IMAGE
100
AcDbVertex
100
AcDb2dVertex
 10
8.712307128824107
 20
8.686415871000772
 30
0.0
  0
VERTEX
  5
A7B
330
A4E
100
AcDbEntity
  8
IMAGE
100
AcDbVertex
100
AcDb2dVertex
 10
8.677149426446971
 20
8.632687029752151
 30
0.0
  0
VERTEX
  5
A7C
330
A4E
100
AcDbEntity
  8
IMAGE
100
AcDbVertex
100
AcDb2dVertex
 10
8.640882986882981
 20
8.573557562193784
 30
0.0
  0
VERTEX
  5
A7D
330
A4E
100
AcDbEntity
  8
IMAGE
100
AcDbVertex
100
AcDb2dVertex
 10
8.604107292603176
 20
8.509077827077508
 30
0.0
  0
VERTEX
  5
A7E
330
A4E
100
AcDbEntity
  8
IMAGE
100
AcDbVertex
100
AcDb2dVertex
 10
8.567422600104519
 20
8.439299679996242
 30
0.0
  0
VERTEX
  5
A7F
330
A4E
100
AcDbEntity
  8
IMAGE
100
AcDbVertex
100
AcDb2dVertex
 10
8.531416659554574
 20
8.36424933001432
 30
0.0
  0
VERTEX
  5
A80
330
A4E
100
AcDbEntity
  8
IMAGE
100
AcDbVertex
100
AcDb2dVertex
 10
8.496595751125074
 20
8.284101609206171
 30
0.0
  0
VERTEX
  5
A81
330
A4E
100
AcDbEntity
  8
IMAGE
100
AcDbVertex
100
AcDb2dVertex
 10
8.463309499573238
 20
8.200020374086204
 30
0.0
  0
VERTEX
  5
A82
330
A4E
100
AcDbEntity
  8
IMAGE
100
AcDbVertex
100
AcDb2dVertex
 10
8.431910138974972
 20
8.113528317266592
 30
0.0
  0
VERTEX
  5
A83
330
A4E
100
AcDbEntity
  8
IMAGE
100
AcDbVertex
100
AcDb2dVertex
 10
8.402749675496163
 20
8.026166482554017
 30
0.0
  0
VERTEX
  5
A84
330
A4E
100
AcDbEntity
  8
IMAGE
100
AcDbVertex
100
AcDb2dVertex
 10
8.376172703157914
 20
7.939471462148368
 30
0.0
  0
VERTEX
  5
A85
330
A4E
100
AcDbEntity
  8
IMAGE
100
AcDbVertex
100
AcDb2dVertex
 10
8.352519616141018
 20
7.854981635305392
 30
0.0
  0
VERTEX
  5
A86
330
A4E
100
AcDbEntity
  8
IMAGE
100
AcDbVertex
100
AcDb2dVertex
 10
8.332128513727486
 20
7.774244974170368
 30
0.0
  0
VERTEX
  5
A87
330
A4E
100
AcDbEntity
  8
IMAGE
100
AcDbVertex
100
AcDb2dVertex
 10
8.3153315891192
 20
7.698811446318197
 30
0.0
  0
VERTEX
  5
A88
330
A4E
100
AcDbEntity
  8
IMAGE
100
AcDbVertex
100
AcDb2dVertex
 10
8.302286176300107
 20
7.629778266278151
 30
0.0
  0
VERTEX
  5
A89
330
A4E
100
AcDbEntity
  8
IMAGE
100
AcDbVertex
100
AcDb2dVertex
 10
8.29253713934249
 20
7.566691757949097
 30
0.0
  0
VERTEX
  5
A8A
330
A4E
100
AcDbEntity
  8
IMAGE
100
AcDbVertex
100
AcDb2dVertex
 10
8.285491766293269
 20
7.508744897077747
 30
0.0
  0
VERTEX
  5
A8B
330
A4E
100
AcDbEntity
  8
IMAGE
100
AcDbVertex
100
AcDb2dVertex
 10
8.280566246860047
 20
7.455129938983883
 30
0.0
  0
VERTEX
  5
A8C
330
A4E
100
AcDbEntity
  8
IMAGE
100
AcDbVertex
100
AcDb2dVertex
 10
8.277183069575436
 20
7.405027551762978
 30
0.0
  0
VERTEX
  5
A8D
330
A4E
100
AcDbEntity
  8
IMAGE
100
AcDbVertex
100
AcDb2dVertex
 10
8.27476830510573
 20
7.357616008469864
 30
0.0
  0
VERTEX
  5
A8E
330
A4E
100
AcDbEntity
  8
IMAGE
100
AcDbVertex
100
AcDb2dVertex
 10
8.272749962453282
 20
7.312185474075942
 30
0.0
 42
-0.001367034430332
  0
VERTEX
  5
A8F
330
A4E
100
AcDbEntity
  8
IMAGE
100
AcDbVertex
100
AcDb2dVertex
 10
8.272740430227797
 20
7.311983378035787
 30
0.0
  0
VERTEX
  5
A90
330
A4E
100
AcDbEntity
  8
IMAGE
100
AcDbVertex
100
AcDb2dVertex
 10
8.270544775240493
 20
7.267988729534152
 30
0.0
 42
-0.0040390955293201
  0
VERTEX
  5
A91
330
A4E
100
AcDbEntity
  8
IMAGE
100
AcDbVertex
100
AcDb2dVertex
 10
8.270510157009324
 20
7.267391956389836
 30
0.0
  0
VERTEX
  5
A92
330
A4E
100
AcDbEntity
  8
IMAGE
100
AcDbVertex
100
AcDb2dVertex
 10
8.267668131216638
 20
7.224408028950738
 30
0.0
 42
-0.0045175299092693
  0
VERTEX
  5
A93
330
A4E
100
AcDbEntity
  8
IMAGE
100
AcDbVertex
100
AcDb2dVertex
 10
8.267617996493299
 20
7.223741330539354
 30
0.0
  0
VERTEX
  5
A94
330
A4E
100
AcDbEntity
  8
IMAGE
100
AcDbVertex
100
AcDb2dVertex
 10
8.264096636370407
 20
7.181965110860937
 30
0.0
 42
-0.0045388769689736
  0
VERTEX
  5
A95
330
A4E
100
AcDbEntity
  8
IMAGE
100
AcDbVertex
100
AcDb2dVertex
 10
8.264034140915295
 20
7.181296284364722
 30
0.0
  0
VERTEX
  5
A96
330
A4E
100
AcDbEntity
  8
IMAGE
100
AcDbVertex
100
AcDb2dVertex
 10
8.259910838939829
 20
7.141110284778281
 30
0.0
 42
-0.0046968158116766
  0
VERTEX
  5
A97
330
A4E
100
AcDbEntity
  8
IMAGE
100
AcDbVertex
100
AcDb2dVertex
 10
8.259833396761269
 20
7.14041949873615
 30
0.0
  0
VERTEX
  5
A98
330
A4E
100
AcDbEntity
  8
IMAGE
100
AcDbVertex
100
AcDb2dVertex
 10
8.25518554541086
 20
7.102206231572983
 30
0.0
 42
-0.0050272520669872
  0
VERTEX
  5
A99
330
A4E
100
AcDbEntity
  8
IMAGE
100
AcDbVertex
100
AcDb2dVertex
 10
8.255088292269576
 20
7.101468600631351
 30
0.0
  0
VERTEX
  5
A9A
330
A4E
100
AcDbEntity
  8
IMAGE
100
AcDbVertex
100
AcDb2dVertex
 10
8.249993284021856
 20
7.065610578222756
 30
0.0
 42
-0.0055952944987803
  0
VERTEX
  5
A9B
330
A4E
100
AcDbEntity
  8
IMAGE
100
AcDbVertex
100
AcDb2dVertex
 10
8.249867626904498
 20
7.064792090042399
 30
0.0
  0
VERTEX
  5
A9C
330
A4E
100
AcDbEntity
  8
IMAGE
100
AcDbVertex
100
AcDb2dVertex
 10
8.244402854237097
 20
7.031671824719675
 30
0.0
 42
-0.0065189051562651
  0
VERTEX
  5
A9D
330
A4E
100
AcDbEntity
  8
IMAGE
100
AcDbVertex
100
AcDb2dVertex
 10
8.244233398323675
 20
7.030722066490263
 30
0.0
  0
VERTEX
  5
A9E
330
A4E
100
AcDbEntity
  8
IMAGE
100
AcDbVertex
100
AcDb2dVertex
 10
8.238476253714226
 20
7.000722070584706
 30
0.0
 42
-0.0080208862842445
  0
VERTEX
  5
A9F
330
A4E
100
AcDbEntity
  8
IMAGE
100
AcDbVertex
100
AcDb2dVertex
 10
8.238233871344748
 20
6.999560065880884
 30
0.0
  0
VERTEX
  5
AA0
330
A4E
100
AcDbEntity
  8
IMAGE
100
AcDbVertex
100
AcDb2dVertex
 10
8.232261747270881
 20
6.973062851723793
 30
0.0
 42
-0.0125784658241527
  0
VERTEX
  5
AA1
330
A4E
100
AcDbEntity
  8
IMAGE
100
AcDbVertex
100
AcDb2dVertex
 10
8.231806954096311
 20
6.97125795019346
 30
0.0
  0
VERTEX
  5
AA2
330
A4E
100
AcDbEntity
  8
IMAGE
100
AcDbVertex
100
AcDb2dVertex
 10
8.225469721306801
 20
6.948536189841951
 30
0.0
 42
-0.028456340925248
  0
VERTEX
  5
AA3
330
A4E
100
AcDbEntity
  8
IMAGE
100
AcDbVertex
100
AcDb2dVertex
 10
8.224110520986194
 20
6.944553610290847
 30
0.0
  0
VERTEX
  5
AA4
330
A4E
100
AcDbEntity
  8
IMAGE
100
AcDbVertex
100
AcDb2dVertex
 10
8.216347963314374
 20
6.925440614705309
 30
0.0
 42
-0.050102444561946
  0
VERTEX
  5
AA5
330
A4E
100
AcDbEntity
  8
IMAGE
100
AcDbVertex
100
AcDb2dVertex
 10
8.212893658071578
 20
6.918900172453022
 30
0.0
  0
VERTEX
  5
AA6
330
A4E
100
AcDbEntity
  8
IMAGE
100
AcDbVertex
100
AcDb2dVertex
 10
8.202418037621939
 20
6.903119412319667
 30
0.0
 42
-0.0660115280180767
  0
VERTEX
  5
AA7
330
A4E
100
AcDbEntity
  8
IMAGE
100
AcDbVertex
100
AcDb2dVertex
 10
8.196019637819528
 20
6.89579266558988
 30
0.0
  0
VERTEX
  5
AA8
330
A4E
100
AcDbEntity
  8
IMAGE
100
AcDbVertex
100
AcDb2dVertex
 10
8.181543216696546
 20
6.883067611594913
 30
0.0
 42
-0.0638092766133381
  0
VERTEX
  5
AA9
330
A4E
100
AcDbEntity
  8
IMAGE
100
AcDbVertex
100
AcDb2dVertex
 10
8.173747007105269
 20
6.877806231487869
 30
0.0
  0
VERTEX
  5
AAA
330
A4E
100
AcDbEntity
  8
IMAGE
100
AcDbVertex
100
AcDb2dVertex
 10
8.153982047413427
 20
6.867860354317499
 30
0.0
 42
-0.0113122811349428
  0
VERTEX
  5
AAB
330
A4E
100
AcDbEntity
  8
IMAGE
100
AcDbVertex
100
AcDb2dVertex
 10
8.152470057250797
 20
6.867141902442629
 30
0.0
  0
SEQEND
  5
AAC
330
A4E
100
AcDbEntity
  8
IMAGE
  0
POLYLINE
  5
AAD
330
2
100
AcDbEntity
  8
IMAGE
100
AcDb2dPolyline
 66
     1
 10
0.0
 20
0.0
 30
0.0
 70
     4
 75
     6
  0
VERTEX
  5
B0E
330
AAD
100
AcDbEntity
  8
IMAGE
100
AcDbVertex
100
AcDb2dVertex
 10
9.820426982515717
 20
8.841324021269649
 30
0.0
 70
    16
  0
VERTEX
  5
B1C
330
AAD
100
AcDbEntity
  8
IMAGE
100
AcDbVertex
100
AcDb2dVertex
 10
9.820426982515717
 20
8.841324021269649
 30
0.0
 70
     8
  0
VERTEX
  5
B1D
330
AAD
100
AcDbEntity
  8
IMAGE
100
AcDbVertex
100
AcDb2dVertex
 10
9.808980778773186
 20
8.863530306498933
 30
0.0
 70
     8
  0
VERTEX
  5
B1E
330
AAD
100
AcDbEntity
  8
IMAGE
100
AcDbVertex
100
AcDb2dVertex
 10
9.795706662893051
 20
8.881903992523072
 30
0.0
 70
     8
  0
VERTEX
  5
B1F
330
AAD
100
AcDbEntity
  8
IMAGE
100
AcDbVertex
100
AcDb2dVertex
 10
9.780865765246787
 20
8.896849649996028
 30
0.0
 70
     8
  0
VERTEX
  5
B20
330
AAD
100
AcDbEntity
  8
IMAGE
100
AcDbVertex
100
AcDb2dVertex
 10
9.764719216205865
 20
8.908771849571758
 30
0.0
 70
     8
  0
VERTEX
  5
B21
330
AAD
100
AcDbEntity
  8
IMAGE
100
AcDbVertex
100
AcDb2dVertex
 10
9.747528146141762
 20
8.918075161904223
 30
0.0
 70
     8
  0
VERTEX
  5
B22
330
AAD
100
AcDbEntity
  8
IMAGE
100
AcDbVertex
100
AcDb2dVertex
 10
9.729553685425948
 20
8.925164157647378
 30
0.0
 70
     8
  0
VERTEX
  5
B23
330
AAD
100
AcDbEntity
  8
IMAGE
100
AcDbVertex
100
AcDb2dVertex
 10
9.7110569644299
 20
8.930443407455186
 30
0.0
 70
     8
  0
VERTEX
  5
B24
330
AAD
100
AcDbEntity
  8
IMAGE
100
AcDbVertex
100
AcDb2dVertex
 10
9.692299113525089
 20
8.934317481981603
 30
0.0
 70
     8
  0
VERTEX
  5
B25
330
AAD
100
AcDbEntity
  8
IMAGE
100
AcDbVertex
100
AcDb2dVertex
 10
9.67344696603493
 20
8.937122617110464
 30
0.0
 70
     8
  0
VERTEX
  5
B26
330
AAD
100
AcDbEntity
  8
IMAGE
100
AcDbVertex
100
AcDb2dVertex
 10
9.654290167090588
 20
8.938921709645091
 30
0.0
 70
     8
  0
VERTEX
  5
B27
330
AAD
100
AcDbEntity
  8
IMAGE
100
AcDbVertex
100
AcDb2dVertex
 10
9.634524064775165
 20
8.939709321618686
 30
0.0
 70
     8
  0
VERTEX
  5
B28
330
AAD
100
AcDbEntity
  8
IMAGE
100
AcDbVertex
100
AcDb2dVertex
 10
9.613844007171765
 20
8.939480015064443
 30
0.0
 70
     8
  0
VERTEX
  5
B29
330
AAD
100
AcDbEntity
  8
IMAGE
100
AcDbVertex
100
AcDb2dVertex
 10
9.591945342363496
 20
8.93822835201556
 30
0.0
 70
     8
  0
VERTEX
  5
B2A
330
AAD
100
AcDbEntity
  8
IMAGE
100
AcDbVertex
100
AcDb2dVertex
 10
9.568523418433461
 20
8.935948894505237
 30
0.0
 70
     8
  0
VERTEX
  5
B2B
330
AAD
100
AcDbEntity
  8
IMAGE
100
AcDbVertex
100
AcDb2dVertex
 10
9.543273583464761
 20
8.932636204566673
 30
0.0
 70
     8
  0
VERTEX
  5
B2C
330
AAD
100
AcDbEntity
  8
IMAGE
100
AcDbVertex
100
AcDb2dVertex
 10
9.515891185540503
 20
8.928284844233065
 30
0.0
 70
     8
  0
VERTEX
  5
B2D
330
AAD
100
AcDbEntity
  8
IMAGE
100
AcDbVertex
100
AcDb2dVertex
 10
9.486198511018399
 20
8.922906596039046
 30
0.0
 70
     8
  0
VERTEX
  5
B2E
330
AAD
100
AcDbEntity
  8
IMAGE
100
AcDbVertex
100
AcDb2dVertex
 10
9.454525599354585
 20
8.916582124525007
 30
0.0
 70
     8
  0
VERTEX
  5
B2F
330
AAD
100
AcDbEntity
  8
IMAGE
100
AcDbVertex
100
AcDb2dVertex
 10
9.421329428279809
 20
8.909409314732766
 30
0.0
 70
     8
  0
VERTEX
  5
B30
330
AAD
100
AcDbEntity
  8
IMAGE
100
AcDbVertex
100
AcDb2dVertex
 10
9.387066975524819
 20
8.901486051704154
 30
0.0
 70
     8
  0
VERTEX
  5
B31
330
AAD
100
AcDbEntity
  8
IMAGE
100
AcDbVertex
100
AcDb2dVertex
 10
9.352195218820359
 20
8.892910220480988
 30
0.0
 70
     8
  0
VERTEX
  5
B32
330
AAD
100
AcDbEntity
  8
IMAGE
100
AcDbVertex
100
AcDb2dVertex
 10
9.317171135897174
 20
8.883779706105098
 30
0.0
 70
     8
  0
VERTEX
  5
B33
330
AAD
100
AcDbEntity
  8
IMAGE
100
AcDbVertex
100
AcDb2dVertex
 10
9.282451704486014
 20
8.874192393618304
 30
0.0
 70
     8
  0
VERTEX
  5
B34
330
AAD
100
AcDbEntity
  8
IMAGE
100
AcDbVertex
100
AcDb2dVertex
 10
9.248493902317621
 20
8.864246168062431
 30
0.0
 70
     8
  0
VERTEX
  5
B35
330
AAD
100
AcDbEntity
  8
IMAGE
100
AcDbVertex
100
AcDb2dVertex
 10
9.215624142081605
 20
8.853854020238182
 30
0.0
 70
     8
  0
VERTEX
  5
B36
330
AAD
100
AcDbEntity
  8
IMAGE
100
AcDbVertex
100
AcDb2dVertex
 10
9.183646576303013
 20
8.842189363981777
 30
0.0
 70
     8
  0
VERTEX
  5
B37
330
AAD
100
AcDbEntity
  8
IMAGE
100
AcDbVertex
100
AcDb2dVertex
 10
9.152234792465756
 20
8.828240718888313
 30
0.0
 70
     8
  0
VERTEX
  5
B38
330
AAD
100
AcDbEntity
  8
IMAGE
100
AcDbVertex
100
AcDb2dVertex
 10
9.121062378053746
 20
8.810996604552887
 30
0.0
 70
     8
  0
VERTEX
  5
B39
330
AAD
100
AcDbEntity
  8
IMAGE
100
AcDbVertex
100
AcDb2dVertex
 10
9.089802920550893
 20
8.789445540570596
 30
0.0
 70
     8
  0
VERTEX
  5
B3A
330
AAD
100
AcDbEntity
  8
IMAGE
100
AcDbVertex
100
AcDb2dVertex
 10
9.058130007441103
 20
8.762576046536539
 30
0.0
 70
     8
  0
VERTEX
  5
B3B
330
AAD
100
AcDbEntity
  8
IMAGE
100
AcDbVertex
100
AcDb2dVertex
 10
9.025717226208291
 20
8.729376642045814
 30
0.0
 70
     8
  0
VERTEX
  5
B3C
330
AAD
100
AcDbEntity
  8
IMAGE
100
AcDbVertex
100
AcDb2dVertex
 10
8.992238164336365
 20
8.688835846693518
 30
0.0
 70
     8
  0
VERTEX
  5
B3D
330
AAD
100
AcDbEntity
  8
IMAGE
100
AcDbVertex
100
AcDb2dVertex
 10
8.95746977325917
 20
8.640172391564611
 30
0.0
 70
     8
  0
VERTEX
  5
B3E
330
AAD
100
AcDbEntity
  8
IMAGE
100
AcDbVertex
100
AcDb2dVertex
 10
8.921602460210275
 20
8.58352585370352
 30
0.0
 70
     8
  0
VERTEX
  5
B3F
330
AAD
100
AcDbEntity
  8
IMAGE
100
AcDbVertex
100
AcDb2dVertex
 10
8.884929996373191
 20
8.519266021644526
 30
0.0
 70
     8
  0
VERTEX
  5
B40
330
AAD
100
AcDbEntity
  8
IMAGE
100
AcDbVertex
100
AcDb2dVertex
 10
8.847746152931421
 20
8.447762683921917
 30
0.0
 70
     8
  0
VERTEX
  5
B41
330
AAD
100
AcDbEntity
  8
IMAGE
100
AcDbVertex
100
AcDb2dVertex
 10
8.810344701068473
 20
8.369385629069981
 30
0.0
 70
     8
  0
VERTEX
  5
B42
330
AAD
100
AcDbEntity
  8
IMAGE
100
AcDbVertex
100
AcDb2dVertex
 10
8.773019411967853
 20
8.284504645623
 30
0.0
 70
     8
  0
VERTEX
  5
B43
330
AAD
100
AcDbEntity
  8
IMAGE
100
AcDbVertex
100
AcDb2dVertex
 10
8.736064056813066
 20
8.193489522115264
 30
0.0
 70
     8
  0
VERTEX
  5
B44
330
AAD
100
AcDbEntity
  8
IMAGE
100
AcDbVertex
100
AcDb2dVertex
 10
8.699772406787621
 20
8.096710047081057
 30
0.0
 70
     8
  0
VERTEX
  5
B45
330
AAD
100
AcDbEntity
  8
IMAGE
100
AcDbVertex
100
AcDb2dVertex
 10
8.664425539319859
 20
7.994757157136417
 30
0.0
 70
     8
  0
VERTEX
  5
B46
330
AAD
100
AcDbEntity
  8
IMAGE
100
AcDbVertex
100
AcDb2dVertex
 10
8.630253756817477
 20
7.889106381224387
 30
0.0
 70
     8
  0
VERTEX
  5
B47
330
AAD
100
AcDbEntity
  8
IMAGE
100
AcDbVertex
100
AcDb2dVertex
 10
8.597474667933012
 20
7.78145439636976
 30
0.0
 70
     8
  0
VERTEX
  5
B48
330
AAD
100
AcDbEntity
  8
IMAGE
100
AcDbVertex
100
AcDb2dVertex
 10
8.566305881318996
 20
7.673497879597331
 30
0.0
 70
     8
  0
VERTEX
  5
B49
330
AAD
100
AcDbEntity
  8
IMAGE
100
AcDbVertex
100
AcDb2dVertex
 10
8.536965005627966
 20
7.566933507931892
 30
0.0
 70
     8
  0
VERTEX
  5
B4A
330
AAD
100
AcDbEntity
  8
IMAGE
100
AcDbVertex
100
AcDb2dVertex
 10
8.509669649512455
 20
7.463457958398239
 30
0.0
 70
     8
  0
VERTEX
  5
B4B
330
AAD
100
AcDbEntity
  8
IMAGE
100
AcDbVertex
100
AcDb2dVertex
 10
8.484637421624997
 20
7.364767908021164
 30
0.0
 70
     8
  0
VERTEX
  5
B4C
330
AAD
100
AcDbEntity
  8
IMAGE
100
AcDbVertex
100
AcDb2dVertex
 10
8.462085930618128
 20
7.272560033825458
 30
0.0
 70
     8
  0
VERTEX
  5
B4D
330
AAD
100
AcDbEntity
  8
IMAGE
100
AcDbVertex
100
AcDb2dVertex
 10
8.442151181909322
 20
7.188195665356553
 30
0.0
 70
     8
  0
VERTEX
  5
B4E
330
AAD
100
AcDbEntity
  8
IMAGE
100
AcDbVertex
100
AcDb2dVertex
 10
8.424642767975809
 20
7.111694742242407
 30
0.0
 70
     8
  0
VERTEX
  5
B4F
330
AAD
100
AcDbEntity
  8
IMAGE
100
AcDbVertex
100
AcDb2dVertex
 10
8.409288678059761
 20
7.042741856631612
 30
0.0
 70
     8
  0
VERTEX
  5
B50
330
AAD
100
AcDbEntity
  8
IMAGE
100
AcDbVertex
100
AcDb2dVertex
 10
8.395816901403348
 20
6.981021600672762
 30
0.0
 70
     8
  0
VERTEX
  5
B51
330
AAD
100
AcDbEntity
  8
IMAGE
100
AcDbVertex
100
AcDb2dVertex
 10
8.383955427248741
 20
6.92621856651445
 30
0.0
 70
     8
  0
VERTEX
  5
B52
330
AAD
100
AcDbEntity
  8
IMAGE
100
AcDbVertex
100
AcDb2dVertex
 10
8.373432244838111
 20
6.878017346305269
 30
0.0
 70
     8
  0
VERTEX
  5
B53
330
AAD
100
AcDbEntity
  8
IMAGE
100
AcDbVertex
100
AcDb2dVertex
 10
8.363975343413629
 20
6.836102532193812
 30
0.0
 70
     8
  0
VERTEX
  5
B54
330
AAD
100
AcDbEntity
  8
IMAGE
100
AcDbVertex
100
AcDb2dVertex
 10
8.355312712217466
 20
6.800158716328672
 30
0.0
 70
     8
  0
VERTEX
  5
B55
330
AAD
100
AcDbEntity
  8
IMAGE
100
AcDbVertex
100
AcDb2dVertex
 10
8.347132445664703
 20
6.769834237069856
 30
0.0
 70
     8
  0
VERTEX
  5
B56
330
AAD
100
AcDbEntity
  8
IMAGE
100
AcDbVertex
100
AcDb2dVertex
 10
8.338963058862065
 20
6.744632417623027
 30
0.0
 70
     8
  0
VERTEX
  5
B57
330
AAD
100
AcDbEntity
  8
IMAGE
100
AcDbVertex
100
AcDb2dVertex
 10
8.330293172089191
 20
6.724020327405259
 30
0.0
 70
     8
  0
VERTEX
  5
B58
330
AAD
100
AcDbEntity
  8
IMAGE
100
AcDbVertex
100
AcDb2dVertex
 10
8.320611405625719
 20
6.707465035833631
 30
0.0
 70
     8
  0
VERTEX
  5
B59
330
AAD
100
AcDbEntity
  8
IMAGE
100
AcDbVertex
100
AcDb2dVertex
 10
8.309406379751285
 20
6.694433612325217
 30
0.0
 70
     8
  0
VERTEX
  5
B5A
330
AAD
100
AcDbEntity
  8
IMAGE
100
AcDbVertex
100
AcDb2dVertex
 10
8.296166714745526
 20
6.684393126297093
 30
0.0
 70
     8
  0
VERTEX
  5
B5B
330
AAD
100
AcDbEntity
  8
IMAGE
100
AcDbVertex
100
AcDb2dVertex
 10
8.280381030888078
 20
6.676810647166337
 30
0.0
 70
     8
  0
VERTEX
  5
B5C
330
AAD
100
AcDbEntity
  8
IMAGE
100
AcDbVertex
100
AcDb2dVertex
 10
8.261537948458581
 20
6.671153244350025
 30
0.0
 70
     8
  0
VERTEX
  5
B5D
330
AAD
100
AcDbEntity
  8
IMAGE
100
AcDbVertex
100
AcDb2dVertex
 10
8.239164842306132
 20
6.666938884990427
 30
0.0
 70
     8
  0
VERTEX
  5
B5E
330
AAD
100
AcDbEntity
  8
IMAGE
100
AcDbVertex
100
AcDb2dVertex
 10
8.212944105557683
 20
6.663889127130594
 30
0.0
 70
     8
  0
VERTEX
  5
B5F
330
AAD
100
AcDbEntity
  8
IMAGE
100
AcDbVertex
100
AcDb2dVertex
 10
8.182596885909644
 20
6.661776426538772
 30
0.0
 70
     8
  0
VERTEX
  5
B60
330
AAD
100
AcDbEntity
  8
IMAGE
100
AcDbVertex
100
AcDb2dVertex
 10
8.147844331058427
 20
6.660373238983204
 30
0.0
 70
     8
  0
VERTEX
  5
B61
330
AAD
100
AcDbEntity
  8
IMAGE
100
AcDbVertex
100
AcDb2dVertex
 10
8.108407588700446
 20
6.659452020232138
 30
0.0
 70
     8
  0
VERTEX
  5
B62
330
AAD
100
AcDbEntity
  8
IMAGE
100
AcDbVertex
100
AcDb2dVertex
 10
8.064007806532108
 20
6.65878522605382
 30
0.0
 70
     8
  0
VERTEX
  5
B63
330
AAD
100
AcDbEntity
  8
IMAGE
100
AcDbVertex
100
AcDb2dVertex
 10
8.014366132249829
 20
6.658145312216492
 30
0.0
 70
     8
  0
VERTEX
  5
B64
330
AAD
100
AcDbEntity
  8
IMAGE
100
AcDbVertex
100
AcDb2dVertex
 10
7.959203713550018
 20
6.657304734488403
 30
0.0
 70
     8
  0
VERTEX
  5
B65
330
AAD
100
AcDbEntity
  8
IMAGE
100
AcDbVertex
100
AcDb2dVertex
 10
7.8987351370968
 20
6.656067812784327
 30
0.0
 70
     8
  0
VERTEX
  5
B66
330
AAD
100
AcDbEntity
  8
IMAGE
100
AcDbVertex
100
AcDb2dVertex
 10
7.835148745425143
 20
6.654366323605163
 30
0.0
 70
     8
  0
VERTEX
  5
B67
330
AAD
100
AcDbEntity
  8
IMAGE
100
AcDbVertex
100
AcDb2dVertex
 10
7.771126320037725
 20
6.652163907598338
 30
0.0
 70
     8
  0
VERTEX
  5
B68
330
AAD
100
AcDbEntity
  8
IMAGE
100
AcDbVertex
100
AcDb2dVertex
 10
7.709349642437228
 20
6.649424205411283
 30
0.0
 70
     8
  0
VERTEX
  5
B69
330
AAD
100
AcDbEntity
  8
IMAGE
100
AcDbVertex
100
AcDb2dVertex
 10
7.652500494126329
 20
6.646110857691423
 30
0.0
 70
     8
  0
VERTEX
  5
B6A
330
AAD
100
AcDbEntity
  8
IMAGE
100
AcDbVertex
100
AcDb2dVertex
 10
7.603260656607709
 20
6.64218750508619
 30
0.0
 70
     8
  0
VERTEX
  5
B6B
330
AAD
100
AcDbEntity
  8
IMAGE
100
AcDbVertex
100
AcDb2dVertex
 10
7.564311911384046
 20
6.637617788243011
 30
0.0
 70
     8
  0
VERTEX
  5
B6C
330
AAD
100
AcDbEntity
  8
IMAGE
100
AcDbVertex
100
AcDb2dVertex
 10
7.538336039958021
 20
6.632365347809314
 30
0.0
 70
     8
  0
VERTEX
  5
B0F
330
AAD
100
AcDbEntity
  8
IMAGE
100
AcDbVertex
100
AcDb2dVertex
 10
9.792573104604862
 20
8.906010532513672
 30
0.0
 70
    16
  0
VERTEX
  5
B10
330
AAD
100
AcDbEntity
  8
IMAGE
100
AcDbVertex
100
AcDb2dVertex
 10
9.692299108589494
 20
8.944990598007528
 30
0.0
 70
    16
  0
VERTEX
  5
B11
330
AAD
100
AcDbEntity
  8
IMAGE
100
AcDbVertex
100
AcDb2dVertex
 10
9.541888144180017
 20
8.939422000092761
 30
0.0
 70
    16
  0
VERTEX
  5
B12
330
AAD
100
AcDbEntity
  8
IMAGE
100
AcDbVertex
100
AcDb2dVertex
 10
9.235495427933461
 20
8.867030467019816
 30
0.0
 70
    16
  0
VERTEX
  5
B13
330
AAD
100
AcDbEntity
  8
IMAGE
100
AcDbVertex
100
AcDb2dVertex
 10
9.007093557991868
 20
8.777933140202566
 30
0.0
 70
    16
  0
VERTEX
  5
B14
330
AAD
100
AcDbEntity
  8
IMAGE
100
AcDbVertex
100
AcDb2dVertex
 10
8.68955932611726
 20
8.15425205233102
 30
0.0
 70
    16
  0
VERTEX
  5
B15
330
AAD
100
AcDbEntity
  8
IMAGE
100
AcDbVertex
100
AcDb2dVertex
 10
8.433303578264814
 20
7.185318932959692
 30
0.0
 70
    16
  0
VERTEX
  5
B16
330
AAD
100
AcDbEntity
  8
IMAGE
100
AcDbVertex
100
AcDb2dVertex
 10
8.349741944532249
 20
6.739832418782965
 30
0.0
 70
    16
  0
VERTEX
  5
B17
330
AAD
100
AcDbEntity
  8
IMAGE
100
AcDbVertex
100
AcDb2dVertex
 10
8.299604916910988
 20
6.656303689880484
 30
0.0
 70
    16
  0
VERTEX
  5
B18
330
AAD
100
AcDbEntity
  8
IMAGE
100
AcDbVertex
100
AcDb2dVertex
 10
8.021066078575287
 20
6.661872287795251
 30
0.0
 70
    16
  0
VERTEX
  5
B19
330
AAD
100
AcDbEntity
  8
IMAGE
100
AcDbVertex
100
AcDb2dVertex
 10
7.587924059583745
 20
6.647314473177704
 30
0.0
 70
    16
  0
VERTEX
  5
B1A
330
AAD
100
AcDbEntity
  8
IMAGE
100
AcDbVertex
100
AcDb2dVertex
 10
7.538336039958021
 20
6.632365347809314
 30
0.0
 70
    16
  0
SEQEND
  5
B1B
330
AAD
100
AcDbEntity
  8
IMAGE
  0
POLYLINE
  5
BC2
330
2
100
AcDbEntity
  8
IMAGE
100
AcDb2dPolyline
 66
     1
 10
0.0
 20
0.0
 30
0.0
  0
VERTEX
  5
BC3
330
BC2
100
AcDbEntity
  8
IMAGE
100
AcDbVertex
100
AcDb2dVertex
 10
9.786443600924087
 20
8.826690847464982
 30
0.0
  0
VERTEX
  5
BC4
330
BC2
100
AcDbEntity
  8
IMAGE
100
AcDbVertex
100
AcDb2dVertex
 10
9.777498642529891
 20
8.844013758478903
 30
0.0
  0
VERTEX
  5
BC5
330
BC2
100
AcDbEntity
  8
IMAGE
100
AcDbVertex
100
AcDb2dVertex
 10
9.767066685646652
 20
8.858353274640998
 30
0.0
  0
VERTEX
  5
BC6
330
BC2
100
AcDbEntity
  8
IMAGE
100
AcDbVertex
100
AcDb2dVertex
 10
9.755313050168194
 20
8.87002166672714
 30
0.0
  0
VERTEX
  5
BC7
330
BC2
100
AcDbEntity
  8
IMAGE
100
AcDbVertex
100
AcDb2dVertex
 10
9.742403055988347
 20
8.879331205513196
 30
0.0
  0
VERTEX
  5
BC8
330
BC2
100
AcDbEntity
  8
IMAGE
100
AcDbVertex
100
AcDb2dVertex
 10
9.72850202300094
 20
8.886594161775036
 30
0.0
  0
VERTEX
  5
BC9
330
BC2
100
AcDbEntity
  8
IMAGE
100
AcDbVertex
100
AcDb2dVertex
 10
9.713775271099798
 20
8.892122806288529
 30
0.0
  0
VERTEX
  5
BCA
330
BC2
100
AcDbEntity
  8
IMAGE
100
AcDbVertex
100
AcDb2dVertex
 10
9.698388120178751
 20
8.896229409829546
 30
0.0
  0
VERTEX
  5
BCB
330
BC2
100
AcDbEntity
  8
IMAGE
100
AcDbVertex
100
AcDb2dVertex
 10
9.682505890131627
 20
8.899226243173954
 30
0.0
  0
VERTEX
  5
BCC
330
BC2
100
AcDbEntity
  8
IMAGE
100
AcDbVertex
100
AcDb2dVertex
 10
9.666220744318708
 20
8.901368723524967
 30
0.0
  0
VERTEX
  5
BCD
330
BC2
100
AcDbEntity
  8
IMAGE
100
AcDbVertex
100
AcDb2dVertex
 10
9.649332219966099
 20
8.90268485379517
 30
0.0
  0
VERTEX
  5
BCE
330
BC2
100
AcDbEntity
  8
IMAGE
100
AcDbVertex
100
AcDb2dVertex
 10
9.631566697766357
 20
8.90314578332449
 30
0.0
  0
VERTEX
  5
BCF
330
BC2
100
AcDbEntity
  8
IMAGE
100
AcDbVertex
100
AcDb2dVertex
 10
9.612650558412042
 20
8.902722661452852
 30
0.0
  0
VERTEX
  5
BD0
330
BC2
100
AcDbEntity
  8
IMAGE
100
AcDbVertex
100
AcDb2dVertex
 10
9.59231018259571
 20
8.901386637520184
 30
0.0
  0
VERTEX
  5
BD1
330
BC2
100
AcDbEntity
  8
IMAGE
100
AcDbVertex
100
AcDb2dVertex
 10
9.570271951009921
 20
8.899108860866414
 30
0.0
  0
VERTEX
  5
BD2
330
BC2
100
AcDbEntity
  8
IMAGE
100
AcDbVertex
100
AcDb2dVertex
 10
9.546262244347234
 20
8.895860480831469
 30
0.0
  0
VERTEX
  5
BD3
330
BC2
100
AcDbEntity
  8
IMAGE
100
AcDbVertex
100
AcDb2dVertex
 10
9.520007443300206
 20
8.891612646755278
 30
0.0
  0
VERTEX
  5
BD4
330
BC2
100
AcDbEntity
  8
IMAGE
100
AcDbVertex
100
AcDb2dVertex
 10
9.491360485434814
 20
8.886358810530502
 30
0.0
  0
VERTEX
  5
BD5
330
BC2
100
AcDbEntity
  8
IMAGE
100
AcDbVertex
100
AcDb2dVertex
 10
9.460680535810698
 20
8.880181634260747
 30
0.0
  0
VERTEX
  5
BD6
330
BC2
100
AcDbEntity
  8
IMAGE
100
AcDbVertex
100
AcDb2dVertex
 10
9.428453316360924
 20
8.873186082602355
 30
0.0
  0
VERTEX
  5
BD7
330
BC2
100
AcDbEntity
  8
IMAGE
100
AcDbVertex
100
AcDb2dVertex
 10
9.395164549018545
 20
8.865477120211672
 30
0.0
  0
VERTEX
  5
BD8
330
BC2
100
AcDbEntity
  8
IMAGE
100
AcDbVertex
100
AcDb2dVertex
 10
9.361299955716624
 20
8.857159711745033
 30
0.0
  0
VERTEX
  5
BD9
330
BC2
100
AcDbEntity
  8
IMAGE
100
AcDbVertex
100
AcDb2dVertex
 10
9.327345258388223
 20
8.848338821858789
 30
0.0
  0
VERTEX
  5
BDA
330
BC2
100
AcDbEntity
  8
IMAGE
100
AcDbVertex
100
AcDb2dVertex
 10
9.293786178966399
 20
8.839119415209275
 30
0.0
  0
VERTEX
  5
BDB
330
BC2
100
AcDbEntity
  8
IMAGE
100
AcDbVertex
100
AcDb2dVertex
 10
9.261108439384212
 20
8.829606456452834
 30
0.0
  0
VERTEX
  5
BDC
330
BC2
100
AcDbEntity
  8
IMAGE
100
AcDbVertex
100
AcDb2dVertex
 10
9.229656916447027
 20
8.819720585504416
 30
0.0
  0
VERTEX
  5
BDD
330
BC2
100
AcDbEntity
  8
IMAGE
100
AcDbVertex
100
AcDb2dVertex
 10
9.199213106449418
 20
8.80864514331337
 30
0.0
  0
VERTEX
  5
BDE
330
BC2
100
AcDbEntity
  8
IMAGE
100
AcDbVertex
100
AcDb2dVertex
 10
9.169417660558266
 20
8.795379146087654
 30
0.0
  0
VERTEX
  5
BDF
330
BC2
100
AcDbEntity
  8
IMAGE
100
AcDbVertex
100
AcDb2dVertex
 10
9.13991122994045
 20
8.778921610035226
 30
0.0
  0
VERTEX
  5
BE0
330
BC2
100
AcDbEntity
  8
IMAGE
100
AcDbVertex
100
AcDb2dVertex
 10
9.110334465762846
 20
8.758271551364039
 30
0.0
  0
VERTEX
  5
BE1
330
BC2
100
AcDbEntity
  8
IMAGE
100
AcDbVertex
100
AcDb2dVertex
 10
9.080328019192339
 20
8.732427986282056
 30
0.0
  0
VERTEX
  5
BE2
330
BC2
100
AcDbEntity
  8
IMAGE
100
AcDbVertex
100
AcDb2dVertex
 10
9.049532541395805
 20
8.700389930997229
 30
0.0
  0
VERTEX
  5
BE3
330
BC2
100
AcDbEntity
  8
IMAGE
100
AcDbVertex
100
AcDb2dVertex
 10
9.017588683540123
 20
8.661156401717514
 30
0.0
  0
VERTEX
  5
BE4
330
BC2
100
AcDbEntity
  8
IMAGE
100
AcDbVertex
100
AcDb2dVertex
 10
8.984246123449072
 20
8.613948052395784
 30
0.0
  0
VERTEX
  5
BE5
330
BC2
100
AcDbEntity
  8
IMAGE
100
AcDbVertex
100
AcDb2dVertex
 10
8.949690645574007
 20
8.558872087964559
 30
0.0
  0
VERTEX
  5
BE6
330
BC2
100
AcDbEntity
  8
IMAGE
100
AcDbVertex
100
AcDb2dVertex
 10
8.914217061023189
 20
8.496257351101276
 30
0.0
  0
VERTEX
  5
BE7
330
BC2
100
AcDbEntity
  8
IMAGE
100
AcDbVertex
100
AcDb2dVertex
 10
8.878120180904872
 20
8.426432684483369
 30
0.0
  0
VERTEX
  5
BE8
330
BC2
100
AcDbEntity
  8
IMAGE
100
AcDbVertex
100
AcDb2dVertex
 10
8.841694816327313
 20
8.349726930788277
 30
0.0
  0
VERTEX
  5
BE9
330
BC2
100
AcDbEntity
  8
IMAGE
100
AcDbVertex
100
AcDb2dVertex
 10
8.805235778398772
 20
8.266468932693431
 30
0.0
  0
VERTEX
  5
BEA
330
BC2
100
AcDbEntity
  8
IMAGE
100
AcDbVertex
100
AcDb2dVertex
 10
8.769037878227504
 20
8.176987532876271
 30
0.0
  0
VERTEX
  5
BEB
330
BC2
100
AcDbEntity
  8
IMAGE
100
AcDbVertex
100
AcDb2dVertex
 10
8.733395926921765
 20
8.081611574014228
 30
0.0
  0
VERTEX
  5
BEC
330
BC2
100
AcDbEntity
  8
IMAGE
100
AcDbVertex
100
AcDb2dVertex
 10
8.698593333586989
 20
7.980898078247008
 30
0.0
  0
VERTEX
  5
BED
330
BC2
100
AcDbEntity
  8
IMAGE
100
AcDbVertex
100
AcDb2dVertex
 10
8.664867899317313
 20
7.876316785563371
 30
0.0
  0
VERTEX
  5
BEE
330
BC2
100
AcDbEntity
  8
IMAGE
100
AcDbVertex
100
AcDb2dVertex
 10
8.632446023204051
 20
7.769565615414343
 30
0.0
  0
VERTEX
  5
BEF
330
BC2
100
AcDbEntity
  8
IMAGE
100
AcDbVertex
100
AcDb2dVertex
 10
8.60155410433852
 20
7.662342487250954
 30
0.0
  0
VERTEX
  5
BF0
330
BC2
100
AcDbEntity
  8
IMAGE
100
AcDbVertex
100
AcDb2dVertex
 10
8.572418541812032
 20
7.556345320524233
 30
0.0
  0
VERTEX
  5
BF1
330
BC2
100
AcDbEntity
  8
IMAGE
100
AcDbVertex
100
AcDb2dVertex
 10
8.545265734715902
 20
7.453272034685202
 30
0.0
  0
VERTEX
  5
BF2
330
BC2
100
AcDbEntity
  8
IMAGE
100
AcDbVertex
100
AcDb2dVertex
 10
8.520322082141445
 20
7.354820549184895
 30
0.0
  0
VERTEX
  5
BF3
330
BC2
100
AcDbEntity
  8
IMAGE
100
AcDbVertex
100
AcDb2dVertex
 10
8.497813983179975
 20
7.262688783474336
 30
0.0
  0
VERTEX
  5
BF4
330
BC2
100
AcDbEntity
  8
IMAGE
100
AcDbVertex
100
AcDb2dVertex
 10
8.477881140488227
 20
7.178236316399093
 30
0.0
  0
VERTEX
  5
BF5
330
BC2
100
AcDbEntity
  8
IMAGE
100
AcDbVertex
100
AcDb2dVertex
 10
8.460316470984631
 20
7.101469364382887
 30
0.0
  0
VERTEX
  5
BF6
330
BC2
100
AcDbEntity
  8
IMAGE
100
AcDbVertex
100
AcDb2dVertex
 10
8.444826195153034
 20
7.032055803243977
 30
0.0
  0
VERTEX
  5
BF7
330
BC2
100
AcDbEntity
  8
IMAGE
100
AcDbVertex
100
AcDb2dVertex
 10
8.431116533477286
 20
6.969663508800626
 30
0.0
  0
VERTEX
  5
BF8
330
BC2
100
AcDbEntity
  8
IMAGE
100
AcDbVertex
100
AcDb2dVertex
 10
8.418893706441238
 20
6.913960356871092
 30
0.0
  0
VERTEX
  5
BF9
330
BC2
100
AcDbEntity
  8
IMAGE
100
AcDbVertex
100
AcDb2dVertex
 10
8.407863934528737
 20
6.864614223273636
 30
0.0
  0
VERTEX
  5
BFA
330
BC2
100
AcDbEntity
  8
IMAGE
100
AcDbVertex
100
AcDb2dVertex
 10
8.397733438223633
 20
6.821292983826518
 30
0.0
  0
VERTEX
  5
BFB
330
BC2
100
AcDbEntity
  8
IMAGE
100
AcDbVertex
100
AcDb2dVertex
 10
8.388208438009776
 20
6.783664514347998
 30
0.0
  0
VERTEX
  5
BFC
330
BC2
100
AcDbEntity
  8
IMAGE
100
AcDbVertex
100
AcDb2dVertex
 10
8.378961323868566
 20
6.751377336869973
 30
0.0
  0
VERTEX
  5
BFD
330
BC2
100
AcDbEntity
  8
IMAGE
100
AcDbVertex
100
AcDb2dVertex
 10
8.369529163771595
 20
6.724002558278876
 30
0.0
  0
VERTEX
  5
BFE
330
BC2
100
AcDbEntity
  8
IMAGE
100
AcDbVertex
100
AcDb2dVertex
 10
8.359415195188015
 20
6.701091931674774
 30
0.0
  0
VERTEX
  5
BFF
330
BC2
100
AcDbEntity
  8
IMAGE
100
AcDbVertex
100
AcDb2dVertex
 10
8.348122655586966
 20
6.682197210157739
 30
0.0
  0
VERTEX
  5
C00
330
BC2
100
AcDbEntity
  8
IMAGE
100
AcDbVertex
100
AcDb2dVertex
 10
8.335154782437598
 20
6.666870146827839
 30
0.0
  0
VERTEX
  5
C01
330
BC2
100
AcDbEntity
  8
IMAGE
100
AcDbVertex
100
AcDb2dVertex
 10
8.320014813209054
 20
6.65466249478514
 30
0.0
  0
VERTEX
  5
C02
330
BC2
100
AcDbEntity
  8
IMAGE
100
AcDbVertex
100
AcDb2dVertex
 10
8.302205985370482
 20
6.645126007129715
 30
0.0
  0
VERTEX
  5
C03
330
BC2
100
AcDbEntity
  8
IMAGE
100
AcDbVertex
100
AcDb2dVertex
 10
8.281231536391027
 20
6.637812436961632
 30
0.0
  0
VERTEX
  5
C04
330
BC2
100
AcDbEntity
  8
IMAGE
100
AcDbVertex
100
AcDb2dVertex
 10
8.256642463157239
 20
6.632302314227204
 30
0.0
  0
VERTEX
  5
C05
330
BC2
100
AcDbEntity
  8
IMAGE
100
AcDbVertex
100
AcDb2dVertex
 10
8.228180800225301
 20
6.628291276257729
 30
0.0
  0
VERTEX
  5
C06
330
BC2
100
AcDbEntity
  8
IMAGE
100
AcDbVertex
100
AcDb2dVertex
 10
8.195636341568791
 20
6.62550373723075
 30
0.0
  0
VERTEX
  5
C07
330
BC2
100
AcDbEntity
  8
IMAGE
100
AcDbVertex
100
AcDb2dVertex
 10
8.158798881161295
 20
6.62366411132381
 30
0.0
  0
VERTEX
  5
C08
330
BC2
100
AcDbEntity
  8
IMAGE
100
AcDbVertex
100
AcDb2dVertex
 10
8.117458212976398
 20
6.622496812714451
 30
0.0
  0
VERTEX
  5
C09
330
BC2
100
AcDbEntity
  8
IMAGE
100
AcDbVertex
100
AcDb2dVertex
 10
8.071404130987684
 20
6.621726255580217
 30
0.0
  0
VERTEX
  5
C0A
330
BC2
100
AcDbEntity
  8
IMAGE
100
AcDbVertex
100
AcDb2dVertex
 10
8.020426429168736
 20
6.62107685409865
 30
0.0
  0
VERTEX
  5
C0B
330
BC2
100
AcDbEntity
  8
IMAGE
100
AcDbVertex
100
AcDb2dVertex
 10
7.968033225063718
 20
6.620326289686661
 30
0.0
  0
SEQEND
  5
C0C
330
BC2
100
AcDbEntity
  8
IMAGE
  0
POLYLINE
  5
C0D
330
2
100
AcDbEntity
  8
IMAGE
100
AcDb2dPolyline
 66
     1
 10
0.0
 20
0.0
 30
0.0
  0
VERTEX
  5
C0E
330
C0D
100
AcDbEntity
  8
IMAGE
100
AcDbVertex
100
AcDb2dVertex
 10
7.93731518070972
 20
6.853123601512261
 30
0.0
  0
VERTEX
  5
C0F
330
C0D
100
AcDbEntity
  8
IMAGE
100
AcDbVertex
100
AcDb2dVertex
 10
7.967376528964405
 20
6.852660553666811
 30
0.0
  0
VERTEX
  5
C10
330
C0D
100
AcDbEntity
  8
IMAGE
100
AcDbVertex
100
AcDb2dVertex
 10
7.996254778797073
 20
6.851207698900668
 30
0.0
  0
VERTEX
  5
C11
330
C0D
100
AcDbEntity
  8
IMAGE
100
AcDbVertex
100
AcDb2dVertex
 10
8.025423580267325
 20
6.848669470369141
 30
0.0
  0
VERTEX
  5
C12
330
C0D
100
AcDbEntity
  8
IMAGE
100
AcDbVertex
100
AcDb2dVertex
 10
8.056356583434769
 20
6.84495030122754
 30
0.0
  0
VERTEX
  5
C13
330
C0D
100
AcDbEntity
  8
IMAGE
100
AcDbVertex
100
AcDb2dVertex
 10
8.090527438359004
 20
6.839954624631174
 30
0.0
  0
VERTEX
  5
C14
330
C0D
100
AcDbEntity
  8
IMAGE
100
AcDbVertex
100
AcDb2dVertex
 10
8.129409795099633
 20
6.833586873735359
 30
0.0
  0
VERTEX
  5
C15
330
C0D
100
AcDbEntity
  8
IMAGE
100
AcDbVertex
100
AcDb2dVertex
 10
8.174477303716265
 20
6.825751481695397
 30
0.0
  0
VERTEX
  5
C16
330
C0D
100
AcDbEntity
  8
IMAGE
100
AcDbVertex
100
AcDb2dVertex
 10
8.2272036142685
 20
6.816352881666598
 30
0.0
  0
VERTEX
  5
C17
330
C0D
100
AcDbEntity
  8
IMAGE
100
AcDbVertex
100
AcDb2dVertex
 10
8.288521475936882
 20
6.805354648690541
 30
0.0
  0
VERTEX
  5
C18
330
C0D
100
AcDbEntity
  8
IMAGE
100
AcDbVertex
100
AcDb2dVertex
 10
8.35354782133022
 20
6.793616215939575
 30
0.0
  0
SEQEND
  5
C19
330
C0D
100
AcDbEntity
  8
IMAGE
  0
POLYLINE
  5
C1A
330
2
100
AcDbEntity
  8
IMAGE
100
AcDb2dPolyline
 66
     1
 10
0.0
 20
0.0
 30
0.0
  0
VERTEX
  5
C1B
330
C1A
100
AcDbEntity
  8
IMAGE
100
AcDbVertex
100
AcDb2dVertex
 10
8.389089203576419
 20
6.787143974662754
 30
0.0
  0
VERTEX
  5
C1C
330
C1A
100
AcDbEntity
  8
IMAGE
100
AcDbVertex
100
AcDb2dVertex
 10
8.431467534400333
 20
6.779418996129268
 30
0.0
  0
VERTEX
  5
C1D
330
C1A
100
AcDbEntity
  8
IMAGE
100
AcDbVertex
100
AcDb2dVertex
 10
8.509552220765932
 20
6.765000145489767
 30
0.0
  0
VERTEX
  5
C1E
330
C1A
100
AcDbEntity
  8
IMAGE
100
AcDbVertex
100
AcDb2dVertex
 10
8.589682338267802
 20
6.749959657908159
 30
0.0
  0
VERTEX
  5
C1F
330
C1A
100
AcDbEntity
  8
IMAGE
100
AcDbVertex
100
AcDb2dVertex
 10
8.67008613169121
 20
6.734556817857302
 30
0.0
  0
VERTEX
  5
C20
330
C1A
100
AcDbEntity
  8
IMAGE
100
AcDbVertex
100
AcDb2dVertex
 10
8.74899184582142
 20
6.719050909810049
 30
0.0
  0
VERTEX
  5
C21
330
C1A
100
AcDbEntity
  8
IMAGE
100
AcDbVertex
100
AcDb2dVertex
 10
8.824627725443697
 20
6.703701218239255
 30
0.0
  0
VERTEX
  5
C22
330
C1A
100
AcDbEntity
  8
IMAGE
100
AcDbVertex
100
AcDb2dVertex
 10
8.895616658354834
 20
6.688692436928898
 30
0.0
  0
VERTEX
  5
C23
330
C1A
100
AcDbEntity
  8
IMAGE
100
AcDbVertex
100
AcDb2dVertex
 10
8.962160104397714
 20
6.673910896907478
 30
0.0
  0
VERTEX
  5
C24
330
C1A
100
AcDbEntity
  8
IMAGE
100
AcDbVertex
100
AcDb2dVertex
 10
9.024854166426743
 20
6.65916833851461
 30
0.0
  0
VERTEX
  5
C25
330
C1A
100
AcDbEntity
  8
IMAGE
100
AcDbVertex
100
AcDb2dVertex
 10
9.084294947296333
 20
6.644276502089915
 30
0.0
  0
VERTEX
  5
C26
330
C1A
100
AcDbEntity
  8
IMAGE
100
AcDbVertex
100
AcDb2dVertex
 10
9.141078549860891
 20
6.629047127973012
 30
0.0
  0
VERTEX
  5
C27
330
C1A
100
AcDbEntity
  8
IMAGE
100
AcDbVertex
100
AcDb2dVertex
 10
9.195801076974822
 20
6.613291956503526
 30
0.0
  0
VERTEX
  5
C28
330
C1A
100
AcDbEntity
  8
IMAGE
100
AcDbVertex
100
AcDb2dVertex
 10
9.249058631492538
 20
6.596822728021069
 30
0.0
  0
VERTEX
  5
C29
330
C1A
100
AcDbEntity
  8
IMAGE
100
AcDbVertex
100
AcDb2dVertex
 10
9.301447316268443
 20
6.579451182865269
 30
0.0
  0
VERTEX
  5
C2A
330
C1A
100
AcDbEntity
  8
IMAGE
100
AcDbVertex
100
AcDb2dVertex
 10
9.353364028076967
 20
6.561065584690612
 30
0.0
  0
VERTEX
  5
C2B
330
C1A
100
AcDbEntity
  8
IMAGE
100
AcDbVertex
100
AcDb2dVertex
 10
9.404408839372603
 20
6.541860290411068
 30
0.0
  0
VERTEX
  5
C2C
330
C1A
100
AcDbEntity
  8
IMAGE
100
AcDbVertex
100
AcDb2dVertex
 10
9.453982616529867
 20
6.522106180255476
 30
0.0
  0
VERTEX
  5
C2D
330
C1A
100
AcDbEntity
  8
IMAGE
100
AcDbVertex
100
AcDb2dVertex
 10
9.501486225923269
 20
6.502074134452676
 30
0.0
  0
VERTEX
  5
C2E
330
C1A
100
AcDbEntity
  8
IMAGE
100
AcDbVertex
100
AcDb2dVertex
 10
9.546320533927326
 20
6.48203503323151
 30
0.0
  0
VERTEX
  5
C2F
330
C1A
100
AcDbEntity
  8
IMAGE
100
AcDbVertex
100
AcDb2dVertex
 10
9.587886406916549
 20
6.462259756820816
 30
0.0
  0
VERTEX
  5
C30
330
C1A
100
AcDbEntity
  8
IMAGE
100
AcDbVertex
100
AcDb2dVertex
 10
9.625584711265451
 20
6.443019185449428
 30
0.0
  0
VERTEX
  5
C31
330
C1A
100
AcDbEntity
  8
IMAGE
100
AcDbVertex
100
AcDb2dVertex
 10
9.65881631334855
 20
6.424584199346194
 30
0.0
  0
VERTEX
  5
C32
330
C1A
100
AcDbEntity
  8
IMAGE
100
AcDbVertex
100
AcDb2dVertex
 10
9.687179095793972
 20
6.40713717394466
 30
0.0
  0
VERTEX
  5
C33
330
C1A
100
AcDbEntity
  8
IMAGE
100
AcDbVertex
100
AcDb2dVertex
 10
9.711059006244314
 20
6.39050646549722
 30
0.0
  0
VERTEX
  5
C34
330
C1A
100
AcDbEntity
  8
IMAGE
100
AcDbVertex
100
AcDb2dVertex
 10
9.731039008595791
 20
6.374431925460974
 30
0.0
  0
VERTEX
  5
C35
330
C1A
100
AcDbEntity
  8
IMAGE
100
AcDbVertex
100
AcDb2dVertex
 10
9.747702066744617
 20
6.358653405293028
 30
0.0
  0
VERTEX
  5
C36
330
C1A
100
AcDbEntity
  8
IMAGE
100
AcDbVertex
100
AcDb2dVertex
 10
9.761631144587003
 20
6.342910756450485
 30
0.0
  0
VERTEX
  5
C37
330
C1A
100
AcDbEntity
  8
IMAGE
100
AcDbVertex
100
AcDb2dVertex
 10
9.773409206019165
 20
6.326943830390447
 30
0.0
  0
VERTEX
  5
C38
330
C1A
100
AcDbEntity
  8
IMAGE
100
AcDbVertex
100
AcDb2dVertex
 10
9.783619214937317
 20
6.310492478570018
 30
0.0
  0
VERTEX
  5
C39
330
C1A
100
AcDbEntity
  8
IMAGE
100
AcDbVertex
100
AcDb2dVertex
 10
9.79284413523767
 20
6.293296552446295
 30
0.0
  0
VERTEX
  5
C3A
330
C1A
100
AcDbEntity
  8
IMAGE
100
AcDbVertex
100
AcDb2dVertex
 10
9.801540032148752
 20
6.275171152946803
 30
0.0
  0
VERTEX
  5
C3B
330
C1A
100
AcDbEntity
  8
IMAGE
100
AcDbVertex
100
AcDb2dVertex
 10
9.809655376228326
 20
6.256232378880674
 30
0.0
  0
VERTEX
  5
C3C
330
C1A
100
AcDbEntity
  8
IMAGE
100
AcDbVertex
100
AcDb2dVertex
 10
9.817011739366471
 20
6.236671578527466
 30
0.0
  0
VERTEX
  5
C3D
330
C1A
100
AcDbEntity
  8
IMAGE
100
AcDbVertex
100
AcDb2dVertex
 10
9.823430693453264
 20
6.216680100166736
 30
0.0
  0
VERTEX
  5
C3E
330
C1A
100
AcDbEntity
  8
IMAGE
100
AcDbVertex
100
AcDb2dVertex
 10
9.828733810378786
 20
6.196449292078027
 30
0.0
  0
VERTEX
  5
C3F
330
C1A
100
AcDbEntity
  8
IMAGE
100
AcDbVertex
100
AcDb2dVertex
 10
9.832742662033108
 20
6.176170502540901
 30
0.0
  0
VERTEX
  5
C40
330
C1A
100
AcDbEntity
  8
IMAGE
100
AcDbVertex
100
AcDb2dVertex
 10
9.835278820306312
 20
6.15603507983491
 30
0.0
  0
VERTEX
  5
C41
330
C1A
100
AcDbEntity
  8
IMAGE
100
AcDbVertex
100
AcDb2dVertex
 10
9.836163857088473
 20
6.136234372239601
 30
0.0
  0
SEQEND
  5
C42
330
C1A
100
AcDbEntity
  8
IMAGE
  0
POLYLINE
  5
C43
330
2
100
AcDbEntity
  8
IMAGE
100
AcDb2dPolyline
 66
     1
 10
0.0
 20
0.0
 30
0.0
  0
VERTEX
  5
C44
330
C43
100
AcDbEntity
  8
IMAGE
100
AcDbVertex
100
AcDb2dVertex
 10
7.93731518070972
 20
6.890138411689366
 30
0.0
  0
VERTEX
  5
C45
330
C43
100
AcDbEntity
  8
IMAGE
100
AcDbVertex
100
AcDb2dVertex
 10
7.968505566523948
 20
6.889662811539166
 30
0.0
  0
VERTEX
  5
C46
330
C43
100
AcDbEntity
  8
IMAGE
100
AcDbVertex
100
AcDb2dVertex
 10
7.998376853164105
 20
6.888175300315629
 30
0.0
  0
VERTEX
  5
C47
330
C43
100
AcDbEntity
  8
IMAGE
100
AcDbVertex
100
AcDb2dVertex
 10
8.02841431519009
 20
6.885584811859348
 30
0.0
  0
VERTEX
  5
C48
330
C43
100
AcDbEntity
  8
IMAGE
100
AcDbVertex
100
AcDb2dVertex
 10
8.060103227161789
 20
6.88180028001092
 30
0.0
  0
VERTEX
  5
C49
330
C43
100
AcDbEntity
  8
IMAGE
100
AcDbVertex
100
AcDb2dVertex
 10
8.094928863639104
 20
6.876730638610932
 30
0.0
  0
VERTEX
  5
C4A
330
C43
100
AcDbEntity
  8
IMAGE
100
AcDbVertex
100
AcDb2dVertex
 10
8.134376499181925
 20
6.870284821499985
 30
0.0
  0
VERTEX
  5
C4B
330
C43
100
AcDbEntity
  8
IMAGE
100
AcDbVertex
100
AcDb2dVertex
 10
8.179931408350142
 20
6.862371762518665
 30
0.0
  0
VERTEX
  5
C4C
330
C43
100
AcDbEntity
  8
IMAGE
100
AcDbVertex
100
AcDb2dVertex
 10
8.233078865703657
 20
6.852900395507574
 30
0.0
  0
VERTEX
  5
C4D
330
C43
100
AcDbEntity
  8
IMAGE
100
AcDbVertex
100
AcDb2dVertex
 10
8.294763355558899
 20
6.841837585733091
 30
0.0
  0
VERTEX
  5
C4E
330
C43
100
AcDbEntity
  8
IMAGE
100
AcDbVertex
100
AcDb2dVertex
 10
8.36241445084142
 20
6.829625927807649
 30
0.0
  0
SEQEND
  5
C4F
330
C43
100
AcDbEntity
  8
IMAGE
  0
POLYLINE
  5
C50
330
2
100
AcDbEntity
  8
IMAGE
100
AcDb2dPolyline
 66
     1
 10
0.0
 20
0.0
 30
0.0
  0
VERTEX
  5
C51
330
C50
100
AcDbEntity
  8
IMAGE
100
AcDbVertex
100
AcDb2dVertex
 10
8.398158905319649
 20
6.823112417089038
 30
0.0
  0
VERTEX
  5
C52
330
C50
100
AcDbEntity
  8
IMAGE
100
AcDbVertex
100
AcDb2dVertex
 10
8.438327935901607
 20
6.815789933197954
 30
0.0
  0
VERTEX
  5
C53
330
C50
100
AcDbEntity
  8
IMAGE
100
AcDbVertex
100
AcDb2dVertex
 10
8.516689092587402
 20
6.801318135227993
 30
0.0
  0
VERTEX
  5
C54
330
C50
100
AcDbEntity
  8
IMAGE
100
AcDbVertex
100
AcDb2dVertex
 10
8.597090204415042
 20
6.786223052650234
 30
0.0
  0
VERTEX
  5
C55
330
C50
100
AcDbEntity
  8
IMAGE
100
AcDbVertex
100
AcDb2dVertex
 10
8.677771804483693
 20
6.770761207860018
 30
0.0
  0
VERTEX
  5
C56
330
C50
100
AcDbEntity
  8
IMAGE
100
AcDbVertex
100
AcDb2dVertex
 10
8.75697442589252
 20
6.75518912325269
 30
0.0
  0
VERTEX
  5
C57
330
C50
100
AcDbEntity
  8
IMAGE
100
AcDbVertex
100
AcDb2dVertex
 10
8.832938601740687
 20
6.739763321223594
 30
0.0
  0
VERTEX
  5
C58
330
C50
100
AcDbEntity
  8
IMAGE
100
AcDbVertex
100
AcDb2dVertex
 10
8.904298919197165
 20
6.72466517872484
 30
0.0
  0
VERTEX
  5
C59
330
C50
100
AcDbEntity
  8
IMAGE
100
AcDbVertex
100
AcDb2dVertex
 10
8.97126618171014
 20
6.709775490935562
 30
0.0
  0
VERTEX
  5
C5A
330
C50
100
AcDbEntity
  8
IMAGE
100
AcDbVertex
100
AcDb2dVertex
 10
9.0344452467976
 20
6.69489990759165
 30
0.0
  0
VERTEX
  5
C5B
330
C50
100
AcDbEntity
  8
IMAGE
100
AcDbVertex
100
AcDb2dVertex
 10
9.094440971977538
 20
6.679844078429005
 30
0.0
  0
VERTEX
  5
C5C
330
C50
100
AcDbEntity
  8
IMAGE
100
AcDbVertex
100
AcDb2dVertex
 10
9.151858214767944
 20
6.664413653183522
 30
0.0
  0
VERTEX
  5
C5D
330
C50
100
AcDbEntity
  8
IMAGE
100
AcDbVertex
100
AcDb2dVertex
 10
9.207301832686809
 20
6.648414281591096
 30
0.0
  0
VERTEX
  5
C5E
330
C50
100
AcDbEntity
  8
IMAGE
100
AcDbVertex
100
AcDb2dVertex
 10
9.261376683252123
 20
6.63165161338762
 30
0.0
  0
VERTEX
  5
C5F
330
C50
100
AcDbEntity
  8
IMAGE
100
AcDbVertex
100
AcDb2dVertex
 10
9.314687623981878
 20
6.613931298308993
 30
0.0
  0
VERTEX
  5
C60
330
C50
100
AcDbEntity
  8
IMAGE
100
AcDbVertex
100
AcDb2dVertex
 10
9.367635871735597
 20
6.595135385888915
 30
0.0
  0
VERTEX
  5
C61
330
C50
100
AcDbEntity
  8
IMAGE
100
AcDbVertex
100
AcDb2dVertex
 10
9.419808080738945
 20
6.575451524852343
 30
0.0
  0
VERTEX
  5
C62
330
C50
100
AcDbEntity
  8
IMAGE
100
AcDbVertex
100
AcDb2dVertex
 10
9.470587264559121
 20
6.555143763722031
 30
0.0
  0
VERTEX
  5
C63
330
C50
100
AcDbEntity
  8
IMAGE
100
AcDbVertex
100
AcDb2dVertex
 10
9.51935643676332
 20
6.534476151020743
 30
0.0
  0
VERTEX
  5
C64
330
C50
100
AcDbEntity
  8
IMAGE
100
AcDbVertex
100
AcDb2dVertex
 10
9.565498610918741
 20
6.513712735271236
 30
0.0
  0
VERTEX
  5
C65
330
C50
100
AcDbEntity
  8
IMAGE
100
AcDbVertex
100
AcDb2dVertex
 10
9.608396800592583
 20
6.49311756499627
 30
0.0
  0
VERTEX
  5
C66
330
C50
100
AcDbEntity
  8
IMAGE
100
AcDbVertex
100
AcDb2dVertex
 10
9.647434019352044
 20
6.472954688718608
 30
0.0
  0
VERTEX
  5
C67
330
C50
100
AcDbEntity
  8
IMAGE
100
AcDbVertex
100
AcDb2dVertex
 10
9.681993280764322
 20
6.45348815496101
 30
0.0
  0
VERTEX
  5
C68
330
C50
100
AcDbEntity
  8
IMAGE
100
AcDbVertex
100
AcDb2dVertex
 10
9.711656991471253
 20
6.434895424440763
 30
0.0
  0
VERTEX
  5
C69
330
C50
100
AcDbEntity
  8
IMAGE
100
AcDbVertex
100
AcDb2dVertex
 10
9.736805130413241
 20
6.41700760665327
 30
0.0
  0
VERTEX
  5
C6A
330
C50
100
AcDbEntity
  8
IMAGE
100
AcDbVertex
100
AcDb2dVertex
 10
9.75801706960533
 20
6.399569223288472
 30
0.0
  0
VERTEX
  5
C6B
330
C50
100
AcDbEntity
  8
IMAGE
100
AcDbVertex
100
AcDb2dVertex
 10
9.775872181062558
 20
6.382324796036299
 30
0.0
  0
VERTEX
  5
C6C
330
C50
100
AcDbEntity
  8
IMAGE
100
AcDbVertex
100
AcDb2dVertex
 10
9.79094983679997
 20
6.365018846586685
 30
0.0
  0
VERTEX
  5
C6D
330
C50
100
AcDbEntity
  8
IMAGE
100
AcDbVertex
100
AcDb2dVertex
 10
9.803829408832609
 20
6.347395896629566
 30
0.0
  0
VERTEX
  5
C6E
330
C50
100
AcDbEntity
  8
IMAGE
100
AcDbVertex
100
AcDb2dVertex
 10
9.815090269175517
 20
6.329200467854877
 30
0.0
  0
VERTEX
  5
C6F
330
C50
100
AcDbEntity
  8
IMAGE
100
AcDbVertex
100
AcDb2dVertex
 10
9.825311789843734
 20
6.310177081952555
 30
0.0
  0
VERTEX
  5
C70
330
C50
100
AcDbEntity
  8
IMAGE
100
AcDbVertex
100
AcDb2dVertex
 10
9.834944409841682
 20
6.2901458626268
 30
0.0
  0
VERTEX
  5
C71
330
C50
100
AcDbEntity
  8
IMAGE
100
AcDbVertex
100
AcDb2dVertex
 10
9.843922836131273
 20
6.269229341638925
 30
0.0
  0
VERTEX
  5
C72
330
C50
100
AcDbEntity
  8
IMAGE
100
AcDbVertex
100
AcDb2dVertex
 10
9.852052842663798
 20
6.247625652764507
 30
0.0
  0
VERTEX
  5
C73
330
C50
100
AcDbEntity
  8
IMAGE
100
AcDbVertex
100
AcDb2dVertex
 10
9.859140203390547
 20
6.22553292977913
 30
0.0
  0
VERTEX
  5
C74
330
C50
100
AcDbEntity
  8
IMAGE
100
AcDbVertex
100
AcDb2dVertex
 10
9.864990692262809
 20
6.20314930645837
 30
0.0
  0
VERTEX
  5
C75
330
C50
100
AcDbEntity
  8
IMAGE
100
AcDbVertex
100
AcDb2dVertex
 10
9.869410083231874
 20
6.180672916577807
 30
0.0
  0
VERTEX
  5
C76
330
C50
100
AcDbEntity
  8
IMAGE
100
AcDbVertex
100
AcDb2dVertex
 10
9.872204150249036
 20
6.158301893913026
 30
0.0
  0
VERTEX
  5
C77
330
C50
100
AcDbEntity
  8
IMAGE
100
AcDbVertex
100
AcDb2dVertex
 10
9.87317866726558
 20
6.136234372239601
 30
0.0
  0
SEQEND
  5
C78
330
C50
100
AcDbEntity
  8
IMAGE
  0
MTEXT
  5
CA2
330
2
100
AcDbEntity
  8
IMAGE
100
AcDbMText
 10
8.185670811874317
 20
3.268612160236753
 30
0.0
 40
0.125
 41
12.8286
 71
     1
 72
     5
  3
NOTES:\P\P1. MAXIMUM LENGTH OF SECONDARY WIRE PATH (14 AWG)\P   FROM FIELD DECODER TO SOLENOID IS 450-FEET.\P\P2. IF OPERATING TWO VALVES PER DECODER ADDRESS,\P   THE TOTAL DISTANCE OF EACH VALUE MUST BE ADDED\P   TOGETHER AND NOT EXCEED THE LIMIT SE
  1
T.
  7
ROMANS
 73
     1
 44
1.0
  0
TEXT
  5
CC1
330
2
100
AcDbEntity
  8
IMAGE
 62
     5
100
AcDbText
 10
4.110355445456991
 20
6.930908355007203
 30
0.0
 40
0.125
  1
WIRE
  7
arial
100
AcDbText
  0
TEXT
  5
CC2
330
2
100
AcDbEntity
  8
IMAGE
 62
     5
100
AcDbText
 10
4.595212696574104
 20
5.812849330539406
 30
0.0
 40
0.125
  1
WIRE
  7
arial
100
AcDbText
  0
TEXT
  5
CC3
330
2
100
AcDbEntity
  8
IMAGE
 62
     5
100
AcDbText
 10
4.595212696574104
 20
5.980558199314173
 30
0.0
 40
0.125
  1
BLUE
  7
arial
100
AcDbText
  0
TEXT
  5
CC4
330
2
100
AcDbEntity
  8
IMAGE
100
AcDbText
 10
5.893404469139838
 20
6.710584543021865
 30
0.0
 40
0.125
  1
WIRE
  7
arial
100
AcDbText
  0
TEXT
  5
CC5
330
2
100
AcDbEntity
  8
IMAGE
100
AcDbText
 10
6.247723253649091
 20
4.884421461892457
 30
0.0
 40
0.125
  1
WIRE
  7
arial
100
AcDbText
  0
TEXT
  5
CC6
330
2
100
AcDbEntity
  8
IMAGE
100
AcDbText
 10
6.247723253649091
 20
5.052130330667224
 30
0.0
 40
0.125
  1
WHITE
  7
arial
100
AcDbText
  0
INSERT
  5
CEB
330
2
100
AcDbEntity
  8
0
100
AcDbBlockReference
 66
     1
  2
titleblock
 10
0.0
 20
0.0
 30
0.0
  0
ATTRIB
  5
CED
330
CEB
100
AcDbEntity
  8
TITLE
100
AcDbText
 10
0.5055556038023421
 20
0.7842270964783673
 30
0.0
 40
0.2
  1
D
  7
L200
 72
     4
 11
0.6064423705144839
 21
0.8842270964783672
 31
0.0
100
AcDbAttribute
  2
D
 70
     0
  0
ATTRIB
  5
CEE
330
CEB
100
AcDbEntity
  8
TITLE
100
AcDbText
 10
1.231442370514484
 20
1.34371230274675
 30
0.0
 40
0.2
  1

  7
L200
100
AcDbAttribute
  2
TITLE1
 70
     0
  0
ATTRIB
  5
CEF
330
CEB
100
AcDbEntity
  8
TITLE
100
AcDbText
 10
1.231442370514484
 20
0.9842270964783674
 30
0.0
 40
0.2
  1
FD-102TURF DECODER WIRING DIAGRAM:
  7
L200
100
AcDbAttribute
  2
TITLE2
 70
     0
  0
ATTRIB
  5
CF0
330
CEB
100
AcDbEntity
  8
TITLE
100
AcDbText
 10
2.713645751168312
 20
0.5927927664583189
 30
0.0
 40
0.2
  1
 TWO SOLENOIDS PER ADDRESS
  7
L200
100
AcDbAttribute
  2
TITLE3
 70
     0
  0
ATTRIB
  5
CF1
330
CEB
100
AcDbEntity
  8
TITLE
100
AcDbText
 10
2.713645751168312
 20
0.2692560808167741
 30
0.0
 40
0.2
  1

  7
L200
100
AcDbAttribute
  2
TITLE4
 70
     0
  0
ATTRIB
  5
CF2
330
CEB
100
AcDbEntity
  8
TITLE
 62
     7
100
AcDbText
 10
7.689595782347332
 20
0.9696027915446398
 30
0.0
 40
0.08
  1
1-20-04
  7
L80
 72
     2
 11
8.261024353775903
 21
0.9696027915446398
 31
0.0
100
AcDbAttribute
  2
REVISED
 70
     0
  0
ATTRIB
  5
CF3
330
CEB
100
AcDbEntity
  8
TITLE
 62
     7
100
AcDbText
 10
0.2639423705144838
 20
0.0847116480207214
 30
0.0
 40
0.08
  1
FD102-2V.DWG
  7
L80
100
AcDbAttribute
  2
DWG-NAME
 70
     0
  0
ATTRIB
  5
CF4
330
CEB
100
AcDbEntity
  8
TITLE
 62
     7
100
AcDbText
 10
1.231442370514484
 20
0.7005637793954894
 30
0.0
 40
0.1
  1
N.T.S.
  7
L100
100
AcDbAttribute
  2
SCALE
 70
     0
  0
SEQEND
  5
CEC
330
CEB
100
AcDbEntity
  8
IMAGE
  0
ENDSEC
  0
SECTION
  2
OBJECTS
  0
DICTIONARY
  5
7
330
0
100
AcDbDictionary
281
     1
  3
ACAD_GROUP
350
1F
  3
ACAD_LAYOUT
350
B
  3
ACAD_MLINESTYLE
350
20
  3
ACAD_PLOTSETTINGS
350
21
  3
ACAD_PLOTSTYLENAME
350
6
  3
AcDbVariableDictionary
350
32
  0
DICTIONARY
  5
1F
102
{ACAD_REACTORS
330
7
102
}
330
7
100
AcDbDictionary
281
     1
  0
DICTIONARY
  5
B
102
{ACAD_REACTORS
330
7
102
}
330
7
100
AcDbDictionary
281
     1
  3
Layout1
350
F
  3
Model
350
A
  0
DICTIONARY
  5
20
102
{ACAD_REACTORS
330
7
102
}
330
7
100
AcDbDictionary
281
     1
  3
STANDARD
350
24
  0
DICTIONARY
  5
21
102
{ACAD_REACTORS
330
7
102
}
330
7
100
AcDbDictionary
281
     1
  0
ACDBDICTIONARYWDFLT
  5
6
102
{ACAD_REACTORS
330
7
102
}
330
7
100
AcDbDictionary
281
     1
  3
Normal
350
5
100
AcDbDictionaryWithDefault
340
5
  0
DICTIONARY
  5
32
102
{ACAD_REACTORS
330
7
102
}
330
7
100
AcDbDictionary
281
     1
  3
DIMASSOC
350
34
  3
HIDETEXT
350
33
  3
SORTENTS
350
CA0
  0
LAYOUT
  5
F
102
{ACAD_REACTORS
330
B
102
}
330
B
100
AcDbPlotSettings
  1

  2
S:\AutoCAD 2002\Plotters\1055B&WDraftShaded.pc3
  4

  6

 40
0.0
 41
0.0
 42
0.0
 43
0.0
 44
0.0
 45
0.0
 46
0.0
 47
0.0
 48
0.0
 49
0.0
140
0.0
141
0.0
142
1.0
143
1.0
 70
   688
 72
     0
 73
     0
 74
     5
  7
OKIColorShaded.ctb
 75
    16
147
1.0
148
0.0
149
0.0
100
AcDbLayout
  1
Layout1
 70
     1
 71
     1
 10
0.0
 20
0.0
 11
12.0
 21
9.0
 12
0.0
 22
0.0
 32
0.0
 14
1.000000000000000E+20
 24
1.000000000000000E+20
 34
1.000000000000000E+20
 15
-1.000000000000000E+20
 25
-1.000000000000000E+20
 35
-1.000000000000000E+20
146
0.0
 13
0.0
 23
0.0
 33
0.0
 16
1.0
 26
0.0
 36
0.0
 17
0.0
 27
1.0
 37
0.0
 76
     0
330
C
  0
LAYOUT
  5
A
102
{ACAD_REACTORS
330
B
102
}
330
B
100
AcDbPlotSettings
  1

  2
OKI DOKI Color Laser.pc3
  4
Letter
  6

 40
5.027083396911621
 41
5.027085304260253
 42
5.027084350585937
 43
5.027069091796875
 44
215.8999938964843
 45
279.3999938964843
 46
0.0
 47
0.0
 48
-0.118810089847301
 49
-2.131858055881615
140
14.18464265984584
141
9.587674097117698
142
1.0
143
1.323627325534217
 70
 11956
 72
     0
 73
     1
 74
     1
  7
OKIColorShaded.ctb
 75
     0
147
0.7554996642248973
148
0.0217380637842694
149
33.33050873649984
100
AcDbLayout
  1
Model
 70
     1
 71
     0
 10
0.0
 20
0.0
 11
12.0
 21
9.0
 12
0.0
 22
0.0
 32
0.0
 14
0.0
 24
0.0
 34
0.0
 15
0.0
 25
0.0
 35
0.0
146
0.0
 13
0.0
 23
0.0
 33
0.0
 16
1.0
 26
0.0
 36
0.0
 17
0.0
 27
1.0
 37
0.0
 76
     0
330
2
  0
MLINESTYLE
  5
24
102
{ACAD_REACTORS
330
20
102
}
330
20
100
AcDbMlineStyle
  2
STANDARD
 70
     0
  3

 62
     0
 51
90.0
 52
90.0
 71
     2
 49
0.5
 62
   256
  6
BYLAYER
 49
-0.5
 62
   256
  6
BYLAYER
  0
ACDBPLACEHOLDER
  5
5
102
{ACAD_REACTORS
330
6
102
}
330
6
  0
DICTIONARYVAR
  5
34
102
{ACAD_REACTORS
330
32
102
}
330
32
100
DictionaryVariables
280
     0
  1
1
  0
DICTIONARYVAR
  5
33
102
{ACAD_REACTORS
330
32
102
}
330
32
100
DictionaryVariables
280
     0
  1
1
  0
DICTIONARYVAR
  5
CA0
102
{ACAD_REACTORS
330
32
102
}
330
32
100
DictionaryVariables
280
     0
  1
1
  0
ENDSEC
  0
EOF
