  0
SECTION
  2
HEADER
  9
$ACADVER
  1
AC1015
  9
$ACADMAINTVER
 70
    13
  9
$DWGCODEPAGE
  3
ANSI_1252
  9
$INSBASE
 10
0.0
 20
0.0
 30
0.0
  9
$EXTMIN
 10
-0.9365220831799891
 20
-1.366025725571609
 30
0.0
  9
$EXTMAX
 10
15.55347791682
 20
9.073974274428389
 30
0.03
  9
$LIMMIN
 10
0.0
 20
0.0
  9
$LIMMAX
 10
12.0
 20
9.0
  9
$ORTHOMODE
 70
     1
  9
$REGENMODE
 70
     1
  9
$FILLMODE
 70
     1
  9
$QTEXTMODE
 70
     0
  9
$MIRRTEXT
 70
     0
  9
$LTSCALE
 40
1.0
  9
$ATTMODE
 70
     1
  9
$TEXTSIZE
 40
0.1
  9
$TRACEWID
 40
0.05
  9
$TEXTSTYLE
  7
ROMANS
  9
$CLAYER
  8
IMAGE
  9
$CELTYPE
  6
ByLayer
  9
$CECOLOR
 62
   256
  9
$CELTSCALE
 40
1.0
  9
$DISPSILH
 70
     0
  9
$DIMSCALE
 40
1.0
  9
$DIMASZ
 40
0.18
  9
$DIMEXO
 40
0.0625
  9
$DIMDLI
 40
0.38
  9
$DIMRND
 40
0.0
  9
$DIMDLE
 40
0.0
  9
$DIMEXE
 40
0.18
  9
$DIMTP
 40
0.0
  9
$DIMTM
 40
0.0
  9
$DIMTXT
 40
0.18
  9
$DIMCEN
 40
0.09
  9
$DIMTSZ
 40
0.0
  9
$DIMTOL
 70
     0
  9
$DIMLIM
 70
     0
  9
$DIMTIH
 70
     1
  9
$DIMTOH
 70
     1
  9
$DIMSE1
 70
     0
  9
$DIMSE2
 70
     0
  9
$DIMTAD
 70
     0
  9
$DIMZIN
 70
     0
  9
$DIMBLK
  1

  9
$DIMASO
 70
     1
  9
$DIMSHO
 70
     1
  9
$DIMPOST
  1

  9
$DIMAPOST
  1

  9
$DIMALT
 70
     0
  9
$DIMALTD
 70
     2
  9
$DIMALTF
 40
25.4
  9
$DIMLFAC
 40
1.0
  9
$DIMTOFL
 70
     0
  9
$DIMTVP
 40
0.0
  9
$DIMTIX
 70
     0
  9
$DIMSOXD
 70
     0
  9
$DIMSAH
 70
     0
  9
$DIMBLK1
  1

  9
$DIMBLK2
  1

  9
$DIMSTYLE
  2
STANDARD
  9
$DIMCLRD
 70
     0
  9
$DIMCLRE
 70
     0
  9
$DIMCLRT
 70
     0
  9
$DIMTFAC
 40
1.0
  9
$DIMGAP
 40
0.09
  9
$DIMJUST
 70
     0
  9
$DIMSD1
 70
     0
  9
$DIMSD2
 70
     0
  9
$DIMTOLJ
 70
     1
  9
$DIMTZIN
 70
     0
  9
$DIMALTZ
 70
     0
  9
$DIMALTTZ
 70
     0
  9
$DIMUPT
 70
     0
  9
$DIMDEC
 70
     4
  9
$DIMTDEC
 70
     4
  9
$DIMALTU
 70
     2
  9
$DIMALTTD
 70
     2
  9
$DIMTXSTY
  7
STANDARD
  9
$DIMAUNIT
 70
     0
  9
$DIMADEC
 70
     0
  9
$DIMALTRND
 40
0.0
  9
$DIMAZIN
 70
     0
  9
$DIMDSEP
 70
    46
  9
$DIMATFIT
 70
     3
  9
$DIMFRAC
 70
     0
  9
$DIMLDRBLK
  1

  9
$DIMLUNIT
 70
     2
  9
$DIMLWD
 70
    -2
  9
$DIMLWE
 70
    -2
  9
$DIMTMOVE
 70
     2
  9
$LUNITS
 70
     2
  9
$LUPREC
 70
     4
  9
$SKETCHINC
 40
0.1
  9
$FILLETRAD
 40
0.0
  9
$AUNITS
 70
     0
  9
$AUPREC
 70
     0
  9
$MENU
  1
ACAD
  9
$ELEVATION
 40
0.0
  9
$PELEVATION
 40
0.0
  9
$THICKNESS
 40
0.0
  9
$LIMCHECK
 70
     0
  9
$CHAMFERA
 40
0.0
  9
$CHAMFERB
 40
0.0
  9
$CHAMFERC
 40
0.0
  9
$CHAMFERD
 40
0.0
  9
$SKPOLY
 70
     0
  9
$TDCREATE
 40
2451486.521605300
  9
$TDUCREATE
 40
2451486.771605301
  9
$TDUPDATE
 40
2453124.416980845
  9
$TDUUPDATE
 40
2453124.666980845
  9
$TDINDWG
 40
0.2868219329
  9
$TDUSRTIMER
 40
0.2868219329
  9
$USRTIMER
 70
     1
  9
$ANGBASE
 50
0.0
  9
$ANGDIR
 70
     0
  9
$PDMODE
 70
     0
  9
$PDSIZE
 40
0.0
  9
$PLINEWID
 40
0.0
  9
$SPLFRAME
 70
     0
  9
$SPLINETYPE
 70
     6
  9
$SPLINESEGS
 70
     8
  9
$HANDSEED
  5
13B4
  9
$SURFTAB1
 70
     6
  9
$SURFTAB2
 70
     6
  9
$SURFTYPE
 70
     6
  9
$SURFU
 70
     6
  9
$SURFV
 70
     6
  9
$UCSBASE
  2

  9
$UCSNAME
  2

  9
$UCSORG
 10
0.0
 20
0.0
 30
0.0
  9
$UCSXDIR
 10
1.0
 20
0.0
 30
0.0
  9
$UCSYDIR
 10
0.0
 20
1.0
 30
0.0
  9
$UCSORTHOREF
  2

  9
$UCSORTHOVIEW
 70
     0
  9
$UCSORGTOP
 10
0.0
 20
0.0
 30
0.0
  9
$UCSORGBOTTOM
 10
0.0
 20
0.0
 30
0.0
  9
$UCSORGLEFT
 10
0.0
 20
0.0
 30
0.0
  9
$UCSORGRIGHT
 10
0.0
 20
0.0
 30
0.0
  9
$UCSORGFRONT
 10
0.0
 20
0.0
 30
0.0
  9
$UCSORGBACK
 10
0.0
 20
0.0
 30
0.0
  9
$PUCSBASE
  2

  9
$PUCSNAME
  2

  9
$PUCSORG
 10
0.0
 20
0.0
 30
0.0
  9
$PUCSXDIR
 10
1.0
 20
0.0
 30
0.0
  9
$PUCSYDIR
 10
0.0
 20
1.0
 30
0.0
  9
$PUCSORTHOREF
  2

  9
$PUCSORTHOVIEW
 70
     0
  9
$PUCSORGTOP
 10
0.0
 20
0.0
 30
0.0
  9
$PUCSORGBOTTOM
 10
0.0
 20
0.0
 30
0.0
  9
$PUCSORGLEFT
 10
0.0
 20
0.0
 30
0.0
  9
$PUCSORGRIGHT
 10
0.0
 20
0.0
 30
0.0
  9
$PUCSORGFRONT
 10
0.0
 20
0.0
 30
0.0
  9
$PUCSORGBACK
 10
0.0
 20
0.0
 30
0.0
  9
$USERI1
 70
     0
  9
$USERI2
 70
     0
  9
$USERI3
 70
     0
  9
$USERI4
 70
     0
  9
$USERI5
 70
     0
  9
$USERR1
 40
0.0
  9
$USERR2
 40
0.0
  9
$USERR3
 40
0.0
  9
$USERR4
 40
0.0
  9
$USERR5
 40
0.0
  9
$WORLDVIEW
 70
     1
  9
$SHADEDGE
 70
     3
  9
$SHADEDIF
 70
    70
  9
$TILEMODE
 70
     1
  9
$MAXACTVP
 70
    16
  9
$PINSBASE
 10
0.0
 20
0.0
 30
0.0
  9
$PLIMCHECK
 70
     0
  9
$PEXTMIN
 10
1.000000000000000E+20
 20
1.000000000000000E+20
 30
1.000000000000000E+20
  9
$PEXTMAX
 10
-1.000000000000000E+20
 20
-1.000000000000000E+20
 30
-1.000000000000000E+20
  9
$PLIMMIN
 10
0.0
 20
0.0
  9
$PLIMMAX
 10
12.0
 20
9.0
  9
$UNITMODE
 70
     0
  9
$VISRETAIN
 70
     0
  9
$PLINEGEN
 70
     1
  9
$PSLTSCALE
 70
     1
  9
$TREEDEPTH
 70
  3020
  9
$CMLSTYLE
  2
Standard
  9
$CMLJUST
 70
     0
  9
$CMLSCALE
 40
1.0
  9
$PROXYGRAPHICS
 70
     1
  9
$MEASUREMENT
 70
     0
  9
$CELWEIGHT
370
    -1
  9
$ENDCAPS
280
     0
  9
$JOINSTYLE
280
     0
  9
$LWDISPLAY
290
     0
  9
$INSUNITS
 70
     0
  9
$HYPERLINKBASE
  1

  9
$STYLESHEET
  1
8500ColorShaded.ctb
  9
$XEDIT
290
     1
  9
$CEPSNTYPE
380
     0
  9
$PSTYLEMODE
290
     1
  9
$FINGERPRINTGUID
  2
{39FB14F1-A9D6-4225-B10D-3E3A81726E18}
  9
$VERSIONGUID
  2
{D6FD694D-867E-47FA-B958-9BD001A2E7E4}
  9
$EXTNAMES
290
     1
  9
$PSVPSCALE
 40
0.0
  9
$OLESTARTUP
290
     1
  0
ENDSEC
  0
SECTION
  2
CLASSES
  0
CLASS
  1
ACDBDICTIONARYWDFLT
  2
AcDbDictionaryWithDefault
  3
AutoCAD 2000
 90
        0
280
     0
281
     0
  0
CLASS
  1
ACDBPLACEHOLDER
  2
AcDbPlaceHolder
  3
AutoCAD 2000
 90
        0
280
     0
281
     0
  0
CLASS
  1
LAYOUT
  2
AcDbLayout
  3
AutoCAD 2000
 90
        0
280
     0
281
     0
  0
CLASS
  1
DICTIONARYVAR
  2
AcDbDictionaryVar
  3
AutoCAD 2000
 90
        0
280
     0
281
     0
  0
ENDSEC
  0
SECTION
  2
TABLES
  0
TABLE
  2
VPORT
  5
C7F
330
0
100
AcDbSymbolTable
 70
     2
  0
VPORT
  5
13B3
330
C7F
100
AcDbSymbolTableRecord
100
AcDbViewportTableRecord
  2
*Active
 70
     0
 10
0.0
 20
0.0
 11
1.0
 21
1.0
 12
7.308477955213785
 22
3.853974298735909
 13
0.0
 23
0.0
 14
0.14
 24
0.14
 15
0.14
 25
0.14
 16
0.0
 26
0.0
 36
1.0
 17
0.0
 27
0.0
 37
0.0
 40
11.0072450655855
 41
1.505548705302096
 42
50.0
 43
0.0
 44
0.0
 50
0.0
 51
0.0
 71
     0
 72
  5000
 73
     1
 74
     1
 75
     0
 76
     0
 77
     0
 78
     0
281
     0
 65
     1
110
0.0
120
0.0
130
0.0
111
1.0
121
0.0
131
0.0
112
0.0
122
1.0
132
0.0
 79
     0
146
0.0
  0
ENDTAB
  0
TABLE
  2
LTYPE
  5
C7C
330
0
100
AcDbSymbolTable
 70
     1
  0
LTYPE
  5
C8A
330
C7C
100
AcDbSymbolTableRecord
100
AcDbLinetypeTableRecord
  2
ByBlock
 70
     0
  3

 72
    65
 73
     0
 40
0.0
  0
LTYPE
  5
C8B
330
C7C
100
AcDbSymbolTableRecord
100
AcDbLinetypeTableRecord
  2
ByLayer
 70
     0
  3

 72
    65
 73
     0
 40
0.0
  0
LTYPE
  5
C8C
330
C7C
100
AcDbSymbolTableRecord
100
AcDbLinetypeTableRecord
  2
CONTINUOUS
 70
     0
  3
Solid line
 72
    65
 73
     0
 40
0.0
  0
ENDTAB
  0
TABLE
  2
LAYER
  5
C79
102
{ACAD_XDICTIONARY
360
CC7
102
}
330
0
100
AcDbSymbolTable
 70
    19
  0
LAYER
  5
C87
330
C79
100
AcDbSymbolTableRecord
100
AcDbLayerTableRecord
  2
0
 70
     0
 62
     7
  6
CONTINUOUS
370
    -3
390
C86
  0
LAYER
  5
CA4
330
C79
100
AcDbSymbolTableRecord
100
AcDbLayerTableRecord
  2
TEXT_BUBBLES
 70
     0
 62
     6
  6
CONTINUOUS
370
    -3
390
C86
  0
LAYER
  5
CA5
330
C79
100
AcDbSymbolTableRecord
100
AcDbLayerTableRecord
  2
IMAGE
 70
     0
 62
     7
  6
CONTINUOUS
370
    -3
390
C86
  0
LAYER
  5
CA8
330
C79
100
AcDbSymbolTableRecord
100
AcDbLayerTableRecord
  2
TEXT_LEADERS
 70
     0
 62
    -5
  6
CONTINUOUS
370
    -3
390
C86
  0
LAYER
  5
CA9
330
C79
100
AcDbSymbolTableRecord
100
AcDbLayerTableRecord
  2
INSTRUCT-OPTION
 70
     0
 62
     7
  6
CONTINUOUS
370
    -3
390
C86
  0
LAYER
  5
CAA
330
C79
100
AcDbSymbolTableRecord
100
AcDbLayerTableRecord
  2
INSTRUCT-CALLOUT
 70
     0
 62
     4
  6
CONTINUOUS
370
    -3
390
C86
  0
LAYER
  5
CAC
330
C79
100
AcDbSymbolTableRecord
100
AcDbLayerTableRecord
  2
OPTION--N
 70
     0
 62
    -1
  6
CONTINUOUS
370
    -3
390
C86
  0
LAYER
  5
CAD
330
C79
100
AcDbSymbolTableRecord
100
AcDbLayerTableRecord
  2
OPTION-SAM
 70
     0
 62
    -1
  6
CONTINUOUS
370
    -3
390
C86
  0
LAYER
  5
CAE
330
C79
100
AcDbSymbolTableRecord
100
AcDbLayerTableRecord
  2
OPTION-SAM-N
 70
     0
 62
    -1
  6
CONTINUOUS
370
    -3
390
C86
  0
LAYER
  5
CAF
330
C79
100
AcDbSymbolTableRecord
100
AcDbLayerTableRecord
  2
OPTION-SJ
 70
     0
 62
    -1
  6
CONTINUOUS
370
    -3
390
C86
  0
LAYER
  5
CB0
330
C79
100
AcDbSymbolTableRecord
100
AcDbLayerTableRecord
  2
TEXT-SJ-BUBBLES
 70
     0
 62
    -1
  6
CONTINUOUS
370
    -3
390
C86
  0
LAYER
  5
CB1
330
C79
100
AcDbSymbolTableRecord
100
AcDbLayerTableRecord
  2
TEXT-SJ-LEADERS
 70
     0
 62
    -1
  6
CONTINUOUS
370
    -3
390
C86
  0
LAYER
  5
CFE
330
C79
100
AcDbSymbolTableRecord
100
AcDbLayerTableRecord
  2
TITLE
 70
     0
 62
     4
  6
CONTINUOUS
370
    -3
390
C86
  0
LAYER
  5
DFA
330
C79
100
AcDbSymbolTableRecord
100
AcDbLayerTableRecord
  2
OPTION-RB-SJ
 70
     0
 62
    -1
  6
CONTINUOUS
370
    -3
390
C86
  0
LAYER
  5
DFB
330
C79
100
AcDbSymbolTableRecord
100
AcDbLayerTableRecord
  2
TEXT-RB-SJ-BUBBLES
 70
     0
 62
    -1
  6
CONTINUOUS
370
    -3
390
C86
  0
LAYER
  5
DFC
330
C79
100
AcDbSymbolTableRecord
100
AcDbLayerTableRecord
  2
TEXT-RB-SJ-LEADERS
 70
     0
 62
    -1
  6
CONTINUOUS
370
    -3
390
C86
  0
LAYER
  5
10D8
330
C79
100
AcDbSymbolTableRecord
100
AcDbLayerTableRecord
  2
OPTION-RB-SJ-PRS
 70
     0
 62
     1
  6
CONTINUOUS
370
    -3
390
C86
  0
LAYER
  5
10D9
330
C79
100
AcDbSymbolTableRecord
100
AcDbLayerTableRecord
  2
TEXT-RB-SJ-PRS-BUBBLES
 70
     0
 62
     1
  6
CONTINUOUS
370
    -3
390
C86
  0
LAYER
  5
10DA
330
C79
100
AcDbSymbolTableRecord
100
AcDbLayerTableRecord
  2
TEXT-RB-SJ-PRS-LEADERS
 70
     0
 62
    -1
  6
CONTINUOUS
370
    -3
390
C86
  0
ENDTAB
  0
TABLE
  2
STYLE
  5
C7A
330
0
100
AcDbSymbolTable
 70
     5
  0
STYLE
  5
C88
330
C7A
100
AcDbSymbolTableRecord
100
AcDbTextStyleTableRecord
  2
STANDARD
 70
     0
 40
0.0
 41
1.0
 50
0.0
 71
     0
 42
0.2
  3
txt
  4

  0
STYLE
  5
C9E
330
C7A
100
AcDbSymbolTableRecord
100
AcDbTextStyleTableRecord
  2
ROMANS
 70
     0
 40
0.0
 41
1.0
 50
0.0
 71
     0
 42
0.1
  3
ROMANS.SHX
  4

  0
STYLE
  5
CFF
330
C7A
100
AcDbSymbolTableRecord
100
AcDbTextStyleTableRecord
  2
L100
 70
     0
 40
0.1
 41
1.0
 50
0.0
 71
     0
 42
0.1
  3
romans.shx
  4

  0
STYLE
  5
D00
330
C7A
100
AcDbSymbolTableRecord
100
AcDbTextStyleTableRecord
  2
L200
 70
     0
 40
0.2
 41
1.0
 50
0.0
 71
     0
 42
0.081
  3
ARIAL.TTF
  4

1001
ACAD
1000
Arial
1071
       34
  0
STYLE
  5
D01
330
C7A
100
AcDbSymbolTableRecord
100
AcDbTextStyleTableRecord
  2
L80
 70
     0
 40
0.08
 41
1.0
 50
0.0
 71
     0
 42
0.08
  3
ROMANS
  4

  0
ENDTAB
  0
TABLE
  2
VIEW
  5
C7D
330
0
100
AcDbSymbolTable
 70
     0
  0
ENDTAB
  0
TABLE
  2
UCS
  5
C7E
330
0
100
AcDbSymbolTable
 70
     0
  0
ENDTAB
  0
TABLE
  2
APPID
  5
C80
330
0
100
AcDbSymbolTable
 70
     4
  0
APPID
  5
C89
330
C80
100
AcDbSymbolTableRecord
100
AcDbRegAppTableRecord
  2
ACAD
 70
     0
  0
APPID
  5
CA1
330
C80
100
AcDbSymbolTableRecord
100
AcDbRegAppTableRecord
  2
RAK
 70
     0
  0
APPID
  5
CA2
330
C80
100
AcDbSymbolTableRecord
100
AcDbRegAppTableRecord
  2
ABNSLEADERTOOLS
 70
     0
  0
APPID
  5
D02
330
C80
100
AcDbSymbolTableRecord
100
AcDbRegAppTableRecord
  2
DCO15
 70
     0
  0
ENDTAB
  0
TABLE
  2
DIMSTYLE
  5
C81
330
0
100
AcDbSymbolTable
 70
     1
100
AcDbDimStyleTable
 71
     0
  0
DIMSTYLE
105
CA3
330
C81
100
AcDbSymbolTableRecord
100
AcDbDimStyleTableRecord
  2
STANDARD
 70
     0
279
     2
340
C88
  0
ENDTAB
  0
TABLE
  2
BLOCK_RECORD
  5
C78
330
0
100
AcDbSymbolTable
 70
     5
  0
BLOCK_RECORD
  5
C95
330
C78
100
AcDbSymbolTableRecord
100
AcDbBlockTableRecord
  2
*Model_Space
340
C98
  0
BLOCK_RECORD
  5
C91
330
C78
100
AcDbSymbolTableRecord
100
AcDbBlockTableRecord
  2
*Paper_Space
340
C94
  0
BLOCK_RECORD
  5
C9B
330
C78
100
AcDbSymbolTableRecord
100
AcDbBlockTableRecord
  2
*X0
340
0
102
{BLKREFS
331
B02
102
}
  0
BLOCK_RECORD
  5
C9C
330
C78
100
AcDbSymbolTableRecord
100
AcDbBlockTableRecord
  2
*X1
340
0
102
{BLKREFS
331
AF5
102
}
  0
BLOCK_RECORD
  5
D03
330
C78
100
AcDbSymbolTableRecord
100
AcDbBlockTableRecord
  2
titleblock
340
0
102
{BLKREFS
331
D12
102
}
  0
BLOCK_RECORD
  5
DF6
330
C78
100
AcDbSymbolTableRecord
100
AcDbBlockTableRecord
  2
*T3
340
0
102
{BLKREFS
331
1032
102
}
  0
BLOCK_RECORD
  5
10D4
330
C78
100
AcDbSymbolTableRecord
100
AcDbBlockTableRecord
  2
*T4
340
0
102
{BLKREFS
331
138D
102
}
  0
ENDTAB
  0
ENDSEC
  0
SECTION
  2
BLOCKS
  0
BLOCK
  5
CB7
330
C95
100
AcDbEntity
  8
0
100
AcDbBlockBegin
  2
*Model_Space
 70
     0
 10
0.0
 20
0.0
 30
0.0
  3
*Model_Space
  1

  0
ENDBLK
  5
CB8
330
C95
100
AcDbEntity
  8
0
100
AcDbBlockEnd
  0
BLOCK
  5
CB5
330
C91
100
AcDbEntity
 67
     1
  8
0
100
AcDbBlockBegin
  2
*Paper_Space
 70
     0
 10
0.0
 20
0.0
 30
0.0
  3
*Paper_Space
  1

  0
ENDBLK
  5
CB6
330
C91
100
AcDbEntity
 67
     1
  8
0
100
AcDbBlockEnd
  0
BLOCK
  5
BDA
330
C9B
100
AcDbEntity
  8
0
100
AcDbBlockBegin
  2
*X0
 70
     1
 10
0.0
 20
0.0
 30
0.0
  3
*X0
  1

  0
LINE
  5
BA8
330
C9B
100
AcDbEntity
  8
0
 62
     0
100
AcDbLine
 10
0.9440510687882762
 20
6.482766858641283
 30
0.0
 11
0.8964412126356979
 21
6.530376714793861
 31
0.0
  0
LINE
  5
BA9
330
C9B
100
AcDbEntity
  8
0
 62
     0
100
AcDbLine
 10
0.7372223545941229
 20
6.482766858641284
 30
0.0
 11
0.6896124984415454
 21
6.530376714793861
 31
0.0
  0
LINE
  5
BAA
330
C9B
100
AcDbEntity
  8
0
 62
     0
100
AcDbLine
 10
0.9440510687882765
 20
6.275938144447129
 30
0.0
 11
0.8406367116911997
 21
6.379352501544206
 31
0.0
  0
LINE
  5
BAB
330
C9B
100
AcDbEntity
  8
0
 62
     0
100
AcDbLine
 10
0.5303936403999702
 20
6.482766858641284
 30
0.0
 11
0.4827837842473928
 21
6.530376714793862
 31
0.0
  0
LINE
  5
BAC
330
C9B
100
AcDbEntity
  8
0
 62
     0
100
AcDbLine
 10
0.7372223545941238
 20
6.27593814444713
 30
0.0
 11
0.633807997497047
 21
6.379352501544207
 31
0.0
  0
LINE
  5
BAD
330
C9B
100
AcDbEntity
  8
0
 62
     0
100
AcDbLine
 10
0.8492163077021483
 20
6.163944191339105
 30
0.0
 11
0.8406367116912004
 21
6.172523787350053
 31
0.0
  0
LINE
  5
BAE
330
C9B
100
AcDbEntity
  8
0
 62
     0
100
AcDbLine
 10
0.323564926205815
 20
6.482766858641284
 30
0.0
 11
0.2759550700532381
 21
6.53037671479386
 31
0.0
  0
LINE
  5
BAF
330
C9B
100
AcDbEntity
  8
0
 62
     0
100
AcDbLine
 10
0.5303936403999687
 20
6.275938144447129
 30
0.0
 11
0.4269792833028918
 21
6.379352501544206
 31
0.0
  0
LINE
  5
BB0
330
C9B
100
AcDbEntity
  8
0
 62
     0
100
AcDbLine
 10
0.3235649262058154
 20
6.275938144447129
 30
0.0
 11
0.2916281912210421
 21
6.307874879431903
 31
0.0
  0
LINE
  5
BB1
330
C9B
100
AcDbEntity
  8
0
 62
     0
100
AcDbLine
 10
1.054141580661922
 20
6.501944293138982
 30
0.0
 11
1.025709159007043
 21
6.530376714793861
 31
0.0
  0
LINE
  5
BB2
330
C9B
100
AcDbEntity
  8
0
 62
     0
100
AcDbLine
 10
0.9052706848768723
 20
6.44398647472988
 30
0.0
 11
0.8188804448128905
 21
6.530376714793861
 31
0.0
  0
LINE
  5
BB3
330
C9B
100
AcDbEntity
  8
0
 62
     0
100
AcDbLine
 10
0.6984419706827192
 20
6.44398647472988
 30
0.0
 11
0.612051730618737
 21
6.530376714793863
 31
0.0
  0
LINE
  5
BB4
330
C9B
100
AcDbEntity
  8
0
 62
     0
100
AcDbLine
 10
0.9052706848768728
 20
6.237157760535726
 30
0.0
 11
0.8018563277797959
 21
6.340572117632803
 31
0.0
  0
LINE
  5
BB5
330
C9B
100
AcDbEntity
  8
0
 62
     0
100
AcDbLine
 10
0.4916132564885654
 20
6.44398647472988
 30
0.0
 11
0.4052230164245831
 21
6.530376714793862
 31
0.0
  0
LINE
  5
BB6
330
C9B
100
AcDbEntity
  8
0
 62
     0
100
AcDbLine
 10
0.698441970682719
 20
6.237157760535725
 30
0.0
 11
0.5950276135856422
 21
6.340572117632802
 31
0.0
  0
LINE
  5
BB7
330
C9B
100
AcDbEntity
  8
0
 62
     0
100
AcDbLine
 10
0.2847845422944117
 20
6.44398647472988
 30
0.0
 11
0.19839430223043
 21
6.530376714793861
 31
0.0
  0
LINE
  5
BB8
330
C9B
100
AcDbEntity
  8
0
 62
     0
100
AcDbLine
 10
0.4916132564885653
 20
6.237157760535725
 30
0.0
 11
0.3881988993914884
 21
6.340572117632802
 31
0.0
  0
LINE
  5
BB9
330
C9B
100
AcDbEntity
  8
0
 62
     0
100
AcDbLine
 10
1.019811404740352
 20
6.458713701237745
 30
0.0
 11
0.9699046580625457
 21
6.508620447915552
 31
0.0
  0
LINE
  5
BBA
330
C9B
100
AcDbEntity
  8
0
 62
     0
100
AcDbLine
 10
0.8664903009654691
 20
6.405206090818476
 30
0.0
 11
0.7630759438683925
 21
6.508620447915553
 31
0.0
  0
LINE
  5
BBB
330
C9B
100
AcDbEntity
  8
0
 62
     0
100
AcDbLine
 10
0.9910391217603732
 20
6.280657270023571
 30
0.0
 11
0.9699046580625459
 21
6.301791733721398
 31
0.0
  0
LINE
  5
BBC
330
C9B
100
AcDbEntity
  8
0
 62
     0
100
AcDbLine
 10
0.6596615867713154
 20
6.405206090818476
 30
0.0
 11
0.5562472296742386
 21
6.508620447915554
 31
0.0
  0
LINE
  5
BBD
330
C9B
100
AcDbEntity
  8
0
 62
     0
100
AcDbLine
 10
0.866490300965469
 20
6.198377376624322
 30
0.0
 11
0.7630759438683922
 21
6.301791733721399
 31
0.0
  0
LINE
  5
BBE
330
C9B
100
AcDbEntity
  8
0
 62
     0
100
AcDbLine
 10
0.4528328725771618
 20
6.405206090818476
 30
0.0
 11
0.3494185154800849
 21
6.508620447915553
 31
0.0
  0
LINE
  5
BBF
330
C9B
100
AcDbEntity
  8
0
 62
     0
100
AcDbLine
 10
0.6596615867713154
 20
6.198377376624321
 30
0.0
 11
0.5562472296742386
 21
6.301791733721398
 31
0.0
  0
LINE
  5
BC0
330
C9B
100
AcDbEntity
  8
0
 62
     0
100
AcDbLine
 10
0.4326817042174192
 20
6.218528544984064
 30
0.0
 11
0.3494185154800838
 21
6.301791733721399
 31
0.0
  0
LINE
  5
BC1
330
C9B
100
AcDbEntity
  8
0
 62
     0
100
AcDbLine
 10
0.8664903009654695
 20
6.172523787350053
 30
0.0
 11
0.9699046580625463
 21
6.27593814444713
 31
0.0
  0
LINE
  5
BC2
330
C9B
100
AcDbEntity
  8
0
 62
     0
100
AcDbLine
 10
0.8664903009654693
 20
6.379352501544207
 30
0.0
 11
0.9699046580625461
 21
6.482766858641284
 31
0.0
  0
LINE
  5
BC3
330
C9B
100
AcDbEntity
  8
0
 62
     0
100
AcDbLine
 10
0.6740221496953685
 20
6.186884350274106
 30
0.0
 11
0.7630759438683925
 21
6.27593814444713
 31
0.0
  0
LINE
  5
BC4
330
C9B
100
AcDbEntity
  8
0
 62
     0
100
AcDbLine
 10
0.6596615867713159
 20
6.379352501544207
 30
0.0
 11
0.7630759438683928
 21
6.482766858641284
 31
0.0
  0
LINE
  5
BC5
330
C9B
100
AcDbEntity
  8
0
 62
     0
100
AcDbLine
 10
0.4882498781438529
 20
6.207940792916744
 30
0.0
 11
0.5562472296742392
 21
6.27593814444713
 31
0.0
  0
LINE
  5
BC6
330
C9B
100
AcDbEntity
  8
0
 62
     0
100
AcDbLine
 10
0.4528328725771626
 20
6.379352501544207
 30
0.0
 11
0.5562472296742394
 21
6.482766858641284
 31
0.0
  0
LINE
  5
BC7
330
C9B
100
AcDbEntity
  8
0
 62
     0
100
AcDbLine
 10
0.3373308890407047
 20
6.26385051800775
 30
0.0
 11
0.3494185154800857
 21
6.27593814444713
 31
0.0
  0
LINE
  5
BC8
330
C9B
100
AcDbEntity
  8
0
 62
     0
100
AcDbLine
 10
0.2583637619014842
 20
6.391712105062683
 30
0.0
 11
0.3494185154800851
 21
6.482766858641284
 31
0.0
  0
LINE
  5
BC9
330
C9B
100
AcDbEntity
  8
0
 62
     0
100
AcDbLine
 10
0.9350722766361439
 20
6.16354499519792
 30
0.0
 11
0.9969157436181445
 21
6.22538846217992
 31
0.0
  0
LINE
  5
BCA
330
C9B
100
AcDbEntity
  8
0
 62
     0
100
AcDbLine
 10
0.9052706848768732
 20
6.340572117632804
 30
0.0
 11
1.005922358880427
 21
6.441223791636359
 31
0.0
  0
LINE
  5
BCB
330
C9B
100
AcDbEntity
  8
0
 62
     0
100
AcDbLine
 10
0.7383983955932707
 20
6.173699828349201
 30
0.0
 11
0.8018563277797964
 21
6.237157760535727
 31
0.0
  0
LINE
  5
BCC
330
C9B
100
AcDbEntity
  8
0
 62
     0
100
AcDbLine
 10
0.6984419706827191
 20
6.340572117632804
 30
0.0
 11
0.8018563277797959
 21
6.443986474729881
 31
0.0
  0
LINE
  5
BCD
330
C9B
100
AcDbEntity
  8
0
 62
     0
100
AcDbLine
 10
0.5592620787734175
 20
6.201392225723502
 30
0.0
 11
0.5950276135856423
 21
6.237157760535727
 31
0.0
  0
LINE
  5
BCE
330
C9B
100
AcDbEntity
  8
0
 62
     0
100
AcDbLine
 10
0.4916132564885656
 20
6.340572117632803
 30
0.0
 11
0.5950276135856424
 21
6.44398647472988
 31
0.0
  0
LINE
  5
BCF
330
C9B
100
AcDbEntity
  8
0
 62
     0
100
AcDbLine
 10
0.2847845422944118
 20
6.340572117632803
 30
0.0
 11
0.3881988993914887
 21
6.44398647472988
 31
0.0
  0
LINE
  5
BD0
330
C9B
100
AcDbEntity
  8
0
 62
     0
100
AcDbLine
 10
0.9440510687882767
 20
6.301791733721399
 30
0.0
 11
0.9910391217603731
 21
6.348779786693496
 31
0.0
  0
LINE
  5
BD1
330
C9B
100
AcDbEntity
  8
0
 62
     0
100
AcDbLine
 10
0.8064025931667945
 20
6.164143258099917
 30
0.0
 11
0.8406367116911999
 21
6.198377376624322
 31
0.0
  0
LINE
  5
BD2
330
C9B
100
AcDbEntity
  8
0
 62
     0
100
AcDbLine
 10
0.9440510687882765
 20
6.508620447915554
 30
0.0
 11
0.9658073356665855
 21
6.530376714793862
 31
0.0
  0
LINE
  5
BD3
330
C9B
100
AcDbEntity
  8
0
 62
     0
100
AcDbLine
 10
0.737222354594123
 20
6.301791733721399
 30
0.0
 11
0.8406367116911997
 21
6.405206090818476
 31
0.0
  0
LINE
  5
BD4
330
C9B
100
AcDbEntity
  8
0
 62
     0
100
AcDbLine
 10
0.6302742794029821
 20
6.194843658530258
 30
0.0
 11
0.6338079974970463
 21
6.198377376624322
 31
0.0
  0
LINE
  5
BD5
330
C9B
100
AcDbEntity
  8
0
 62
     0
100
AcDbLine
 10
0.7372223545941236
 20
6.508620447915554
 30
0.0
 11
0.7589786214724318
 21
6.530376714793861
 31
0.0
  0
LINE
  5
BD6
330
C9B
100
AcDbEntity
  8
0
 62
     0
100
AcDbLine
 10
0.53039364039997
 20
6.301791733721399
 30
0.0
 11
0.6338079974970468
 21
6.405206090818476
 31
0.0
  0
LINE
  5
BD7
330
C9B
100
AcDbEntity
  8
0
 62
     0
100
AcDbLine
 10
0.5303936403999697
 20
6.508620447915554
 30
0.0
 11
0.5521499072782769
 21
6.530376714793861
 31
0.0
  0
LINE
  5
BD8
330
C9B
100
AcDbEntity
  8
0
 62
     0
100
AcDbLine
 10
0.3235649262058159
 20
6.3017917337214
 30
0.0
 11
0.4269792833028928
 21
6.405206090818477
 31
0.0
  0
LINE
  5
BD9
330
C9B
100
AcDbEntity
  8
0
 62
     0
100
AcDbLine
 10
0.3235649262058154
 20
6.508620447915553
 30
0.0
 11
0.3453211930841235
 21
6.53037671479386
 31
0.0
  0
ENDBLK
  5
BDB
330
C9B
100
AcDbEntity
  8
0
100
AcDbBlockEnd
  0
BLOCK
  5
C0F
330
C9C
100
AcDbEntity
  8
0
100
AcDbBlockBegin
  2
*X1
 70
     1
 10
0.0
 20
0.0
 30
0.0
  3
*X1
  1

  0
LINE
  5
BDD
330
C9C
100
AcDbEntity
  8
0
 62
     0
100
AcDbLine
 10
2.255107968315877
 20
6.275938144447129
 30
0.0
 11
2.287044703300651
 21
6.307874879431903
 31
0.0
  0
LINE
  5
BDE
330
C9C
100
AcDbEntity
  8
0
 62
     0
100
AcDbLine
 10
2.255107968315878
 20
6.482766858641284
 30
0.0
 11
2.302717824468456
 21
6.530376714793861
 31
0.0
  0
LINE
  5
BDF
330
C9C
100
AcDbEntity
  8
0
 62
     0
100
AcDbLine
 10
2.048279254121725
 20
6.275938144447129
 30
0.0
 11
2.151693611218802
 21
6.379352501544206
 31
0.0
  0
LINE
  5
BE0
330
C9C
100
AcDbEntity
  8
0
 62
     0
100
AcDbLine
 10
2.048279254121724
 20
6.482766858641284
 30
0.0
 11
2.095889110274301
 21
6.530376714793862
 31
0.0
  0
LINE
  5
BE1
330
C9C
100
AcDbEntity
  8
0
 62
     0
100
AcDbLine
 10
1.84145053992757
 20
6.27593814444713
 30
0.0
 11
1.944864897024647
 21
6.379352501544207
 31
0.0
  0
LINE
  5
BE2
330
C9C
100
AcDbEntity
  8
0
 62
     0
100
AcDbLine
 10
1.729456586819545
 20
6.163944191339105
 30
0.0
 11
1.738036182830493
 21
6.172523787350053
 31
0.0
  0
LINE
  5
BE3
330
C9C
100
AcDbEntity
  8
0
 62
     0
100
AcDbLine
 10
1.841450539927571
 20
6.482766858641284
 30
0.0
 11
1.88906039608015
 21
6.530376714793862
 31
0.0
  0
LINE
  5
BE4
330
C9C
100
AcDbEntity
  8
0
 62
     0
100
AcDbLine
 10
1.634621825733417
 20
6.275938144447129
 30
0.0
 11
1.738036182830494
 21
6.379352501544206
 31
0.0
  0
LINE
  5
BE5
330
C9C
100
AcDbEntity
  8
0
 62
     0
100
AcDbLine
 10
1.634621825733417
 20
6.482766858641283
 30
0.0
 11
1.682231681885996
 21
6.530376714793861
 31
0.0
  0
LINE
  5
BE6
330
C9C
100
AcDbEntity
  8
0
 62
     0
100
AcDbLine
 10
2.293888352227282
 20
6.44398647472988
 30
0.0
 11
2.380278592291263
 21
6.530376714793861
 31
0.0
  0
LINE
  5
BE7
330
C9C
100
AcDbEntity
  8
0
 62
     0
100
AcDbLine
 10
2.087059638033128
 20
6.237157760535726
 30
0.0
 11
2.190473995130205
 21
6.340572117632803
 31
0.0
  0
LINE
  5
BE8
330
C9C
100
AcDbEntity
  8
0
 62
     0
100
AcDbLine
 10
2.087059638033129
 20
6.44398647472988
 30
0.0
 11
2.173449878097109
 21
6.53037671479386
 31
0.0
  0
LINE
  5
BE9
330
C9C
100
AcDbEntity
  8
0
 62
     0
100
AcDbLine
 10
1.880230923838975
 20
6.237157760535726
 30
0.0
 11
1.983645280936052
 21
6.340572117632803
 31
0.0
  0
LINE
  5
BEA
330
C9C
100
AcDbEntity
  8
0
 62
     0
100
AcDbLine
 10
1.880230923838975
 20
6.44398647472988
 30
0.0
 11
1.966621163902956
 21
6.530376714793862
 31
0.0
  0
LINE
  5
BEB
330
C9C
100
AcDbEntity
  8
0
 62
     0
100
AcDbLine
 10
1.673402209644821
 20
6.237157760535726
 30
0.0
 11
1.776816566741898
 21
6.340572117632803
 31
0.0
  0
LINE
  5
BEC
330
C9C
100
AcDbEntity
  8
0
 62
     0
100
AcDbLine
 10
1.673402209644821
 20
6.44398647472988
 30
0.0
 11
1.759792449708802
 21
6.53037671479386
 31
0.0
  0
LINE
  5
BED
330
C9C
100
AcDbEntity
  8
0
 62
     0
100
AcDbLine
 10
1.524531313859771
 20
6.501944293138982
 30
0.0
 11
1.552963735514649
 21
6.53037671479386
 31
0.0
  0
LINE
  5
BEE
330
C9C
100
AcDbEntity
  8
0
 62
     0
100
AcDbLine
 10
2.145991190304274
 20
6.218528544984064
 30
0.0
 11
2.22925437904161
 21
6.301791733721399
 31
0.0
  0
LINE
  5
BEF
330
C9C
100
AcDbEntity
  8
0
 62
     0
100
AcDbLine
 10
2.125840021944533
 20
6.405206090818476
 30
0.0
 11
2.22925437904161
 21
6.508620447915554
 31
0.0
  0
LINE
  5
BF0
330
C9C
100
AcDbEntity
  8
0
 62
     0
100
AcDbLine
 10
1.919011307750379
 20
6.198377376624322
 30
0.0
 11
2.022425664847456
 21
6.301791733721399
 31
0.0
  0
LINE
  5
BF1
330
C9C
100
AcDbEntity
  8
0
 62
     0
100
AcDbLine
 10
1.919011307750378
 20
6.405206090818476
 30
0.0
 11
2.022425664847455
 21
6.508620447915553
 31
0.0
  0
LINE
  5
BF2
330
C9C
100
AcDbEntity
  8
0
 62
     0
100
AcDbLine
 10
1.712182593556224
 20
6.198377376624321
 30
0.0
 11
1.815596950653301
 21
6.301791733721398
 31
0.0
  0
LINE
  5
BF3
330
C9C
100
AcDbEntity
  8
0
 62
     0
100
AcDbLine
 10
1.712182593556226
 20
6.405206090818476
 30
0.0
 11
1.815596950653303
 21
6.508620447915554
 31
0.0
  0
LINE
  5
BF4
330
C9C
100
AcDbEntity
  8
0
 62
     0
100
AcDbLine
 10
1.58763377276132
 20
6.280657270023571
 30
0.0
 11
1.608768236459149
 21
6.301791733721399
 31
0.0
  0
LINE
  5
BF5
330
C9C
100
AcDbEntity
  8
0
 62
     0
100
AcDbLine
 10
1.558861489781341
 20
6.458713701237745
 30
0.0
 11
1.608768236459148
 21
6.508620447915552
 31
0.0
  0
LINE
  5
BF6
330
C9C
100
AcDbEntity
  8
0
 62
     0
100
AcDbLine
 10
2.32030913262021
 20
6.391712105062683
 30
0.0
 11
2.229254379041609
 21
6.482766858641284
 31
0.0
  0
LINE
  5
BF7
330
C9C
100
AcDbEntity
  8
0
 62
     0
100
AcDbLine
 10
2.125840021944533
 20
6.379352501544208
 30
0.0
 11
2.022425664847456
 21
6.482766858641285
 31
0.0
  0
LINE
  5
BF8
330
C9C
100
AcDbEntity
  8
0
 62
     0
100
AcDbLine
 10
2.241342005480991
 20
6.26385051800775
 30
0.0
 11
2.229254379041609
 21
6.275938144447131
 31
0.0
  0
LINE
  5
BF9
330
C9C
100
AcDbEntity
  8
0
 62
     0
100
AcDbLine
 10
1.919011307750379
 20
6.379352501544207
 30
0.0
 11
1.815596950653302
 21
6.482766858641284
 31
0.0
  0
LINE
  5
BFA
330
C9C
100
AcDbEntity
  8
0
 62
     0
100
AcDbLine
 10
2.090423016377841
 20
6.207940792916745
 30
0.0
 11
2.022425664847456
 21
6.27593814444713
 31
0.0
  0
LINE
  5
BFB
330
C9C
100
AcDbEntity
  8
0
 62
     0
100
AcDbLine
 10
1.712182593556225
 20
6.379352501544207
 30
0.0
 11
1.608768236459148
 21
6.482766858641284
 31
0.0
  0
LINE
  5
BFC
330
C9C
100
AcDbEntity
  8
0
 62
     0
100
AcDbLine
 10
1.904650744826326
 20
6.186884350274106
 30
0.0
 11
1.815596950653302
 21
6.27593814444713
 31
0.0
  0
LINE
  5
BFD
330
C9C
100
AcDbEntity
  8
0
 62
     0
100
AcDbLine
 10
1.712182593556225
 20
6.172523787350053
 30
0.0
 11
1.608768236459148
 21
6.27593814444713
 31
0.0
  0
LINE
  5
BFE
330
C9C
100
AcDbEntity
  8
0
 62
     0
100
AcDbLine
 10
2.293888352227282
 20
6.340572117632803
 30
0.0
 11
2.190473995130205
 21
6.44398647472988
 31
0.0
  0
LINE
  5
BFF
330
C9C
100
AcDbEntity
  8
0
 62
     0
100
AcDbLine
 10
2.087059638033128
 20
6.340572117632803
 30
0.0
 11
1.983645280936052
 21
6.44398647472988
 31
0.0
  0
LINE
  5
C00
330
C9C
100
AcDbEntity
  8
0
 62
     0
100
AcDbLine
 10
1.880230923838975
 20
6.340572117632803
 30
0.0
 11
1.776816566741898
 21
6.44398647472988
 31
0.0
  0
LINE
  5
C01
330
C9C
100
AcDbEntity
  8
0
 62
     0
100
AcDbLine
 10
2.019410815748277
 20
6.201392225723502
 30
0.0
 11
1.983645280936052
 21
6.237157760535726
 31
0.0
  0
LINE
  5
C02
330
C9C
100
AcDbEntity
  8
0
 62
     0
100
AcDbLine
 10
1.673402209644821
 20
6.340572117632803
 30
0.0
 11
1.572750535641261
 21
6.441223791636364
 31
0.0
  0
LINE
  5
C03
330
C9C
100
AcDbEntity
  8
0
 62
     0
100
AcDbLine
 10
1.840274498928423
 20
6.173699828349201
 30
0.0
 11
1.776816566741898
 21
6.237157760535726
 31
0.0
  0
LINE
  5
C04
330
C9C
100
AcDbEntity
  8
0
 62
     0
100
AcDbLine
 10
1.64360061788555
 20
6.163544995197921
 30
0.0
 11
1.581757150903548
 21
6.225388462179923
 31
0.0
  0
LINE
  5
C05
330
C9C
100
AcDbEntity
  8
0
 62
     0
100
AcDbLine
 10
2.255107968315878
 20
6.508620447915553
 30
0.0
 11
2.233351701437571
 21
6.53037671479386
 31
0.0
  0
LINE
  5
C06
330
C9C
100
AcDbEntity
  8
0
 62
     0
100
AcDbLine
 10
2.048279254121724
 20
6.508620447915554
 30
0.0
 11
2.026522987243418
 21
6.53037671479386
 31
0.0
  0
LINE
  5
C07
330
C9C
100
AcDbEntity
  8
0
 62
     0
100
AcDbLine
 10
2.255107968315877
 20
6.3017917337214
 30
0.0
 11
2.151693611218801
 21
6.405206090818477
 31
0.0
  0
LINE
  5
C08
330
C9C
100
AcDbEntity
  8
0
 62
     0
100
AcDbLine
 10
1.841450539927571
 20
6.508620447915554
 30
0.0
 11
1.819694273049263
 21
6.530376714793861
 31
0.0
  0
LINE
  5
C09
330
C9C
100
AcDbEntity
  8
0
 62
     0
100
AcDbLine
 10
2.048279254121724
 20
6.301791733721399
 30
0.0
 11
1.944864897024648
 21
6.405206090818476
 31
0.0
  0
LINE
  5
C0A
330
C9C
100
AcDbEntity
  8
0
 62
     0
100
AcDbLine
 10
1.634621825733417
 20
6.508620447915553
 30
0.0
 11
1.612865558855109
 21
6.530376714793861
 31
0.0
  0
LINE
  5
C0B
330
C9C
100
AcDbEntity
  8
0
 62
     0
100
AcDbLine
 10
1.841450539927571
 20
6.301791733721398
 30
0.0
 11
1.738036182830494
 21
6.405206090818476
 31
0.0
  0
LINE
  5
C0C
330
C9C
100
AcDbEntity
  8
0
 62
     0
100
AcDbLine
 10
1.948398615118712
 20
6.194843658530258
 30
0.0
 11
1.944864897024648
 21
6.198377376624321
 31
0.0
  0
LINE
  5
C0D
330
C9C
100
AcDbEntity
  8
0
 62
     0
100
AcDbLine
 10
1.634621825733416
 20
6.3017917337214
 30
0.0
 11
1.587633772761319
 21
6.348779786693497
 31
0.0
  0
LINE
  5
C0E
330
C9C
100
AcDbEntity
  8
0
 62
     0
100
AcDbLine
 10
1.772270301354899
 20
6.164143258099917
 30
0.0
 11
1.738036182830493
 21
6.198377376624323
 31
0.0
  0
ENDBLK
  5
C10
330
C9C
100
AcDbEntity
  8
0
100
AcDbBlockEnd
  0
BLOCK
  5
D0F
330
D03
100
AcDbEntity
  8
0
100
AcDbBlockBegin
  2
titleblock
 70
     2
 10
0.0
 20
0.0
 30
0.0
  3
titleblock
  1

  0
LWPOLYLINE
  5
D04
330
D03
100
AcDbEntity
  8
IMAGE
100
AcDbPolyline
 90
        4
 70
     1
 43
0.0
 10
0.0
 20
0.0
 10
16.48999999999999
 20
0.0000000000000001
 10
16.48999999999999
 20
10.44
 10
0.0
 20
10.44
  0
ATTDEF
  5
D05
330
D03
100
AcDbEntity
  8
TITLE
100
AcDbText
 10
0.5055556038023421
 20
0.7842270964783673
 30
0.0
 40
0.2
  1
D
  7
L200
 72
     4
 11
0.6064423705144839
 21
0.8842270964783672
 31
0.0
100
AcDbAttributeDefinition
  3
#
  2
D
 70
     0
  0
ATTDEF
  5
D06
330
D03
100
AcDbEntity
  8
TITLE
100
AcDbText
 10
1.231442370514484
 20
1.34371230274675
 30
0.0
 40
0.2
  1

  7
L200
100
AcDbAttributeDefinition
  3
DETAIL TITLE TOP LINE
  2
TITLE1
 70
     0
  0
ATTDEF
  5
D07
330
D03
100
AcDbEntity
  8
TITLE
100
AcDbText
 10
1.231442370514484
 20
0.9842270964783674
 30
0.0
 40
0.2
  1
TITLE
  7
L200
100
AcDbAttributeDefinition
  3
DETAIL TITLE TOP 2ND LINE
  2
TITLE2
 70
     0
  0
ATTDEF
  5
D08
330
D03
100
AcDbEntity
  8
TITLE
100
AcDbText
 10
2.713645751168312
 20
0.5927927664583189
 30
0.0
 40
0.2
  1
TITLE2
  7
L200
100
AcDbAttributeDefinition
  3
DETAIL TITLE BOTTOM 1
  2
TITLE3
 70
     0
  0
ATTDEF
  5
D09
330
D03
100
AcDbEntity
  8
TITLE
100
AcDbText
 10
2.713645751168312
 20
0.2692560808167741
 30
0.0
 40
0.2
  1

  7
L200
100
AcDbAttributeDefinition
  3
DETAIL TITLE BOTTOM 2
  2
TITLE4
 70
     0
  0
ATTDEF
  5
D0A
330
D03
100
AcDbEntity
  8
TITLE
 62
     7
100
AcDbText
 10
8.177214829966379
 20
0.9696027915446398
 30
0.0
 40
0.08
  1
-
  7
L80
 72
     2
 11
8.261024353775903
 21
0.9696027915446398
 31
0.0
100
AcDbAttributeDefinition
  3
REVISION DATE
  2
REVISED
 70
     0
  0
ATTDEF
  5
D0B
330
D03
100
AcDbEntity
  8
TITLE
 62
     7
100
AcDbText
 10
0.2639423705144838
 20
0.0847116480207214
 30
0.0
 40
0.08
  1
-
  7
L80
100
AcDbAttributeDefinition
  3
DWG-NAME
  2
DWG-NAME
 70
     0
  0
LWPOLYLINE
  5
D0C
330
D03
100
AcDbEntity
  8
TITLE
 62
     3
100
AcDbPolyline
 90
        2
 70
     1
 43
0.03
 10
0.6064423705144839
 20
0.5417270964783675
 42
0.9999999999999998
 10
0.6064423705144839
 20
1.226727096478367
 42
0.9999999999999998
  0
ATTDEF
  5
D0D
330
D03
100
AcDbEntity
  8
TITLE
 62
     7
100
AcDbText
 10
1.231442370514484
 20
0.7005637793954894
 30
0.0
 40
0.1
  1
N.T.S.
  7
L100
100
AcDbAttributeDefinition
  3
SCALE
  2
SCALE
 70
     0
  0
LWPOLYLINE
  5
D0E
330
D03
100
AcDbEntity
  8
TITLE
 62
     3
100
AcDbPolyline
 90
        2
 70
     0
 43
0.04
 39
0.03
 10
0.9489423705144833
 20
0.8842270964783672
 10
8.261024353775903
 20
0.8842270964783672
  0
ENDBLK
  5
D10
330
D03
100
AcDbEntity
  8
0
100
AcDbBlockEnd
  0
BLOCK
  5
DF8
330
DF6
100
AcDbEntity
  8
0
  6
ByBlock
100
AcDbBlockBegin
  2
*T3
 70
     1
 10
0.0
 20
0.0
 30
0.0
  3
*T3
  1

  0
TEXT
  5
DF7
330
DF6
100
AcDbEntity
  8
0
  6
ByBlock
100
AcDbText
 10
21.8765755703
 20
13.7308425587
 30
0.0
 40
0.078389
  1
R
 50
45.00000000000191
 41
1.437499999751965
 72
     5
 11
21.9296954057
 21
13.7839623941
 31
0.0
100
AcDbText
  0
ENDBLK
  5
DF9
330
DF6
100
AcDbEntity
  8
0
100
AcDbBlockEnd
  0
BLOCK
  5
10D6
330
10D4
100
AcDbEntity
  8
0
  6
ByBlock
100
AcDbBlockBegin
  2
*T4
 70
     1
 10
0.0
 20
0.0
 30
0.0
  3
*T4
  1

  0
TEXT
  5
10D5
330
10D4
100
AcDbEntity
  8
0
  6
ByBlock
100
AcDbText
 10
21.8765755703
 20
13.7308425587
 30
0.0
 40
0.078389
  1
R
 50
45.00000000000191
 41
1.437499999751965
 72
     5
 11
21.9296954057
 21
13.7839623941
 31
0.0
100
AcDbText
  0
ENDBLK
  5
10D7
330
10D4
100
AcDbEntity
  8
0
100
AcDbBlockEnd
  0
ENDSEC
  0
SECTION
  2
ENTITIES
  0
TEXT
  5
1DB
330
C95
100
AcDbEntity
  8
TEXT-SJ-LEADERS
100
AcDbText
 10
5.134884859999999
 20
3.251347997583527
 30
0.0
 40
0.125
  1
PVC SCH 40 ELL
  7
ROMANS
100
AcDbText
  0
TEXT
  5
1E0
330
C95
100
AcDbEntity
  8
TEXT-SJ-LEADERS
100
AcDbText
 10
5.134884859999999
 20
3.601347997583528
 30
0.0
 40
0.125
  1
  (LENGTH AS REQUIRED)
  7
ROMANS
100
AcDbText
  0
TEXT
  5
1E2
330
C95
100
AcDbEntity
  8
TEXT_LEADERS
100
AcDbText
 10
5.14145639
 20
5.831631893272905
 30
0.0
 40
0.125
  1
ROTOR POP-UP SPRINKLER:
  7
ROMANS
100
AcDbText
  0
TEXT
  5
1E3
330
C95
100
AcDbEntity
  8
TEXT_LEADERS
100
AcDbText
 10
5.14145639
 20
5.656631893272905
 30
0.0
 40
0.125
  1
  RAIN BIRD 5012
  7
ROMANS
100
AcDbText
  0
TEXT
  5
1E4
330
C95
100
AcDbEntity
  8
TEXT_LEADERS
100
AcDbText
 10
5.14145639
 20
6.181631893272904
 30
0.0
 40
0.125
  1
FINISH GRADE
  7
ROMANS
100
AcDbText
  0
TEXT
  5
217
330
C95
100
AcDbEntity
  8
TEXT-SJ-BUBBLES
100
AcDbText
 10
5.14145639
 20
4.593034592903827
 30
0.0
 40
0.125
  1
PVC SCH 40 ELL
  7
ROMANS
100
AcDbText
  0
TEXT
  5
218
330
C95
100
AcDbEntity
  8
TEXT-SJ-BUBBLES
100
AcDbText
 10
5.14145639
 20
4.243034592903828
 30
0.0
 40
0.125
  1
PVC SCH 40 STREET ELL
  7
ROMANS
100
AcDbText
  0
TEXT
  5
21A
330
C95
100
AcDbEntity
  8
TEXT-SJ-BUBBLES
100
AcDbText
 10
5.14145639
 20
3.543034592903827
 30
0.0
 40
0.125
  1
PVC SCH 40 TEE OR ELL
  7
ROMANS
100
AcDbText
  0
TEXT
  5
21B
330
C95
100
AcDbEntity
  8
TEXT-SJ-BUBBLES
100
AcDbText
 10
5.14145639
 20
3.893034592903827
 30
0.0
 40
0.125
  1
PVC LATERAL PIPE
  7
ROMANS
100
AcDbText
  0
CIRCLE
  5
237
330
C95
100
AcDbEntity
  8
TEXT-SJ-BUBBLES
100
AcDbCircle
 10
3.865896109504513
 20
1.231596664692388
 30
0.0
 40
0.1562500000000002
  0
TEXT
  5
238
330
C95
100
AcDbEntity
  8
TEXT-SJ-BUBBLES
100
AcDbText
 10
3.806372299980703
 20
1.169096664692387
 30
0.0
 40
0.1250000000000002
  1
7
  7
ROMANS
 72
     4
 11
3.865896109504513
 21
1.231596664692388
 31
0.0
100
AcDbText
  0
CIRCLE
  5
239
330
C95
100
AcDbEntity
  8
TEXT_BUBBLES
100
AcDbCircle
 10
4.916305009701207
 20
6.245753216451036
 30
0.0
 40
0.1562500000000002
  0
TEXT
  5
23A
330
C95
100
AcDbEntity
  8
TEXT_BUBBLES
100
AcDbText
 10
4.865709771605969
 20
6.183253216451036
 30
0.0
 40
0.1250000000000002
  1
1
  7
ROMANS
 72
     4
 11
4.916305009701207
 21
6.245753216451036
 31
0.0
100
AcDbText
  0
TEXT
  5
23D
330
C95
100
AcDbEntity
  8
TEXT-SJ-BUBBLES
100
AcDbText
 10
3.803680956992025
 20
3.129566234144288
 30
0.0
 40
0.1250000000000002
  1
4
  7
ROMANS
 72
     4
 11
3.866180956992025
 21
3.192066234144288
 31
0.0
100
AcDbText
  0
CIRCLE
  5
23E
330
C95
100
AcDbEntity
  8
TEXT-SJ-BUBBLES
100
AcDbCircle
 10
3.866180956992025
 20
3.192066234144288
 30
0.0
 40
0.1562500000000002
  0
CIRCLE
  5
23F
330
C95
100
AcDbEntity
  8
TEXT-SJ-BUBBLES
100
AcDbCircle
 10
3.866180956992025
 20
2.844852434229192
 30
0.0
 40
0.1562500000000002
  0
TEXT
  5
240
330
C95
100
AcDbEntity
  8
TEXT-SJ-BUBBLES
100
AcDbText
 10
3.806657147468215
 20
2.782352434229192
 30
0.0
 40
0.1250000000000002
  1
5
  7
ROMANS
 72
     4
 11
3.866180956992025
 21
2.844852434229192
 31
0.0
100
AcDbText
  0
TEXT
  5
241
330
C95
100
AcDbEntity
  8
TEXT-SJ-BUBBLES
100
AcDbText
 10
3.806657147468215
 20
2.410810410668908
 30
0.0
 40
0.1250000000000002
  1
3
  7
ROMANS
 72
     4
 11
3.866180956992025
 21
2.473310410668908
 31
0.0
100
AcDbText
  0
CIRCLE
  5
242
330
C95
100
AcDbEntity
  8
TEXT-SJ-BUBBLES
100
AcDbCircle
 10
3.866180956992025
 20
2.473310410668908
 30
0.0
 40
0.1562500000000002
  0
TEXT
  5
243
330
C95
100
AcDbEntity
  8
TEXT-SJ-BUBBLES
100
AcDbText
 10
2.946937740691167
 20
1.168963309638509
 30
0.0
 40
0.1250000000000002
  1
6
  7
ROMANS
 72
     4
 11
3.009437740691167
 21
1.231463309638509
 31
0.0
100
AcDbText
  0
CIRCLE
  5
244
330
C95
100
AcDbEntity
  8
TEXT-SJ-BUBBLES
100
AcDbCircle
 10
3.009437740691167
 20
1.231463309638509
 30
0.0
 40
0.1562500000000002
  0
TEXT
  5
245
330
C95
100
AcDbEntity
  8
TEXT-SJ-BUBBLES
100
AcDbText
 10
4.495963625660539
 20
1.168470635646447
 30
0.0
 40
0.1250000000000002
  1
5
  7
ROMANS
 72
     4
 11
4.555487435184348
 21
1.230970635646447
 31
0.0
100
AcDbText
  0
CIRCLE
  5
246
330
C95
100
AcDbEntity
  8
TEXT-SJ-BUBBLES
100
AcDbCircle
 10
4.555487435184348
 20
1.230970635646447
 30
0.0
 40
0.1562500000000002
  0
TEXT
  5
247
330
C95
100
AcDbEntity
  8
TEXT_BUBBLES
100
AcDbText
 10
3.650407147468215
 20
5.34615019017899
 30
0.0
 40
0.1250000000000002
  1
2
  7
ROMANS
 72
     4
 11
3.709930956992025
 21
5.40865019017899
 31
0.0
100
AcDbText
  0
CIRCLE
  5
248
330
C95
100
AcDbEntity
  8
TEXT_BUBBLES
100
AcDbCircle
 10
3.709930956992025
 20
5.40865019017899
 30
0.0
 40
0.1562500000000002
  0
TEXT
  5
24C
330
C95
100
AcDbEntity
  8
TEXT_BUBBLES
100
AcDbText
 10
4.856781200177398
 20
5.840115638513328
 30
0.0
 40
0.1250000000000002
  1
2
  7
ROMANS
 72
     4
 11
4.916305009701207
 21
5.902615638513328
 31
0.0
100
AcDbText
  0
CIRCLE
  5
24D
330
C95
100
AcDbEntity
  8
TEXT_BUBBLES
100
AcDbCircle
 10
4.916305009701207
 20
5.902615638513328
 30
0.0
 40
0.1562500000000002
  0
TEXT
  5
250
330
C95
100
AcDbEntity
  8
TEXT-SJ-BUBBLES
100
AcDbText
 10
4.853805009701207
 20
4.591135045007148
 30
0.0
 40
0.1250000000000002
  1
4
  7
ROMANS
 72
     4
 11
4.916305009701207
 21
4.653635045007148
 31
0.0
100
AcDbText
  0
CIRCLE
  5
251
330
C95
100
AcDbEntity
  8
TEXT-SJ-BUBBLES
100
AcDbCircle
 10
4.916305009701207
 20
4.653635045007148
 30
0.0
 40
0.1562500000000002
  0
CIRCLE
  5
252
330
C95
100
AcDbEntity
  8
TEXT-SJ-BUBBLES
100
AcDbCircle
 10
4.916305009701207
 20
4.29507633847109
 30
0.0
 40
0.1562500000000002
  0
TEXT
  5
253
330
C95
100
AcDbEntity
  8
TEXT-SJ-BUBBLES
100
AcDbText
 10
4.856781200177398
 20
4.23257633847109
 30
0.0
 40
0.1250000000000002
  1
5
  7
ROMANS
 72
     4
 11
4.916305009701207
 21
4.29507633847109
 31
0.0
100
AcDbText
  0
TEXT
  5
254
330
C95
100
AcDbEntity
  8
TEXT-SJ-BUBBLES
100
AcDbText
 10
4.853805009701207
 20
3.879212261475701
 30
0.0
 40
0.1250000000000002
  1
6
  7
ROMANS
 72
     4
 11
4.916305009701207
 21
3.941712261475701
 31
0.0
100
AcDbText
  0
CIRCLE
  5
255
330
C95
100
AcDbEntity
  8
TEXT-SJ-BUBBLES
100
AcDbCircle
 10
4.916305009701207
 20
3.941712261475701
 30
0.0
 40
0.1562500000000002
  0
CIRCLE
  5
256
330
C95
100
AcDbEntity
  8
TEXT-SJ-BUBBLES
100
AcDbCircle
 10
4.916305009701207
 20
3.597234607244929
 30
0.0
 40
0.1562500000000002
  0
TEXT
  5
257
330
C95
100
AcDbEntity
  8
TEXT-SJ-BUBBLES
100
AcDbText
 10
4.856781200177398
 20
3.534734607244929
 30
0.0
 40
0.1250000000000002
  1
7
  7
ROMANS
 72
     4
 11
4.916305009701207
 21
3.597234607244929
 31
0.0
100
AcDbText
  0
TEXT
  5
258
330
C95
100
AcDbEntity
  8
TEXT_BUBBLES
100
AcDbText
 10
3.6534991022951
 20
6.922917513595351
 30
0.0
 40
0.1250000000000002
  1
1
  7
ROMANS
 72
     4
 11
3.704094340390338
 21
6.985417513595351
 31
0.0
100
AcDbText
  0
CIRCLE
  5
259
330
C95
100
AcDbEntity
  8
TEXT_BUBBLES
100
AcDbCircle
 10
3.704094340390338
 20
6.985417513595351
 30
0.0
 40
0.1562500000000002
  0
TEXT
  5
270
330
C95
100
AcDbEntity
  8
INSTRUCT-OPTION
100
AcDbText
 10
9.904139671032982
 20
-0.3849727774846627
 30
0.0
 40
0.1250000018625002
  1
LAYER "INSTRUCT-OPTION".
  7
ROMANS
100
AcDbText
  0
TEXT
  5
271
330
C95
100
AcDbEntity
  8
INSTRUCT-OPTION
100
AcDbText
 10
9.904139671032982
 20
-0.1825977231246627
 30
0.0
 40
0.1250000018625002
  1
TO TURN OFF THIS INSTRUCTION BOX, TURN OFF
  7
ROMANS
100
AcDbText
  0
TEXT
  5
278
330
C95
100
AcDbEntity
  8
INSTRUCT-OPTION
100
AcDbText
 10
10.59959063466942
 20
6.61712181011635
 30
0.0
 40
0.1250000018625002
  1
CHOOSING A DIFFERENT SPRINKLER MODEL
  7
ROMANS
100
AcDbText
  0
TEXT
  5
27A
330
C95
100
AcDbEntity
  8
INSTRUCT-OPTION
100
AcDbText
 10
10.01072090104074
 20
5.947044105297988
 30
0.0
 40
0.1250000018625002
  1
ON THE APPROPRIATE LAYER:
  7
ROMANS
100
AcDbText
  0
TEXT
  5
27B
330
C95
100
AcDbEntity
  8
INSTRUCT-OPTION
100
AcDbText
 10
10.01072090104074
 20
6.149418861634239
 30
0.0
 40
0.1250000018625002
  1
CHOOSE A DIFFERENT MODEL BY TURNING
  7
ROMANS
100
AcDbText
  0
TEXT
  5
2B3
330
C95
100
AcDbEntity
  8
OPTION-SAM-N
100
AcDbText
 10
5.141459594312271
 20
5.494225120117109
 30
0.0
 40
0.125
  1
  5012-FC/PC-SAM-N
  7
ROMANS
100
AcDbText
  0
LINE
  5
2B6
330
C95
100
AcDbEntity
  8
INSTRUCT-OPTION
100
AcDbLine
 10
9.888411846457605
 20
6.562248956095069
 30
0.0
 11
9.888411846457605
 21
0.0375407840593827
 31
0.0
  0
LINE
  5
2B7
330
C95
100
AcDbEntity
  8
INSTRUCT-OPTION
100
AcDbLine
 10
9.888411846457605
 20
0.0375407840593827
 30
0.0
 11
15.40819770289755
 21
0.0375407840593827
 31
0.0
  0
LINE
  5
2B8
330
C95
100
AcDbEntity
  8
INSTRUCT-OPTION
100
AcDbLine
 10
15.40819770289755
 20
0.0375407840593827
 30
0.0
 11
15.40819770289755
 21
6.562248956095069
 31
0.0
  0
LINE
  5
2B9
330
C95
100
AcDbEntity
  8
INSTRUCT-OPTION
100
AcDbLine
 10
15.40819770289755
 20
6.562248956095069
 30
0.0
 11
9.888411846457605
 21
6.562248956095069
 31
0.0
  0
TEXT
  5
2BF
330
C95
100
AcDbEntity
  8
INSTRUCT-OPTION
100
AcDbText
 10
10.01071516007673
 20
4.964674379862544
 30
0.0
 40
0.1250000018625002
  1
%%U5012-FC/PC W/ N COVER
  7
ROMANS
100
AcDbText
  0
TEXT
  5
2C5
330
C95
100
AcDbEntity
  8
INSTRUCT-OPTION
100
AcDbText
 10
10.01071516007673
 20
5.555483525755556
 30
0.0
 40
0.1250000018625002
  1
%%U5012-FC/PC-SAM
  7
ROMANS
100
AcDbText
  0
TEXT
  5
2CB
330
C95
100
AcDbEntity
  8
INSTRUCT-OPTION
100
AcDbText
 10
10.01071516007673
 20
4.318135184235212
 30
0.0
 40
0.1250000018625002
  1
%%U5012-FC/PC-SAM W/ N COVER
  7
ROMANS
100
AcDbText
  0
TEXT
  5
2D4
330
C95
100
AcDbEntity
  8
INSTRUCT-OPTION
100
AcDbText
 10
10.02218868040691
 20
4.712348356563405
 30
0.0
 40
0.1250000018625002
  1
  OPTION-N
  7
ROMANS
100
AcDbText
  0
TEXT
  5
2D9
330
C95
100
AcDbEntity
  8
INSTRUCT-OPTION
100
AcDbText
 10
10.01071516007673
 20
5.32609623422635
 30
0.0
 40
0.1250000018625002
  1
  OPTION-SAM
  7
ROMANS
100
AcDbText
  0
TEXT
  5
2DC
330
C95
100
AcDbEntity
  8
INSTRUCT-OPTION
100
AcDbText
 10
10.02218868040691
 20
4.088747892706006
 30
0.0
 40
0.1250000018625002
  1
  OPTION-SAM-N
  7
ROMANS
100
AcDbText
  0
TEXT
  5
3E2
330
C95
100
AcDbEntity
  8
OPTION--N
100
AcDbText
 10
5.141459594312271
 20
5.494225120117109
 30
0.0
 40
0.125
  1
  5012-FC/PC-N
  7
ROMANS
100
AcDbText
  0
TEXT
  5
3E4
330
C95
100
AcDbEntity
  8
OPTION-SAM
100
AcDbText
 10
5.141459594312271
 20
5.494225120117109
 30
0.0
 40
0.125
  1
  5012-FC/PC-SAM
  7
ROMANS
100
AcDbText
  0
TEXT
  5
3EF
330
C95
100
AcDbEntity
  8
INSTRUCT-OPTION
100
AcDbText
 10
10.01072090104074
 20
3.688373434865552
 30
0.0
 40
0.1250000018625002
  1
SELECT THE DESIRED SWING JOINT BY
  7
ROMANS
100
AcDbText
  0
TEXT
  5
3F0
330
C95
100
AcDbEntity
  8
INSTRUCT-OPTION
100
AcDbText
 10
10.01072090104074
 20
3.485998678529301
 30
0.0
 40
0.1250000018625002
  1
TURNING ON THE APPROPRIATE LAYER:
  7
ROMANS
100
AcDbText
  0
CIRCLE
  5
7E8
330
C95
100
AcDbEntity
  8
TEXT-SJ-BUBBLES
100
AcDbCircle
 10
3.866180956992025
 20
3.543897231237307
 30
0.0
 40
0.1562500000000002
  0
TEXT
  5
7E9
330
C95
100
AcDbEntity
  8
TEXT-SJ-BUBBLES
100
AcDbText
 10
3.806657147468215
 20
3.481397231237307
 30
0.0
 40
0.1250000000000002
  1
3
  7
ROMANS
 72
     4
 11
3.866180956992025
 21
3.543897231237307
 31
0.0
100
AcDbText
  0
TEXT
  5
7EB
330
C95
100
AcDbEntity
  8
TEXT-SJ-BUBBLES
100
AcDbText
 10
4.856781200177398
 20
5.116737961380739
 30
0.0
 40
0.1250000000000002
  1
3
  7
ROMANS
 72
     4
 11
4.916305009701207
 21
5.179237961380739
 31
0.0
100
AcDbText
  0
CIRCLE
  5
7EC
330
C95
100
AcDbEntity
  8
TEXT-SJ-BUBBLES
100
AcDbCircle
 10
4.916305009701207
 20
5.179237961380739
 30
0.0
 40
0.1562500000000002
  0
TEXT
  5
7ED
330
C95
100
AcDbEntity
  8
TEXT-SJ-BUBBLES
100
AcDbText
 10
5.14145639
 20
4.943034592903828
 30
0.0
 40
0.125
  1
  (LENGTH AS REQUIRED)
  7
ROMANS
100
AcDbText
  0
TEXT
  5
7EE
330
C95
100
AcDbEntity
  8
TEXT-SJ-BUBBLES
100
AcDbText
 10
5.14145639
 20
5.118034592903828
 30
0.0
 40
0.125
  1
PVC SCH 80 NIPPLE
  7
ROMANS
100
AcDbText
  0
LINE
  5
AA6
330
C95
100
AcDbEntity
  8
IMAGE
100
AcDbLine
 10
1.524401321571704
 20
2.764988996606186
 30
0.0
 11
1.5244013215717
 21
5.331613961666025
 31
0.0
  0
LINE
  5
AA7
330
C95
100
AcDbEntity
  8
IMAGE
100
AcDbLine
 10
1.054271572949991
 20
2.764988996606192
 30
0.0
 11
1.054271572949993
 21
6.205752123370569
 31
0.0
  0
LINE
  5
AAC
330
C95
100
AcDbEntity
  8
OPTION-SJ
100
AcDbLine
 10
2.283284140651592
 20
1.871382435317275
 30
0.0
 11
0.3625138620523836
 21
1.871382435317274
 31
0.0
  0
LINE
  5
AAD
330
C95
100
AcDbEntity
  8
OPTION-SJ
100
AcDbLine
 10
3.126403921518594
 20
1.577043100151686
 30
0.0
 11
0.3625138620523836
 21
1.577043100151687
 31
0.0
  0
LINE
  5
AAE
330
C95
100
AcDbEntity
  8
OPTION-SJ
100
AcDbLine
 10
3.215567924950007
 20
1.926291706440969
 30
0.0
 11
1.672992443537097
 21
2.252879556536348
 31
0.0
  0
LINE
  5
AAF
330
C95
100
AcDbEntity
  8
OPTION-SJ
100
AcDbLine
 10
3.163960261164856
 20
1.684929244342579
 30
0.0
 11
1.621384779751948
 21
2.011517094437957
 31
0.0
  0
LINE
  5
AB0
330
C95
100
AcDbEntity
  8
IMAGE
100
AcDbLine
 10
1.451178613223876
 20
2.726203292344898
 30
0.0
 11
1.524401321571707
 21
2.764988996606188
 31
0.0
  0
LINE
  5
AB1
330
C95
100
AcDbEntity
  8
IMAGE
100
AcDbLine
 10
1.12749428129783
 20
2.726203292344898
 30
0.0
 11
1.054271572949998
 21
2.764988996606188
 31
0.0
  0
LINE
  5
AB2
330
C95
100
AcDbEntity
  8
IMAGE
100
AcDbLine
 10
1.304380599216747
 20
2.915430516165135
 30
0.0
 11
1.304380599216747
 21
2.726203292344898
 31
0.0
  0
LINE
  5
AB3
330
C95
100
AcDbEntity
  8
IMAGE
100
AcDbLine
 10
1.451178613223876
 20
2.726203292344898
 30
0.0
 11
1.451178613223876
 21
2.880170785018505
 31
0.0
  0
LINE
  5
AB4
330
C95
100
AcDbEntity
  8
IMAGE
100
AcDbLine
 10
1.274292295304958
 20
2.915430516165135
 30
0.0
 11
1.274292295304958
 21
2.726203292344898
 31
0.0
  0
LINE
  5
AB5
330
C95
100
AcDbEntity
  8
IMAGE
100
AcDbLine
 10
1.12749428129783
 20
2.726203292344898
 30
0.0
 11
1.12749428129783
 21
2.880170785018505
 31
0.0
  0
LWPOLYLINE
  5
AB7
330
C95
100
AcDbEntity
  8
OPTION-SJ
100
AcDbPolyline
 90
        4
 70
     0
 43
0.0
 10
0.3625138620523833
 20
1.871382435317274
 42
0.6332430429610296
 10
0.3625138620523833
 20
1.72421276773448
 42
-0.6332430429610812
 10
0.3625138620523833
 20
1.577043100151687
 42
-0.6134111328532366
 10
0.3625138620523857
 20
1.724212767734479
 42
-0.6134111328532366
  0
LINE
  5
ABA
330
C95
100
AcDbEntity
  8
OPTION-SJ
100
AcDbLine
 10
1.675184931881143
 20
2.267208730911089
 30
0.0
 11
1.432336969968569
 21
2.318681984919007
 31
0.0
  0
LINE
  5
ABB
330
C95
100
AcDbEntity
  8
OPTION-SJ
100
AcDbLine
 10
1.618472745069591
 20
1.997677302468403
 30
0.0
 11
1.279371128570462
 21
2.068844866914991
 31
0.0
  0
LINE
  5
ABE
330
C95
100
AcDbEntity
  8
OPTION-SJ
100
AcDbLine
 10
1.432074092843605
 20
2.445711186002116
 30
0.0
 11
1.4325360165599
 21
2.21417382547757
 31
0.0
  0
LINE
  5
ABF
330
C95
100
AcDbEntity
  8
OPTION-SJ
100
AcDbLine
 10
1.142686649470817
 20
2.445711186002116
 30
0.0
 11
1.141477212581461
 21
2.21417382547757
 31
0.0
  0
ARC
  5
AC1
330
C95
100
AcDbEntity
  8
OPTION-SJ
100
AcDbCircle
 10
1.28700661457068
 20
2.21417382547757
 30
0.0
 40
0.1455294019892196
100
AcDbArc
 50
179.379115872957
 51
0.2371380430744057
  0
LINE
  5
AC4
330
C95
100
AcDbEntity
  8
IMAGE
100
AcDbLine
 10
1.451178613223876
 20
2.726321759950401
 30
0.0
 11
1.12749428129783
 21
2.726321759950401
 31
0.0
  0
LINE
  5
AC5
330
C95
100
AcDbEntity
  8
OPTION-SJ
100
AcDbLine
 10
1.142686649470817
 20
2.445711186002116
 30
0.0
 11
1.432074092843604
 21
2.445711186002116
 31
0.0
  0
LINE
  5
AC6
330
C95
100
AcDbEntity
  8
OPTION-SJ
100
AcDbLine
 10
1.163033616539371
 20
2.50457433767774
 30
0.0
 11
1.409851746083289
 21
2.50457433767774
 31
0.0
  0
LWPOLYLINE
  5
AC7
330
C95
100
AcDbEntity
  8
OPTION-SJ
100
AcDbPolyline
 90
        2
 70
     0
 43
0.0
 10
1.180831875736707
 20
2.474170446212346
 10
1.391633734657811
 20
2.474170446212346
  0
LWPOLYLINE
  5
AC8
330
C95
100
AcDbEntity
  8
OPTION-SJ
100
AcDbPolyline
 90
        2
 70
     0
 43
0.0
 10
1.180831875736707
 20
2.700110685214093
 10
1.391633734657811
 20
2.700110685214093
  0
LINE
  5
AC9
330
C95
100
AcDbEntity
  8
OPTION-SJ
100
AcDbLine
 10
1.163033616539371
 20
2.671523523532684
 30
0.0
 11
1.409851746083289
 21
2.671523523532684
 31
0.0
  0
LINE
  5
ACA
330
C95
100
AcDbEntity
  8
OPTION-SJ
100
AcDbLine
 10
1.163033616539371
 20
2.726321759950401
 30
0.0
 11
1.163033616539371
 21
2.445711186002117
 31
0.0
  0
LINE
  5
ACB
330
C95
100
AcDbEntity
  8
OPTION-SJ
100
AcDbLine
 10
1.409851746083289
 20
2.726321759950401
 30
0.0
 11
1.409851746083289
 21
2.445711186002117
 31
0.0
  0
LINE
  5
ACE
330
C95
100
AcDbEntity
  8
OPTION-SJ
100
AcDbLine
 10
1.730259740543681
 20
2.241773023218841
 30
0.0
 11
1.679137584733751
 21
2.000307261138782
 31
0.0
  0
LINE
  5
ACF
330
C95
100
AcDbEntity
  8
OPTION-SJ
100
AcDbLine
 10
1.675184931881143
 20
2.267208730911089
 30
0.0
 11
1.618472745069591
 21
1.997677302468404
 31
0.0
  0
LWPOLYLINE
  5
AD0
330
C95
100
AcDbEntity
  8
OPTION-SJ
100
AcDbPolyline
 90
        2
 70
     0
 43
0.0
 10
1.698680555591305
 20
2.230421033650365
 10
1.655018262644262
 20
2.024190512390296
  0
LINE
  5
AD1
330
C95
100
AcDbEntity
  8
IMAGE
100
AcDbLine
 10
1.500894834140621
 20
2.880170785018505
 30
0.0
 11
1.304380599216747
 21
2.880170785018505
 31
0.0
  0
LINE
  5
AD2
330
C95
100
AcDbEntity
  8
IMAGE
100
AcDbLine
 10
1.524401321571707
 20
2.915430516165135
 30
0.0
 11
1.054271572949998
 21
2.915430516165135
 31
0.0
  0
LINE
  5
AD3
330
C95
100
AcDbEntity
  8
IMAGE
100
AcDbLine
 10
1.274292295304958
 20
2.880170785018505
 30
0.0
 11
1.077778060381084
 21
2.880170785018505
 31
0.0
  0
ARC
  5
AD4
330
C95
100
AcDbEntity
  8
IMAGE
100
AcDbCircle
 10
1.092469615025512
 20
2.915430516165135
 30
0.0
 40
0.0381980420755133
100
AcDbArc
 50
180.0
 51
247.3801350519599
  0
LINE
  5
AD5
330
C95
100
AcDbEntity
  8
IMAGE
100
AcDbLine
 10
1.304380599216747
 20
2.764988996606188
 30
0.0
 11
1.274292295304958
 21
2.764988996606188
 31
0.0
  0
ARC
  5
AD6
330
C95
100
AcDbEntity
  8
IMAGE
100
AcDbCircle
 10
1.486203279496193
 20
2.915430516165135
 30
0.0
 40
0.0381980420755133
100
AcDbArc
 50
292.61986494804
 51
0.0
  0
LINE
  5
ADE
330
C95
100
AcDbEntity
  8
OPTION-SJ
100
AcDbLine
 10
4.512762855251931
 20
1.57916421169041
 30
0.0
 11
3.955721213339883
 21
1.57916421169041
 31
0.0
  0
LINE
  5
ADF
330
C95
100
AcDbEntity
  8
OPTION-SJ
100
AcDbLine
 10
4.512762855251931
 20
1.873503546855997
 30
0.0
 11
3.955721213339884
 21
1.873503546855997
 31
0.0
  0
LINE
  5
AE0
330
C95
100
AcDbEntity
  8
OPTION-SJ
100
AcDbLine
 10
3.360191138539879
 20
1.909773693735492
 30
0.0
 11
3.955721213339884
 21
1.909773693735492
 31
0.0
  0
LINE
  5
AE1
330
C95
100
AcDbEntity
  8
OPTION-SJ
100
AcDbLine
 10
3.955721213339884
 20
1.54425115792612
 30
0.0
 11
3.126403921518594
 21
1.54425115792612
 31
0.0
  0
LINE
  5
AE2
330
C95
100
AcDbEntity
  8
OPTION-SJ
100
AcDbLine
 10
3.160546506002646
 20
1.670582472220012
 30
0.0
 11
3.516331004033684
 21
1.594509305768516
 31
0.0
  0
LINE
  5
AE3
330
C95
100
AcDbEntity
  8
OPTION-SJ
100
AcDbLine
 10
3.218137354166237
 20
1.939927524632531
 30
0.0
 11
3.574034470195156
 21
1.864381058195195
 31
0.0
  0
LINE
  5
AE4
330
C95
100
AcDbEntity
  8
OPTION-SJ
100
AcDbLine
 10
3.126403921518592
 20
1.692880520873495
 30
0.0
 11
3.126403921518594
 21
1.544251157926122
 31
0.0
  0
LINE
  5
AE5
330
C95
100
AcDbEntity
  8
OPTION-SJ
100
AcDbLine
 10
3.218137354166237
 20
1.939927524632531
 30
0.0
 11
3.160546506002646
 21
1.670582472220013
 31
0.0
  0
LWPOLYLINE
  5
AE6
330
C95
100
AcDbEntity
  8
OPTION-SJ
100
AcDbPolyline
 90
        2
 70
     0
 43
0.0
 10
3.183375352146852
 20
1.91512295246743
 10
3.13971305919981
 20
1.708892431207362
  0
LINE
  5
AE7
330
C95
100
AcDbEntity
  8
OPTION-SJ
100
AcDbLine
 10
3.158534492904967
 20
1.938627160617919
 30
0.0
 11
3.107412337095038
 21
1.69716139853786
 31
0.0
  0
LINE
  5
AE9
330
C95
100
AcDbEntity
  8
OPTION-SJ
100
AcDbLine
 10
3.574034470195159
 20
1.864381058195196
 30
0.0
 11
3.516331004033684
 21
1.594509305768516
 31
0.0
  0
ARC
  5
AEA
330
C95
100
AcDbEntity
  8
OPTION-SJ
100
AcDbCircle
 10
3.541965242229253
 20
1.72816760944352
 30
0.0
 40
0.1151096588842657
100
AcDbArc
 50
272.3885930691139
 51
64.76879059918148
  0
LINE
  5
AEB
330
C95
100
AcDbEntity
  8
OPTION-SJ
100
AcDbLine
 10
3.546762637442812
 20
1.613157963901867
 30
0.0
 11
3.59103327754135
 21
1.832295230558492
 31
0.0
  0
LINE
  5
AEC
330
C95
100
AcDbEntity
  8
OPTION-SJ
100
AcDbLine
 10
3.955721213339884
 20
1.909773693735491
 30
0.0
 11
3.955721213339883
 21
1.54425115792612
 31
0.0
  0
LINE
  5
AED
330
C95
100
AcDbEntity
  8
OPTION-SJ
100
AcDbLine
 10
3.516331004033684
 20
1.594509305768516
 30
0.0
 11
3.546762637442812
 21
1.613157963901869
 31
0.0
  0
LINE
  5
AEE
330
C95
100
AcDbEntity
  8
OPTION-SJ
100
AcDbLine
 10
3.574034470195156
 20
1.864381058195195
 30
0.0
 11
3.59103327754135
 21
1.832295230558492
 31
0.0
  0
LWPOLYLINE
  5
AF1
330
C95
100
AcDbEntity
  8
OPTION-SJ
100
AcDbPolyline
 90
        4
 70
     0
 43
0.0
 10
4.51276285525193
 20
1.873503546855997
 42
-0.6332430429610296
 10
4.51276285525193
 20
1.726333879273204
 42
0.6332430429610812
 10
4.51276285525193
 20
1.57916421169041
 42
0.6134111328532366
 10
4.51276285525193
 20
1.726333879273202
 42
0.6134111328532366
  0
LINE
  5
AF4
330
C95
100
AcDbEntity
  8
IMAGE
100
AcDbLine
 10
3.158014526441178
 20
6.53037671479386
 30
0.0
 11
1.501952626075014
 21
6.53037671479386
 31
0.0
  0
INSERT
  5
AF5
330
C95
100
AcDbEntity
  8
IMAGE
  6
Continuous
100
AcDbBlockReference
  2
*X1
 10
0.0
 20
0.0
 30
0.0
1001
ACAD
1000
HATCH
1002
{
1070
    19
1000
EARTH
1040
0.5849999454031217
1040
0.7853981633974483
1000
R14_HATCH_DATA
1000
AF5
1011
1.0
1021
0.0
1031
0.0
1011
0.0
1021
1.0
1031
0.0
1011
0.0
1021
0.0
1031
1.0
1040
0.0
1010
0.0
1020
0.0
1030
1.0
1000
EARTH
1070
     0
1070
     0
1071
        1
1071
        1
1071
       14
1070
     1
1040
1.501952626075014
1040
6.53037671479386
1040
1.58763377276132
1040
6.422481937485178
1070
     1
1040
1.587633772761321
1040
6.422481937485177
1040
1.587633772761321
1040
6.231609259544764
1070
     1
1040
1.587633772761321
1040
6.231609259544764
1040
1.581757150903549
1040
6.231609259544764
1070
     1
1040
1.581757150903549
1040
6.231609259544764
1040
1.581757150903549
1040
6.205752123370571
1070
     1
1040
1.581757150903549
1040
6.20575212337057
1040
1.585577147495663
1040
6.172044161104643
1070
     1
1040
1.585577147495663
1040
6.172044161104643
1040
1.641611049954431
1040
6.163535744497583
1070
     1
1040
1.641611049954431
1040
6.163535744497584
1040
1.794108283079107
1040
6.164244796037742
1070
     1
1040
1.794108283079108
1040
6.164244796037741
1040
1.939512687112364
1040
6.19402422051668
1070
     1
1040
1.939512687112364
1040
6.194024220516677
1040
2.13173020108739
1040
6.211750037979369
1070
     1
1040
2.131730201087391
1040
6.21175003797937
1040
2.276425249221779
1040
6.280526220501291
1070
     1
1040
2.276425249221778
1040
6.280526220501291
1040
2.318273389226654
1040
6.388299228357767
1070
     1
1040
2.318273389226654
1040
6.388299228357767
1040
2.386365194984789
1040
6.502453565492459
1070
     1
1040
2.38636519498479
1040
6.502453565492459
1040
2.398423098284144
1040
6.53037671479386
1070
     1
1040
2.398423098284144
1040
6.53037671479386
1040
1.501952626075015
1040
6.530376714793861
1071
        0
1070
     0
1070
     1
1040
0.7853981633974483
1040
0.5849999454031217
1070
     0
1070
     6
1040
2.356194490192344
1040
2.668765396704185
1040
1.337902593061711
1040
0.0
1040
0.2068287141941536
1070
     2
1040
0.1462499863507804
1040
-0.1462499863507804
1040
2.356194490192344
1040
2.70754578061559
1040
1.376682976973115
1040
0.0
1040
0.2068287141941536
1070
     2
1040
0.1462499863507804
1040
-0.1462499863507804
1040
2.356194490192344
1040
2.746326164526994
1040
1.415463360884519
1040
0.0
1040
0.2068287141941536
1070
     2
1040
0.1462499863507804
1040
-0.1462499863507804
1040
0.7853981633974484
1040
2.746326164526994
1040
1.441316950158788
1040
0.2068287141941536
1040
0.0
1070
     2
1040
0.1462499863507804
1040
-0.1462499863507804
1040
0.7853981633974484
1040
2.70754578061559
1040
1.480097334070192
1040
0.2068287141941536
1040
0.0
1070
     2
1040
0.1462499863507804
1040
-0.1462499863507804
1040
0.7853981633974484
1040
2.668765396704185
1040
1.518877717981595
1040
0.2068287141941536
1040
0.0
1070
     2
1040
0.1462499863507804
1040
-0.1462499863507804
1071
        1
1040
2.668765396704185
1040
1.337902593061711
1040
0.0
1002
}
  0
ARC
  5
AF6
330
C95
100
AcDbEntity
  8
IMAGE
100
AcDbCircle
 10
1.814666237836052
 20
6.848270852349667
 30
0.0
 40
0.1410282560048952
100
AcDbArc
 50
296.0563205359582
 51
25.2549940243739
  0
ARC
  5
AF7
330
C95
100
AcDbEntity
  8
IMAGE
100
AcDbCircle
 10
1.834416726371193
 20
6.710017545605984
 30
0.0
 40
0.1410282560048952
100
AcDbArc
 50
296.0563205359582
 51
25.2549940243739
  0
ARC
  5
AF8
330
C95
100
AcDbEntity
  8
IMAGE
100
AcDbCircle
 10
2.088852842989224
 20
6.785001018855796
 30
0.0
 40
0.1410282560048952
100
AcDbArc
 50
143.5307656099477
 51
232.7294390983634
  0
ARC
  5
AF9
330
C95
100
AcDbEntity
  8
IMAGE
100
AcDbCircle
 10
1.939638600720649
 20
6.699180583396882
 30
0.0
 40
0.1410282560048952
100
AcDbArc
 50
278.5307656099478
 51
7.729439098363569
  0
ARC
  5
AFA
330
C95
100
AcDbEntity
  8
IMAGE
100
AcDbCircle
 10
2.100305701175526
 20
6.578680258055725
 30
0.0
 40
0.1410282560048952
100
AcDbArc
 50
98.53076560994793
 51
187.7294390983635
  0
LINE
  5
AFB
330
C95
100
AcDbEntity
  8
IMAGE
100
AcDbLine
 10
1.5244013215717
 20
5.642463528447352
 30
0.0
 11
1.5244013215717
 21
6.205752123370569
 31
0.0
  0
ARC
  5
AFC
330
C95
100
AcDbEntity
  8
IMAGE
100
AcDbCircle
 10
1.905303185209162
 20
5.486996729314599
 30
0.0
 40
0.4113757822291212
100
AcDbArc
 50
157.8077892731729
 51
202.1922107268271
  0
LWPOLYLINE
  5
AFD
330
C95
100
AcDbEntity
  8
IMAGE
100
AcDbPolyline
 90
        2
 70
     0
 43
0.0
 10
1.713659585659376
 20
5.602081071173783
 10
1.713659585659376
 20
5.37645312915409
  0
LWPOLYLINE
  5
AFE
330
C95
100
AcDbEntity
  8
IMAGE
100
AcDbPolyline
 90
        8
 70
     0
 43
0.0
 10
1.676224505693265
 20
5.602081071173783
 10
1.713659585659376
 20
5.602081071173783
 10
1.713659585659376
 20
5.639357121234821
 10
1.74938130247223
 20
5.639357121234821
 10
1.74938130247223
 20
5.334139806898655
 10
1.713659585659376
 20
5.334139806898655
 10
1.713659585659376
 20
5.37645312915409
 10
1.676224505693265
 20
5.37645312915409
  0
LWPOLYLINE
  5
AFF
330
C95
100
AcDbEntity
  8
IMAGE
100
AcDbPolyline
 90
        4
 70
     0
 43
0.0
 10
1.5244013215717
 20
5.642379496963171
 10
1.676224505693265
 20
5.642379496963171
 10
1.676224505693265
 20
5.331117431170307
 10
1.5244013215717
 20
5.331613961666026
  0
LWPOLYLINE
  5
B00
330
C95
100
AcDbEntity
  8
IMAGE
100
AcDbPolyline
 90
        2
 70
     0
 43
0.0
 10
1.713659585659376
 20
5.493275338091384
 10
1.74938130247223
 20
5.493275338091384
  0
LINE
  5
B01
330
C95
100
AcDbEntity
  8
IMAGE
100
AcDbLine
 10
1.076720268446679
 20
6.53037671479386
 30
0.0
 11
0.1475000141343916
 21
6.53037671479386
 31
0.0
  0
INSERT
  5
B02
330
C95
100
AcDbEntity
  8
IMAGE
  6
Continuous
100
AcDbBlockReference
  2
*X0
 10
0.0
 20
0.0
 30
0.0
1001
ACAD
1000
HATCH
1002
{
1070
    19
1000
EARTH
1040
0.5849999454031217
1040
0.7853981633974483
1000
R14_HATCH_DATA
1000
B02
1011
1.0
1021
0.0
1031
0.0
1011
0.0
1021
1.0
1031
0.0
1011
0.0
1021
0.0
1031
1.0
1040
0.0
1010
0.0
1020
0.0
1030
1.0
1000
EARTH
1070
     0
1070
     0
1071
        1
1071
        1
1071
       14
1070
     1
1040
1.076720268446679
1040
6.53037671479386
1040
0.9910391217603729
1040
6.422481937485178
1070
     1
1040
0.9910391217603732
1040
6.422481937485177
1040
0.9910391217603732
1040
6.231609259544764
1070
     1
1040
0.9910391217603732
1040
6.231609259544764
1040
0.9969157436181447
1040
6.231609259544764
1070
     1
1040
0.9969157436181443
1040
6.231609259544764
1040
0.9969157436181443
1040
6.205752123370571
1070
     1
1040
0.9969157436181443
1040
6.20575212337057
1040
0.9930957470260313
1040
6.172044161104643
1070
     1
1040
0.9930957470260308
1040
6.172044161104643
1040
0.9370618445672622
1040
6.163535744497583
1070
     1
1040
0.9370618445672624
1040
6.163535744497584
1040
0.784564611442586
1040
6.164244796037742
1070
     1
1040
0.7845646114425862
1040
6.164244796037741
1040
0.6391602074093297
1040
6.19402422051668
1070
     1
1040
0.6391602074093294
1040
6.194024220516677
1040
0.446942693434303
1040
6.211750037979369
1070
     1
1040
0.4469426934343033
1040
6.21175003797937
1040
0.3022476452999154
1040
6.280526220501291
1070
     1
1040
0.3022476452999154
1040
6.280526220501291
1040
0.2603995052950394
1040
6.388299228357767
1070
     1
1040
0.2603995052950394
1040
6.388299228357767
1040
0.1923076995369042
1040
6.502453565492459
1070
     1
1040
0.1923076995369042
1040
6.502453565492459
1040
0.1802497962375505
1040
6.53037671479386
1070
     1
1040
0.1802497962375503
1040
6.53037671479386
1040
1.076720268446679
1040
6.530376714793861
1071
        0
1070
     0
1070
     1
1040
0.7853981633974483
1040
0.5849999454031217
1070
     0
1070
     6
1040
0.7853981633974483
1040
-0.0900925021824921
1040
1.337902593061711
1040
0.0
1040
0.2068287141941536
1070
     2
1040
0.1462499863507804
1040
-0.1462499863507804
1040
0.7853981633974483
1040
-0.1288728860938959
1040
1.376682976973115
1040
0.0
1040
0.2068287141941536
1070
     2
1040
0.1462499863507804
1040
-0.1462499863507804
1040
0.7853981633974483
1040
-0.1676532700052995
1040
1.415463360884519
1040
0.0
1040
0.2068287141941536
1070
     2
1040
0.1462499863507804
1040
-0.1462499863507804
1040
2.356194490192344
1040
-0.1676532700052995
1040
1.441316950158788
1040
-0.2068287141941536
1040
0.0
1070
     2
1040
0.1462499863507804
1040
-0.1462499863507804
1040
2.356194490192344
1040
-0.1288728860938959
1040
1.480097334070192
1040
-0.2068287141941536
1040
0.0
1070
     2
1040
0.1462499863507804
1040
-0.1462499863507804
1040
2.356194490192344
1040
-0.0900925021824921
1040
1.518877717981595
1040
-0.2068287141941536
1040
0.0
1070
     2
1040
0.1462499863507804
1040
-0.1462499863507804
1071
        1
1040
-0.0900925021824921
1040
1.337902593061711
1040
0.0
1002
}
  0
ARC
  5
B03
330
C95
100
AcDbEntity
  8
IMAGE
100
AcDbCircle
 10
0.8149217162143717
 20
6.614716306014457
 30
0.0
 40
0.1410282560048952
100
AcDbArc
 50
323.5307656099477
 51
52.72943909836341
  0
ARC
  5
B04
330
C95
100
AcDbEntity
  8
IMAGE
100
AcDbCircle
 10
1.047317246802514
 20
6.808089360112217
 30
0.0
 40
0.1410282560048952
100
AcDbArc
 50
159.7199718669747
 51
248.9186453553905
  0
ARC
  5
B05
330
C95
100
AcDbEntity
  8
IMAGE
100
AcDbCircle
 10
0.8643044565571486
 20
6.725381656828254
 30
0.0
 40
0.1410282560048952
100
AcDbArc
 50
339.7199718669747
 51
68.91864535539045
  0
ARC
  5
B06
330
C95
100
AcDbEntity
  8
IMAGE
100
AcDbCircle
 10
0.4196035610864188
 20
6.635196724428334
 30
0.0
 40
0.1410282560048952
100
AcDbArc
 50
143.5307656099477
 51
232.7294390983634
  0
ARC
  5
B07
330
C95
100
AcDbEntity
  8
IMAGE
100
AcDbCircle
 10
0.5225867095029815
 20
6.635196724428334
 30
0.0
 40
0.1410282560048952
100
AcDbArc
 50
143.5307656099477
 51
232.7294390983634
  0
ARC
  5
B08
330
C95
100
AcDbEntity
  8
IMAGE
100
AcDbCircle
 10
0.5397298608303904
 20
6.676124779328267
 30
0.0
 40
0.1410282560048952
100
AcDbArc
 50
278.5307656099478
 51
7.729439098363569
  0
ARC
  5
B09
330
C95
100
AcDbEntity
  8
IMAGE
100
AcDbCircle
 10
0.3237713160738403
 20
6.60679452536703
 30
0.0
 40
0.1410282560048952
100
AcDbArc
 50
323.5307656099477
 51
52.72943909836341
  0
ARC
  5
B0A
330
C95
100
AcDbEntity
  8
IMAGE
100
AcDbCircle
 10
0.6042532719898688
 20
6.758689886159203
 30
0.0
 40
0.1410282560048952
100
AcDbArc
 50
116.0563205359582
 51
205.2549940243739
  0
ARC
  5
B0B
330
C95
100
AcDbEntity
  8
IMAGE
100
AcDbCircle
 10
0.5324015047196995
 20
6.831854702054499
 30
0.0
 40
0.1410282560048952
100
AcDbArc
 50
159.7199718669747
 51
248.9186453553905
  0
ARC
  5
B0C
330
C95
100
AcDbEntity
  8
IMAGE
100
AcDbCircle
 10
0.3493887144743355
 20
6.749146998770539
 30
0.0
 40
0.1410282560048952
100
AcDbArc
 50
339.7199718669747
 51
68.91864535539045
  0
ARC
  5
B0D
330
C95
100
AcDbEntity
  8
IMAGE
100
AcDbCircle
 10
0.0861178966510035
 20
6.622638086661885
 30
0.0
 40
0.1410282560048952
100
AcDbArc
 50
323.5307656099477
 51
52.72943909836341
  0
ARC
  5
B0E
330
C95
100
AcDbEntity
  8
IMAGE
100
AcDbCircle
 10
0.3245421933172836
 20
6.76194521478718
 30
0.0
 40
0.1410282560048952
100
AcDbArc
 50
143.5307656099477
 51
232.7294390983634
  0
ARC
  5
B0F
330
C95
100
AcDbEntity
  8
IMAGE
100
AcDbCircle
 10
0.2849332900801444
 20
6.65104028572319
 30
0.0
 40
0.1410282560048952
100
AcDbArc
 50
143.5307656099477
 51
232.7294390983634
  0
ARC
  5
B10
330
C95
100
AcDbEntity
  8
IMAGE
100
AcDbCircle
 10
0.2207881676572778
 20
6.60679452536703
 30
0.0
 40
0.1410282560048952
100
AcDbArc
 50
323.5307656099477
 51
52.72943909836341
  0
ARC
  5
B11
330
C95
100
AcDbEntity
  8
IMAGE
100
AcDbCircle
 10
0.1257267998881426
 20
6.733543015725876
 30
0.0
 40
0.1410282560048952
100
AcDbArc
 50
323.5307656099477
 51
52.72943909836341
  0
ARC
  5
B12
330
C95
100
AcDbEntity
  8
IMAGE
100
AcDbCircle
 10
0.2307804155807023
 20
6.787029708392257
 30
0.0
 40
0.1410282560048952
100
AcDbArc
 50
278.5307656099478
 51
7.729439098363569
  0
ARC
  5
B13
330
C95
100
AcDbEntity
  8
IMAGE
100
AcDbCircle
 10
0.3914475160355789
 20
6.666529383051101
 30
0.0
 40
0.1410282560048952
100
AcDbArc
 50
98.53076560994793
 51
187.7294390983635
  0
ARC
  5
B14
330
C95
100
AcDbEntity
  8
IMAGE
100
AcDbCircle
 10
0.7754241726277545
 20
6.76527337695652
 30
0.0
 40
0.1410282560048952
100
AcDbArc
 50
116.0563205359582
 51
205.2549940243739
  0
ARC
  5
B15
330
C95
100
AcDbEntity
  8
IMAGE
100
AcDbCircle
 10
0.7137906242560184
 20
6.757068779417966
 30
0.0
 40
0.1410282560048952
100
AcDbArc
 50
339.7199718669747
 51
68.91864535539045
  0
ARC
  5
B16
330
C95
100
AcDbEntity
  8
IMAGE
100
AcDbCircle
 10
0.819356136571171
 20
6.642910749226123
 30
0.0
 40
0.1410282560048952
100
AcDbArc
 50
143.5307656099477
 51
232.7294390983634
  0
ARC
  5
B17
330
C95
100
AcDbEntity
  8
IMAGE
100
AcDbCircle
 10
0.6205407431420309
 20
6.614508550164819
 30
0.0
 40
0.1410282560048952
100
AcDbArc
 50
323.5307656099477
 51
52.72943909836341
  0
ARC
  5
B18
330
C95
100
AcDbEntity
  8
IMAGE
100
AcDbCircle
 10
0.5859283985836777
 20
6.831798539078369
 30
0.0
 40
0.1410282560048952
100
AcDbArc
 50
296.0563205359582
 51
25.2549940243739
  0
ARC
  5
B19
330
C95
100
AcDbEntity
  8
IMAGE
100
AcDbCircle
 10
0.8492727306168166
 20
6.776402237522505
 30
0.0
 40
0.1410282560048952
100
AcDbArc
 50
159.7199718669747
 51
248.9186453553905
  0
ARC
  5
B1A
330
C95
100
AcDbEntity
  8
IMAGE
100
AcDbCircle
 10
0.6240037605250115
 20
6.620436579415521
 30
0.0
 40
0.1410282560048952
100
AcDbArc
 50
116.0563205359582
 51
205.2549940243739
  0
ARC
  5
B1B
330
C95
100
AcDbEntity
  8
IMAGE
100
AcDbCircle
 10
0.4345079864809338
 20
6.68696174153737
 30
0.0
 40
0.1410282560048952
100
AcDbArc
 50
296.0563205359582
 51
25.2549940243739
  0
ARC
  5
B1C
330
C95
100
AcDbEntity
  8
IMAGE
100
AcDbCircle
 10
0.700396961285267
 20
6.55562445398711
 30
0.0
 40
0.1410282560048952
100
AcDbArc
 50
98.53076560994793
 51
187.7294390983635
  0
ARC
  5
B1D
330
C95
100
AcDbEntity
  8
IMAGE
100
AcDbCircle
 10
0.414757497945793
 20
6.825215048281052
 30
0.0
 40
0.1410282560048952
100
AcDbArc
 50
296.0563205359582
 51
25.2549940243739
  0
ARC
  5
B1E
330
C95
100
AcDbEntity
  8
IMAGE
100
AcDbCircle
 10
0.6889441030989674
 20
6.76194521478718
 30
0.0
 40
0.1410282560048952
100
AcDbArc
 50
143.5307656099477
 51
232.7294390983634
  0
ARC
  5
B1F
330
C95
100
AcDbEntity
  8
IMAGE
100
AcDbCircle
 10
0.4901287096698273
 20
6.733543015725876
 30
0.0
 40
0.1410282560048952
100
AcDbArc
 50
323.5307656099477
 51
52.72943909836341
  0
ARC
  5
B20
330
C95
100
AcDbEntity
  8
IMAGE
100
AcDbCircle
 10
1.013737109643511
 20
6.643118505075762
 30
0.0
 40
0.1410282560048952
100
AcDbArc
 50
143.5307656099477
 51
232.7294390983634
  0
ARC
  5
B21
330
C95
100
AcDbEntity
  8
IMAGE
100
AcDbCircle
 10
0.9265975225218037
 20
6.666883847018046
 30
0.0
 40
0.1410282560048952
100
AcDbArc
 50
143.5307656099477
 51
232.7294390983634
  0
ARC
  5
B22
330
C95
100
AcDbEntity
  8
IMAGE
100
AcDbCircle
 10
0.727782129092665
 20
6.638481647956741
 30
0.0
 40
0.1410282560048952
100
AcDbArc
 50
323.5307656099477
 51
52.72943909836341
  0
ARC
  5
B23
330
C95
100
AcDbEntity
  8
IMAGE
100
AcDbCircle
 10
0.6662599403714511
 20
6.693694534238542
 30
0.0
 40
0.1410282560048952
100
AcDbArc
 50
339.7199718669747
 51
68.91864535539045
  0
ARC
  5
B24
330
C95
100
AcDbEntity
  8
IMAGE
100
AcDbCircle
 10
0.8968034145013843
 20
6.839776482701927
 30
0.0
 40
0.1410282560048952
100
AcDbArc
 50
159.7199718669747
 51
248.9186453553905
  0
LINE
  5
B25
330
C95
100
AcDbEntity
  8
IMAGE
100
AcDbLine
 10
1.501952626075014
 20
6.469494912347349
 30
0.0
 11
1.501952626075014
 21
6.53037671479386
 31
0.0
  0
LINE
  5
B26
330
C95
100
AcDbEntity
  8
IMAGE
100
AcDbLine
 10
1.076720268446679
 20
6.469494912347349
 30
0.0
 11
1.076720268446679
 21
6.53037671479386
 31
0.0
  0
LINE
  5
B27
330
C95
100
AcDbEntity
  8
IMAGE
100
AcDbLine
 10
1.423983388101096
 20
6.53037671479386
 30
0.0
 11
1.458253728205171
 21
6.424607037323559
 31
0.0
  0
LINE
  5
B28
330
C95
100
AcDbEntity
  8
IMAGE
100
AcDbLine
 10
1.409841619892213
 20
6.53037671479386
 30
0.0
 11
1.444800511724518
 21
6.422481937485179
 31
0.0
  0
LWPOLYLINE
  5
B29
330
C95
100
AcDbEntity
  8
IMAGE
100
AcDbPolyline
 90
        7
 70
     0
 43
0.0
 10
1.409841619892213
 20
6.53037671479386
 10
1.409841619892213
 20
6.476371333343015
 42
0.1765198947497003
 10
1.412053752109539
 20
6.469502326648531
 42
-0.366645834674936
 10
1.42956200921984
 20
6.446353406245042
 42
0.0686056848706596
 10
1.431316841682438
 20
6.443185649498832
 10
1.437951897553739
 20
6.424571421312895
 42
0.2125570507766859
 10
1.444800511724517
 20
6.422481937485177
 42
1.724235137335015
  0
LINE
  5
B2A
330
C95
100
AcDbEntity
  8
IMAGE
100
AcDbLine
 10
1.501952626075014
 20
6.53037671479386
 30
0.0
 11
1.58763377276132
 21
6.422481937485179
 31
0.0
  0
LINE
  5
B2B
330
C95
100
AcDbEntity
  8
IMAGE
100
AcDbLine
 10
1.30414553434243
 20
6.53037671479386
 30
0.0
 11
1.30414553434243
 21
6.231609259544763
 31
0.0
  0
LINE
  5
B2C
330
C95
100
AcDbEntity
  8
IMAGE
100
AcDbLine
 10
1.274527360179262
 20
6.53037671479386
 30
0.0
 11
1.274527360179262
 21
6.231609259544763
 31
0.0
  0
LINE
  5
B2D
330
C95
100
AcDbEntity
  8
IMAGE
100
AcDbLine
 10
1.154689506420596
 20
6.53037671479386
 30
0.0
 11
1.120419166316522
 21
6.424607037323559
 31
0.0
  0
LINE
  5
B2E
330
C95
100
AcDbEntity
  8
IMAGE
100
AcDbLine
 10
1.076720268446679
 20
6.53037671479386
 30
0.0
 11
0.9910391217603732
 21
6.422481937485179
 31
0.0
  0
LWPOLYLINE
  5
B2F
330
C95
100
AcDbEntity
  8
IMAGE
100
AcDbPolyline
 90
        7
 70
     0
 43
0.0
 10
1.168831274629479
 20
6.53037671479386
 10
1.168831274629479
 20
6.476371333343015
 42
-0.1765198947497003
 10
1.166619142412153
 20
6.469502326648531
 42
0.366645834674936
 10
1.149110885301853
 20
6.446353406245042
 42
-0.0686056848706596
 10
1.147356052839255
 20
6.443185649498832
 10
1.140720996967954
 20
6.424571421312895
 42
-0.2125570507766859
 10
1.133872382797175
 20
6.422481937485177
 42
-1.724235137335015
  0
LINE
  5
B30
330
C95
100
AcDbEntity
  8
IMAGE
100
AcDbLine
 10
1.168831274629479
 20
6.53037671479386
 30
0.0
 11
1.133872382797175
 21
6.422481937485179
 31
0.0
  0
LINE
  5
B31
330
C95
100
AcDbEntity
  8
IMAGE
100
AcDbLine
 10
1.581757150903549
 20
6.205752123370572
 30
0.0
 11
0.9969157436181445
 21
6.205752123370572
 31
0.0
  0
LINE
  5
B32
330
C95
100
AcDbEntity
  8
IMAGE
100
AcDbLine
 10
1.581757150903549
 20
6.229258610801656
 30
0.0
 11
0.9969157436181445
 21
6.229258610801656
 31
0.0
  0
LINE
  5
B33
330
C95
100
AcDbEntity
  8
IMAGE
100
AcDbLine
 10
1.58763377276132
 20
6.231609259544763
 30
0.0
 11
0.9910391217603732
 21
6.231609259544763
 31
0.0
  0
LINE
  5
B34
330
C95
100
AcDbEntity
  8
IMAGE
100
AcDbLine
 10
1.501952626075014
 20
6.469494912347349
 30
0.0
 11
1.443709647326732
 21
6.469494912347347
 31
0.0
  0
LINE
  5
B35
330
C95
100
AcDbEntity
  8
IMAGE
100
AcDbLine
 10
1.581757150903549
 20
6.376174157245938
 30
0.0
 11
1.458253728205171
 21
6.376174157245941
 31
0.0
  0
LINE
  5
B36
330
C95
100
AcDbEntity
  8
IMAGE
100
AcDbLine
 10
1.568966856271929
 20
6.445988424916264
 30
0.0
 11
1.451325963630067
 21
6.445988424916264
 31
0.0
  0
LINE
  5
B37
330
C95
100
AcDbEntity
  8
IMAGE
100
AcDbLine
 10
1.581757150903549
 20
6.422481937485179
 30
0.0
 11
1.274527360179262
 21
6.422481937485179
 31
0.0
  0
LINE
  5
B38
330
C95
100
AcDbEntity
  8
IMAGE
100
AcDbLine
 10
1.274527360179261
 20
6.469494912347349
 30
0.0
 11
1.166586165453571
 21
6.469494912347349
 31
0.0
  0
LINE
  5
B39
330
C95
100
AcDbEntity
  8
IMAGE
100
AcDbLine
 10
1.274527360179262
 20
6.445988424916264
 30
0.0
 11
1.148963525628197
 21
6.445988424916264
 31
0.0
  0
LINE
  5
B3A
330
C95
100
AcDbEntity
  8
IMAGE
100
AcDbLine
 10
1.274527360179262
 20
6.422481937485179
 30
0.0
 11
0.9969157436181445
 21
6.422481937485179
 31
0.0
  0
LINE
  5
B3B
330
C95
100
AcDbEntity
  8
IMAGE
100
AcDbLine
 10
1.274527360179262
 20
6.376174157245938
 30
0.0
 11
1.133872382797176
 21
6.376174157245941
 31
0.0
  0
LINE
  5
B3C
330
C95
100
AcDbEntity
  8
IMAGE
100
AcDbLine
 10
1.18775870580294
 20
6.376174157245941
 30
0.0
 11
1.187758705802941
 21
6.231609259544763
 31
0.0
  0
LINE
  5
B3D
330
C95
100
AcDbEntity
  8
IMAGE
100
AcDbLine
 10
1.036561394172047
 20
6.376174157245941
 30
0.0
 11
1.036561394172047
 21
6.231609259544763
 31
0.0
  0
LINE
  5
B3E
330
C95
100
AcDbEntity
  8
IMAGE
100
AcDbLine
 10
1.043626684736912
 20
6.376174157245941
 30
0.0
 11
1.043626684736912
 21
6.231609259544763
 31
0.0
  0
LINE
  5
B3F
330
C95
100
AcDbEntity
  8
IMAGE
100
AcDbLine
 10
1.137315089626575
 20
6.376174157245941
 30
0.0
 11
1.137315089626575
 21
6.231609259544763
 31
0.0
  0
LINE
  5
B40
330
C95
100
AcDbEntity
  8
IMAGE
100
AcDbLine
 10
1.120419166316522
 20
6.424607037323559
 30
0.0
 11
1.120419166316522
 21
6.231609259544763
 31
0.0
  0
LINE
  5
B41
330
C95
100
AcDbEntity
  8
IMAGE
100
AcDbLine
 10
1.133872382797175
 20
6.422481937485179
 30
0.0
 11
1.133872382797176
 21
6.231609259544763
 31
0.0
  0
LINE
  5
B42
330
C95
100
AcDbEntity
  8
IMAGE
100
AcDbLine
 10
0.9910391217603732
 20
6.422481937485179
 30
0.0
 11
0.9910391217603732
 21
6.231609259544763
 31
0.0
  0
LINE
  5
B43
330
C95
100
AcDbEntity
  8
IMAGE
100
AcDbLine
 10
0.9969157436181445
 20
6.422481937485179
 30
0.0
 11
0.9969157436181445
 21
6.205752123370572
 31
0.0
  0
LINE
  5
B44
330
C95
100
AcDbEntity
  8
IMAGE
100
AcDbLine
 10
1.134963247194961
 20
6.469494912347349
 30
0.0
 11
1.076720268446679
 21
6.469494912347349
 31
0.0
  0
LINE
  5
B45
330
C95
100
AcDbEntity
  8
IMAGE
100
AcDbLine
 10
1.120419166316522
 20
6.376174157245941
 30
0.0
 11
0.9969157436181445
 21
6.376174157245938
 31
0.0
  0
LINE
  5
B46
330
C95
100
AcDbEntity
  8
IMAGE
100
AcDbLine
 10
1.127346930891627
 20
6.445988424916264
 30
0.0
 11
1.009706038249764
 21
6.445988424916264
 31
0.0
  0
LINE
  5
B47
330
C95
100
AcDbEntity
  8
IMAGE
100
AcDbLine
 10
1.009706038249764
 20
6.445988424916264
 30
0.0
 11
0.9969157436181445
 21
6.422481937485179
 31
0.0
  0
ARC
  5
B48
330
C95
100
AcDbEntity
  8
IMAGE
100
AcDbCircle
 10
1.076720268446679
 20
6.43552069223211
 30
0.0
 40
0.0339742201152407
100
AcDbArc
 50
89.9999999999998
 51
162.0547467702077
  0
LINE
  5
B49
330
C95
100
AcDbEntity
  8
IMAGE
100
AcDbLine
 10
1.441357804895118
 20
6.376174157245941
 30
0.0
 11
1.441357804895118
 21
6.231609259544763
 31
0.0
  0
LINE
  5
B4A
330
C95
100
AcDbEntity
  8
IMAGE
100
AcDbLine
 10
1.390914188718753
 20
6.376174157245941
 30
0.0
 11
1.390914188718753
 21
6.231609259544763
 31
0.0
  0
LINE
  5
B4B
330
C95
100
AcDbEntity
  8
IMAGE
100
AcDbLine
 10
1.367407701287667
 20
6.376174157245941
 30
0.0
 11
1.367407701287667
 21
6.231609259544763
 31
0.0
  0
LINE
  5
B4C
330
C95
100
AcDbEntity
  8
IMAGE
100
AcDbLine
 10
1.444800511724518
 20
6.422481937485179
 30
0.0
 11
1.444800511724518
 21
6.231609259544763
 31
0.0
  0
LINE
  5
B4D
330
C95
100
AcDbEntity
  8
IMAGE
100
AcDbLine
 10
1.458253728205171
 20
6.424607037323559
 30
0.0
 11
1.458253728205171
 21
6.231609259544763
 31
0.0
  0
LINE
  5
B4E
330
C95
100
AcDbEntity
  8
IMAGE
100
AcDbLine
 10
1.211265193234025
 20
6.376174157245941
 30
0.0
 11
1.211265193234025
 21
6.231609259544763
 31
0.0
  0
LINE
  5
B4F
330
C95
100
AcDbEntity
  8
IMAGE
100
AcDbLine
 10
1.412086729068122
 20
6.469494912347349
 30
0.0
 11
1.30414553434243
 21
6.469494912347349
 31
0.0
  0
LINE
  5
B50
330
C95
100
AcDbEntity
  8
IMAGE
100
AcDbLine
 10
1.444800511724518
 20
6.376174157245938
 30
0.0
 11
1.304145534342431
 21
6.376174157245938
 31
0.0
  0
LINE
  5
B51
330
C95
100
AcDbEntity
  8
IMAGE
100
AcDbLine
 10
1.429709368893495
 20
6.445988424916264
 30
0.0
 11
1.304145534342431
 21
6.445988424916264
 31
0.0
  0
LINE
  5
B52
330
C95
100
AcDbEntity
  8
IMAGE
100
AcDbLine
 10
1.542111500349647
 20
6.376174157245941
 30
0.0
 11
1.542111500349646
 21
6.231609259544763
 31
0.0
  0
LINE
  5
B53
330
C95
100
AcDbEntity
  8
IMAGE
100
AcDbLine
 10
1.535046209784782
 20
6.376174157245941
 30
0.0
 11
1.535046209784781
 21
6.231609259544763
 31
0.0
  0
LINE
  5
B54
330
C95
100
AcDbEntity
  8
IMAGE
100
AcDbLine
 10
1.58763377276132
 20
6.422481937485179
 30
0.0
 11
1.58763377276132
 21
6.231609259544763
 31
0.0
  0
LINE
  5
B55
330
C95
100
AcDbEntity
  8
IMAGE
100
AcDbLine
 10
1.581757150903549
 20
6.422481937485179
 30
0.0
 11
1.581757150903549
 21
6.205752123370572
 31
0.0
  0
LINE
  5
B56
330
C95
100
AcDbEntity
  8
IMAGE
100
AcDbLine
 10
1.568966856271929
 20
6.445988424916264
 30
0.0
 11
1.581757150903549
 21
6.422481937485179
 31
0.0
  0
ARC
  5
B57
330
C95
100
AcDbEntity
  8
IMAGE
100
AcDbCircle
 10
1.501952626075014
 20
6.43552069223211
 30
0.0
 40
0.0339742201152407
100
AcDbArc
 50
17.94525322979223
 51
90.00000000000017
  0
LINE
  5
B58
330
C95
100
AcDbEntity
  8
IMAGE
100
AcDbLine
 10
1.501952626075014
 20
6.53037671479386
 30
0.0
 11
1.076720268446679
 21
6.53037671479386
 31
0.0
  0
LINE
  5
B59
330
C95
100
AcDbEntity
  8
IMAGE
100
AcDbLine
 10
1.488201330927829
 20
6.547301385744242
 30
0.0
 11
1.090471563593864
 21
6.547301385744242
 31
0.0
  0
LINE
  5
B5A
330
C95
100
AcDbEntity
  8
IMAGE
100
AcDbLine
 10
1.482677306381524
 20
6.587262414377088
 30
0.0
 11
1.095995588140169
 21
6.587262414377088
 31
0.0
  0
LINE
  5
B5B
330
C95
100
AcDbEntity
  8
IMAGE
100
AcDbLine
 10
1.478798735955395
 20
6.604892279950403
 30
0.0
 11
1.099874158566298
 21
6.604892279950403
 31
0.0
  0
LINE
  5
B5C
330
C95
100
AcDbEntity
  8
IMAGE
100
AcDbLine
 10
1.451178613223871
 20
6.604892279950403
 30
0.0
 11
1.127494281297825
 21
6.604892279950402
 31
0.0
  0
LINE
  5
B5D
330
C95
100
AcDbEntity
  8
IMAGE
100
AcDbLine
 10
1.409851729021842
 20
6.604892279950403
 30
0.0
 11
1.163033616539363
 21
6.604892279950403
 31
0.0
  0
LINE
  5
B5E
330
C95
100
AcDbEntity
  8
IMAGE
100
AcDbLine
 10
1.120089737757032
 20
6.547301385744242
 30
0.0
 11
1.120089737757032
 21
6.53037671479386
 31
0.0
  0
LINE
  5
B5F
330
C95
100
AcDbEntity
  8
IMAGE
100
AcDbLine
 10
1.095995588140169
 20
6.587262414377088
 30
0.0
 11
1.090471563593864
 21
6.547301385744242
 31
0.0
  0
LINE
  5
B60
330
C95
100
AcDbEntity
  8
IMAGE
100
AcDbLine
 10
1.099874158566298
 20
6.604892279950403
 30
0.0
 11
1.099874158566298
 21
6.587262414377088
 31
0.0
  0
LINE
  5
B61
330
C95
100
AcDbEntity
  8
IMAGE
100
AcDbLine
 10
1.458583156764662
 20
6.547301385744242
 30
0.0
 11
1.458583156764662
 21
6.53037671479386
 31
0.0
  0
ARC
  5
B62
330
C95
100
AcDbEntity
  8
IMAGE
100
AcDbCircle
 10
2.004162011880127
 20
6.781745690227818
 30
0.0
 40
0.1410282560048952
100
AcDbArc
 50
116.0563205359582
 51
205.2549940243739
  0
ARC
  5
B63
330
C95
100
AcDbEntity
  8
IMAGE
100
AcDbCircle
 10
1.932310244609958
 20
6.854910506123115
 30
0.0
 40
0.1410282560048952
100
AcDbArc
 50
159.7199718669747
 51
248.9186453553905
  0
ARC
  5
B64
330
C95
100
AcDbEntity
  8
IMAGE
100
AcDbCircle
 10
1.749297454364592
 20
6.772202802839154
 30
0.0
 40
0.1410282560048952
100
AcDbArc
 50
339.7199718669747
 51
68.91864535539045
  0
ARC
  5
B65
330
C95
100
AcDbEntity
  8
IMAGE
100
AcDbCircle
 10
1.819512300976676
 20
6.65825252849695
 30
0.0
 40
0.1410282560048952
100
AcDbArc
 50
143.5307656099477
 51
232.7294390983634
  0
ARC
  5
B66
330
C95
100
AcDbEntity
  8
IMAGE
100
AcDbCircle
 10
1.620696907547536
 20
6.629850329435645
 30
0.0
 40
0.1410282560048952
100
AcDbArc
 50
323.5307656099477
 51
52.72943909836341
  0
ARC
  5
B67
330
C95
100
AcDbEntity
  8
IMAGE
100
AcDbCircle
 10
1.630689155470959
 20
6.810085512460873
 30
0.0
 40
0.1410282560048952
100
AcDbArc
 50
278.5307656099478
 51
7.729439098363569
  0
ARC
  5
B68
330
C95
100
AcDbEntity
  8
IMAGE
100
AcDbCircle
 10
1.791356255925836
 20
6.689585187119718
 30
0.0
 40
0.1410282560048952
100
AcDbArc
 50
98.53076560994793
 51
187.7294390983635
  0
ARC
  5
B69
330
C95
100
AcDbEntity
  8
IMAGE
100
AcDbCircle
 10
1.724450933207541
 20
6.785001018855796
 30
0.0
 40
0.1410282560048952
100
AcDbArc
 50
143.5307656099477
 51
232.7294390983634
  0
ARC
  5
B6A
330
C95
100
AcDbEntity
  8
IMAGE
100
AcDbCircle
 10
1.5256355397784
 20
6.756598819794492
 30
0.0
 40
0.1410282560048952
100
AcDbArc
 50
323.5307656099477
 51
52.72943909836341
  0
ARC
  5
B6B
330
C95
100
AcDbEntity
  8
IMAGE
100
AcDbCircle
 10
1.684842029970401
 20
6.674096089791806
 30
0.0
 40
0.1410282560048952
100
AcDbArc
 50
143.5307656099477
 51
232.7294390983634
  0
ARC
  5
B6C
330
C95
100
AcDbEntity
  8
IMAGE
100
AcDbCircle
 10
1.48602663654126
 20
6.6456938907305
 30
0.0
 40
0.1410282560048952
100
AcDbArc
 50
323.5307656099477
 51
52.72943909836341
  0
LINE
  5
B6D
330
C95
100
AcDbEntity
  8
IMAGE
100
AcDbLine
 10
1.482677306381524
 20
6.587262414377088
 30
0.0
 11
1.488201330927829
 21
6.547301385744242
 31
0.0
  0
LINE
  5
B6E
330
C95
100
AcDbEntity
  8
IMAGE
100
AcDbLine
 10
1.478798735955395
 20
6.604892279950403
 30
0.0
 11
1.478798735955395
 21
6.587262414377088
 31
0.0
  0
ARC
  5
B6F
330
C95
100
AcDbEntity
  8
IMAGE
100
AcDbCircle
 10
2.023912500415269
 20
6.643492383484137
 30
0.0
 40
0.1410282560048952
100
AcDbArc
 50
116.0563205359582
 51
205.2549940243739
  0
ARC
  5
B70
330
C95
100
AcDbEntity
  8
IMAGE
100
AcDbCircle
 10
1.92249544939324
 20
6.65825252849695
 30
0.0
 40
0.1410282560048952
100
AcDbArc
 50
143.5307656099477
 51
232.7294390983634
  0
ARC
  5
B71
330
C95
100
AcDbEntity
  8
IMAGE
100
AcDbCircle
 10
1.723680055964098
 20
6.629850329435645
 30
0.0
 40
0.1410282560048952
100
AcDbArc
 50
323.5307656099477
 51
52.72943909836341
  0
ARC
  5
B72
330
C95
100
AcDbEntity
  8
IMAGE
100
AcDbCircle
 10
2.881041613846031
 20
6.740377596615745
 30
0.0
 40
0.1410282560048952
100
AcDbArc
 50
339.7199718669747
 51
68.91864535539045
  0
ARC
  5
B73
330
C95
100
AcDbEntity
  8
IMAGE
100
AcDbCircle
 10
3.064054404091397
 20
6.823085299899708
 30
0.0
 40
0.1410282560048952
100
AcDbArc
 50
159.7199718669747
 51
248.9186453553905
  0
ARC
  5
B74
330
C95
100
AcDbEntity
  8
IMAGE
100
AcDbCircle
 10
2.831658873503254
 20
6.629712245801949
 30
0.0
 40
0.1410282560048952
100
AcDbArc
 50
323.5307656099477
 51
52.72943909836341
  0
ARC
  5
B75
330
C95
100
AcDbEntity
  8
IMAGE
100
AcDbCircle
 10
2.344362639638374
 20
6.719806174388999
 30
0.0
 40
0.1410282560048952
100
AcDbArc
 50
339.7199718669747
 51
68.91864535539045
  0
ARC
  5
B76
330
C95
100
AcDbEntity
  8
IMAGE
100
AcDbCircle
 10
2.527375429883741
 20
6.802513877672961
 30
0.0
 40
0.1410282560048952
100
AcDbArc
 50
159.7199718669747
 51
248.9186453553905
  0
ARC
  5
B77
330
C95
100
AcDbEntity
  8
IMAGE
100
AcDbCircle
 10
2.604700221788728
 20
6.692995487168503
 30
0.0
 40
0.1410282560048952
100
AcDbArc
 50
143.5307656099477
 51
232.7294390983634
  0
ARC
  5
B78
330
C95
100
AcDbEntity
  8
IMAGE
100
AcDbCircle
 10
2.574906113768308
 20
6.865888122852386
 30
0.0
 40
0.1410282560048952
100
AcDbArc
 50
159.7199718669747
 51
248.9186453553905
  0
ARC
  5
B79
330
C95
100
AcDbEntity
  8
IMAGE
100
AcDbCircle
 10
2.391893323522943
 20
6.783180419568422
 30
0.0
 40
0.1410282560048952
100
AcDbArc
 50
339.7199718669747
 51
68.91864535539045
  0
ARC
  5
B7A
330
C95
100
AcDbEntity
  8
IMAGE
100
AcDbCircle
 10
2.175332912518013
 20
6.788329181025137
 30
0.0
 40
0.1410282560048952
100
AcDbArc
 50
116.0563205359582
 51
205.2549940243739
  0
ARC
  5
B7B
330
C95
100
AcDbEntity
  8
IMAGE
100
AcDbCircle
 10
1.985837138473935
 20
6.854854343146985
 30
0.0
 40
0.1410282560048952
100
AcDbArc
 50
296.0563205359582
 51
25.2549940243739
  0
ARC
  5
B7C
330
C95
100
AcDbEntity
  8
IMAGE
100
AcDbCircle
 10
2.113699364146277
 20
6.780124583486581
 30
0.0
 40
0.1410282560048952
100
AcDbArc
 50
339.7199718669747
 51
68.91864535539045
  0
ARC
  5
B7D
330
C95
100
AcDbEntity
  8
IMAGE
100
AcDbCircle
 10
2.296712154391642
 20
6.862832286770542
 30
0.0
 40
0.1410282560048952
100
AcDbArc
 50
159.7199718669747
 51
248.9186453553905
  0
ARC
  5
B7E
330
C95
100
AcDbEntity
  8
IMAGE
100
AcDbCircle
 10
2.264213196447406
 20
6.748437460896869
 30
0.0
 40
0.1410282560048952
100
AcDbArc
 50
339.7199718669747
 51
68.91864535539045
  0
ARC
  5
B7F
330
C95
100
AcDbEntity
  8
IMAGE
100
AcDbCircle
 10
2.326506262412062
 20
6.689939651086661
 30
0.0
 40
0.1410282560048952
100
AcDbArc
 50
143.5307656099477
 51
232.7294390983634
  0
ARC
  5
B80
330
C95
100
AcDbEntity
  8
IMAGE
100
AcDbCircle
 10
2.127690868982922
 20
6.661537452025356
 30
0.0
 40
0.1410282560048952
100
AcDbArc
 50
323.5307656099477
 51
52.72943909836341
  0
ARC
  5
B81
330
C95
100
AcDbEntity
  8
IMAGE
100
AcDbCircle
 10
2.066168680261708
 20
6.716750338307157
 30
0.0
 40
0.1410282560048952
100
AcDbArc
 50
339.7199718669747
 51
68.91864535539045
  0
ARC
  5
B82
330
C95
100
AcDbEntity
  8
IMAGE
100
AcDbCircle
 10
1.890037449560085
 20
6.756598819794492
 30
0.0
 40
0.1410282560048952
100
AcDbArc
 50
323.5307656099477
 51
52.72943909836341
  0
ARC
  5
B83
330
C95
100
AcDbEntity
  8
IMAGE
100
AcDbCircle
 10
2.203553480836207
 20
6.673819088200497
 30
0.0
 40
0.1410282560048952
100
AcDbArc
 50
143.5307656099477
 51
232.7294390983634
  0
ARC
  5
B84
330
C95
100
AcDbEntity
  8
IMAGE
100
AcDbCircle
 10
2.004738087407067
 20
6.645416889139191
 30
0.0
 40
0.1410282560048952
100
AcDbArc
 50
323.5307656099477
 51
52.72943909836341
  0
ARC
  5
B85
330
C95
100
AcDbEntity
  8
IMAGE
100
AcDbCircle
 10
2.249181470507075
 20
6.799458041591121
 30
0.0
 40
0.1410282560048952
100
AcDbArc
 50
159.7199718669747
 51
248.9186453553905
  0
ARC
  5
B86
330
C95
100
AcDbEntity
  8
IMAGE
100
AcDbCircle
 10
2.506873782115072
 20
6.668548742639879
 30
0.0
 40
0.1410282560048952
100
AcDbArc
 50
143.5307656099477
 51
232.7294390983634
  0
ARC
  5
B87
330
C95
100
AcDbEntity
  8
IMAGE
100
AcDbCircle
 10
2.308058388685933
 20
6.640146543578575
 30
0.0
 40
0.1410282560048952
100
AcDbArc
 50
323.5307656099477
 51
52.72943909836341
  0
ARC
  5
B88
330
C95
100
AcDbEntity
  8
IMAGE
100
AcDbCircle
 10
2.413645849533771
 20
6.666174309144377
 30
0.0
 40
0.1410282560048952
100
AcDbArc
 50
143.5307656099477
 51
232.7294390983634
  0
ARC
  5
B89
330
C95
100
AcDbEntity
  8
IMAGE
100
AcDbCircle
 10
2.21483045610463
 20
6.637772110083073
 30
0.0
 40
0.1410282560048952
100
AcDbArc
 50
323.5307656099477
 51
52.72943909836341
  0
ARC
  5
B8A
330
C95
100
AcDbEntity
  8
IMAGE
100
AcDbCircle
 10
2.447225986692772
 20
6.831145164180832
 30
0.0
 40
0.1410282560048952
100
AcDbArc
 50
159.7199718669747
 51
248.9186453553905
  0
ARC
  5
B8B
330
C95
100
AcDbEntity
  8
IMAGE
100
AcDbCircle
 10
2.913540571790266
 20
6.854772422489419
 30
0.0
 40
0.1410282560048952
100
AcDbArc
 50
159.7199718669747
 51
248.9186453553905
  0
ARC
  5
B8C
330
C95
100
AcDbEntity
  8
IMAGE
100
AcDbCircle
 10
2.730527781544902
 20
6.772064719205457
 30
0.0
 40
0.1410282560048952
100
AcDbArc
 50
339.7199718669747
 51
68.91864535539045
  0
ARC
  5
B8D
330
C95
100
AcDbEntity
  8
IMAGE
100
AcDbCircle
 10
2.60266555587256
 20
6.846794478865861
 30
0.0
 40
0.1410282560048952
100
AcDbArc
 50
296.0563205359582
 51
25.2549940243739
  0
ARC
  5
B8E
330
C95
100
AcDbEntity
  8
IMAGE
100
AcDbCircle
 10
2.792161329916637
 20
6.780269316744012
 30
0.0
 40
0.1410282560048952
100
AcDbArc
 50
116.0563205359582
 51
205.2549940243739
  0
ARC
  5
B8F
330
C95
100
AcDbEntity
  8
IMAGE
100
AcDbCircle
 10
2.542407155824072
 20
6.751493296978711
 30
0.0
 40
0.1410282560048952
100
AcDbArc
 50
339.7199718669747
 51
68.91864535539045
  0
ARC
  5
B90
330
C95
100
AcDbEntity
  8
IMAGE
100
AcDbCircle
 10
2.568908449161341
 20
6.699146174938969
 30
0.0
 40
0.1410282560048952
100
AcDbArc
 50
296.0563205359582
 51
25.2549940243739
  0
ARC
  5
B91
330
C95
100
AcDbEntity
  8
IMAGE
100
AcDbCircle
 10
2.866009887905699
 20
6.791398177309998
 30
0.0
 40
0.1410282560048952
100
AcDbArc
 50
159.7199718669747
 51
248.9186453553905
  0
ARC
  5
B92
330
C95
100
AcDbEntity
  8
IMAGE
100
AcDbCircle
 10
2.621566504805691
 20
6.637357024858069
 30
0.0
 40
0.1410282560048952
100
AcDbArc
 50
323.5307656099477
 51
52.72943909836341
  0
ARC
  5
B93
330
C95
100
AcDbEntity
  8
IMAGE
100
AcDbCircle
 10
2.820381898234831
 20
6.665759223919373
 30
0.0
 40
0.1410282560048952
100
AcDbArc
 50
143.5307656099477
 51
232.7294390983634
  0
ARC
  5
B94
330
C95
100
AcDbEntity
  8
IMAGE
100
AcDbCircle
 10
2.758404223205416
 20
6.632621012817121
 30
0.0
 40
0.1410282560048952
100
AcDbArc
 50
116.0563205359582
 51
205.2549940243739
  0
ARC
  5
B95
330
C95
100
AcDbEntity
  8
IMAGE
100
AcDbCircle
 10
2.725419946069439
 20
6.834201000262674
 30
0.0
 40
0.1410282560048952
100
AcDbArc
 50
159.7199718669747
 51
248.9186453553905
  0
ARC
  5
B96
330
C95
100
AcDbEntity
  8
IMAGE
100
AcDbCircle
 10
2.405884828359588
 20
6.664593288107198
 30
0.0
 40
0.1410282560048952
100
AcDbArc
 50
323.5307656099477
 51
52.72943909836341
  0
ARC
  5
B97
330
C95
100
AcDbEntity
  8
IMAGE
100
AcDbCircle
 10
2.493024415481296
 20
6.640827946164916
 30
0.0
 40
0.1410282560048952
100
AcDbArc
 50
323.5307656099477
 51
52.72943909836341
  0
ARC
  5
B98
330
C95
100
AcDbEntity
  8
IMAGE
100
AcDbCircle
 10
2.691839808910437
 20
6.669230145226219
 30
0.0
 40
0.1410282560048952
100
AcDbArc
 50
143.5307656099477
 51
232.7294390983634
  0
ARC
  5
B99
330
C95
100
AcDbEntity
  8
IMAGE
100
AcDbCircle
 10
2.682997097660333
 20
6.708690474026033
 30
0.0
 40
0.1410282560048952
100
AcDbArc
 50
339.7199718669747
 51
68.91864535539045
  0
ARC
  5
B9A
330
C95
100
AcDbEntity
  8
IMAGE
100
AcDbCircle
 10
2.744519286381548
 20
6.653477587744232
 30
0.0
 40
0.1410282560048952
100
AcDbArc
 50
323.5307656099477
 51
52.72943909836341
  0
ARC
  5
B9B
330
C95
100
AcDbEntity
  8
IMAGE
100
AcDbCircle
 10
2.943334679810687
 20
6.681879786805537
 30
0.0
 40
0.1410282560048952
100
AcDbArc
 50
143.5307656099477
 51
232.7294390983634
  0
ARC
  5
B9C
330
C95
100
AcDbEntity
  8
IMAGE
100
AcDbCircle
 10
3.030474266932396
 20
6.658114444863254
 30
0.0
 40
0.1410282560048952
100
AcDbArc
 50
143.5307656099477
 51
232.7294390983634
  0
SOLID
  5
CDC
330
C95
100
AcDbEntity
  8
INSTRUCT-CALLOUT
100
AcDbTrace
 10
13.31062830642298
 20
7.608609992753395
 30
0.0
 11
13.32643060007732
 21
7.550728324539166
 31
0.0
 12
13.14488444860747
 22
7.532262277683264
 32
0.0
 13
13.14488444860747
 23
7.532262277683264
 33
0.0
  0
LINE
  5
CDD
330
C95
100
AcDbEntity
  8
INSTRUCT-CALLOUT
100
AcDbLine
 10
13.24135389563118
 20
7.55859943377383
 30
0.0
 11
13.49723531255603
 21
7.628457705238448
 31
0.0
  0
TEXT
  5
CDE
330
C95
100
AcDbEntity
  8
INSTRUCT-CALLOUT
100
AcDbText
 10
13.59737358543534
 20
7.607109511629955
 30
0.0
 40
0.125
  1
1
  7
ROMANS
 72
     4
 11
13.64796882353058
 21
7.669609511629955
 31
0.0
100
AcDbText
  0
CIRCLE
  5
CDF
330
C95
100
AcDbEntity
  8
INSTRUCT-CALLOUT
100
AcDbCircle
 10
13.64796882353058
 20
7.669609511629955
 30
0.0
 40
0.15625
  0
LWPOLYLINE
  5
CE0
330
C95
100
AcDbEntity
  8
INSTRUCT-CALLOUT
100
AcDbPolyline
 90
        4
 70
     1
 43
0.0
 10
10.52923236019664
 20
8.780281498567864
 10
10.52923236019664
 20
7.348795477225621
 10
15.40819770289755
 20
7.348795477225621
 10
15.40819770289755
 20
8.780281498567864
  0
TEXT
  5
CE1
330
C95
100
AcDbEntity
  8
INSTRUCT-CALLOUT
100
AcDbText
 10
10.56825970599194
 20
8.837396986001314
 30
0.0
 40
0.125
  1
CHOOSING EQUIPMENT CALLOUT METHOD
  7
ROMANS
100
AcDbText
  0
TEXT
  5
CE2
330
C95
100
AcDbEntity
  8
INSTRUCT-CALLOUT
100
AcDbText
 10
10.56825970599194
 20
8.487396986001312
 30
0.0
 40
0.125
  1
CHOOSE EITHER LEADERS OR BUBBLE CALLOUTS
  7
ROMANS
100
AcDbText
  0
TEXT
  5
CE3
330
C95
100
AcDbEntity
  8
INSTRUCT-CALLOUT
100
AcDbText
 10
10.56825970599194
 20
8.312396986001315
 30
0.0
 40
0.125
  1
BY TURNING ON THE APPROPRIATE LAYER:
  7
ROMANS
100
AcDbText
  0
TEXT
  5
CE4
330
C95
100
AcDbEntity
  8
INSTRUCT-CALLOUT
100
AcDbText
 10
10.56825970599194
 20
7.96239698600131
 30
0.0
 40
0.125
  1
TEXT_LEADERS         TEXT_BUBBLES
  7
ROMANS
100
AcDbText
  0
LINE
  5
CE5
330
C95
100
AcDbEntity
  8
INSTRUCT-CALLOUT
100
AcDbLine
 10
11.37054339531155
 20
7.711897334146391
 30
0.0
 11
11.50681194117018
 21
7.711897334146391
 31
0.0
  0
LINE
  5
CE6
330
C95
100
AcDbEntity
  8
INSTRUCT-CALLOUT
100
AcDbLine
 10
11.08277298083323
 20
7.592145632340111
 30
0.0
 11
11.37054339531155
 21
7.711897334146391
 31
0.0
  0
SOLID
  5
CE7
330
C95
100
AcDbEntity
  8
INSTRUCT-CALLOUT
100
AcDbTrace
 10
11.16815897837356
 20
7.595183958201998
 30
0.0
 11
11.14510709348182
 21
7.650578999522844
 31
0.0
 12
10.99044791196515
 22
7.553725824187223
 32
0.0
 13
10.99044791196515
 23
7.553725824187223
 33
0.0
  0
TEXT
  5
CE8
330
C95
100
AcDbEntity
  8
INSTRUCT-CALLOUT
100
AcDbText
 10
11.53278667818731
 20
7.64714672475249
 30
0.0
 40
0.125
  1
ITEM 1
  7
ROMANS
100
AcDbText
  0
TEXT
  5
CE9
330
C95
100
AcDbEntity
  8
INSTRUCT-CALLOUT
100
AcDbText
 10
10.56825970599194
 20
6.96783937052449
 30
0.0
 40
0.125
  1
LAYER "INSTRUCT-CALLOUT".
  7
ROMANS
100
AcDbText
  0
TEXT
  5
CEA
330
C95
100
AcDbEntity
  8
INSTRUCT-CALLOUT
100
AcDbText
 10
10.56825970599194
 20
7.142839370524491
 30
0.0
 40
0.125
  1
TO TURN OFF THIS INSTRUCTION BOX, TURN OFF
  7
ROMANS
100
AcDbText
  0
TEXT
  5
CEF
330
C95
100
AcDbEntity
  8
TEXT_BUBBLES
100
AcDbText
 10
5.14145639
 20
6.191232542435546
 30
0.0
 40
0.125
  1
FINISH GRADE
  7
ROMANS
100
AcDbText
  0
TEXT
  5
CF0
330
C95
100
AcDbEntity
  8
TEXT_BUBBLES
100
AcDbText
 10
5.14145639
 20
5.841232542435546
 30
0.0
 40
0.125
  1
ROTOR POP-UP SPRINKLER:
  7
ROMANS
100
AcDbText
  0
TEXT
  5
CF1
330
C95
100
AcDbEntity
  8
TEXT_BUBBLES
100
AcDbText
 10
5.14145639
 20
5.666232542435547
 30
0.0
 40
0.125
  1
  RAIN BIRD 5012
  7
ROMANS
100
AcDbText
  0
LEADER
  5
CF9
330
C95
100
AcDbEntity
  8
TEXT_BUBBLES
100
AcDbLeader
  3
STANDARD
 76
     2
 10
3.116485418558106
 20
6.532322219934911
 30
0.0
 10
3.578030545341552
 20
6.893102931443354
 30
0.0
  0
LEADER
  5
CFA
330
C95
100
AcDbEntity
  8
TEXT_BUBBLES
100
AcDbLeader
  3
STANDARD
 76
     2
 10
1.524401321571701
 20
4.88821866911631
 30
0.0
 10
3.553680956992025
 20
5.40865019017899
 30
0.0
  0
INSERT
  5
D12
330
C95
100
AcDbEntity
  8
TITLE
100
AcDbBlockReference
 66
     1
  2
titleblock
 10
-0.9365220831799891
 20
-1.366025725571609
 30
0.0
  0
ATTRIB
  5
D13
330
D12
100
AcDbEntity
  8
TITLE
100
AcDbText
 10
-0.4309664793776472
 20
-0.5817986290932425
 30
0.0
 40
0.2
  1
D
  7
L200
 72
     4
 11
-0.3300797126655053
 21
-0.4817986290932425
 31
0.0
100
AcDbAttribute
  2
D
 70
     0
  0
ATTRIB
  5
D14
330
D12
100
AcDbEntity
  8
TITLE
100
AcDbText
 10
0.2949202873344949
 20
-0.0223134228248592
 30
0.0
 40
0.2
  1

  7
L200
100
AcDbAttribute
  2
TITLE1
 70
     0
  0
ATTRIB
  5
D15
330
D12
100
AcDbEntity
  8
TITLE
100
AcDbText
 10
0.2949202873344949
 20
-0.3817986290932422
 30
0.0
 40
0.2
  1
ROTOR POP-UP SPRINKLER
  7
L200
100
AcDbAttribute
  2
TITLE2
 70
     0
  0
ATTRIB
  5
D16
330
D12
100
AcDbEntity
  8
TITLE
100
AcDbText
 10
1.777123667988323
 20
-0.7732329591132908
 30
0.0
 40
0.2
  1
5012
  7
L200
100
AcDbAttribute
  2
TITLE3
 70
     0
  0
ATTRIB
  5
D17
330
D12
100
AcDbEntity
  8
TITLE
100
AcDbText
 10
1.777123667988323
 20
-1.096769644754835
 30
0.0
 40
0.2
  1

  7
L200
100
AcDbAttribute
  2
TITLE4
 70
     0
  0
ATTRIB
  5
D18
330
D12
100
AcDbEntity
  8
TITLE
 62
     7
100
AcDbText
 10
6.753073699167343
 20
-0.3964229340269698
 30
0.0
 40
0.08
  1
4-27-04
  7
L80
 72
     2
 11
7.324502270595914
 21
-0.3964229340269698
 31
0.0
100
AcDbAttribute
  2
REVISED
 70
     0
  0
ATTRIB
  5
D19
330
D12
100
AcDbEntity
  8
TITLE
 62
     7
100
AcDbText
 10
-0.6725797126655053
 20
-1.281314077550888
 30
0.0
 40
0.08
  1
R-5012-SJ.DWG
  7
L80
100
AcDbAttribute
  2
DWG-NAME
 70
     0
  0
ATTRIB
  5
D1A
330
D12
100
AcDbEntity
  8
TITLE
 62
     7
100
AcDbText
 10
0.2949202873344949
 20
-0.6654619461761203
 30
0.0
 40
0.1
  1
N.T.S.
  7
L100
100
AcDbAttribute
  2
SCALE
 70
     0
  0
SEQEND
  5
D1B
330
D12
100
AcDbEntity
  8
0
  0
LEADER
  5
D26
330
C95
100
AcDbEntity
  8
TEXT_LEADERS
100
AcDbLeader
  3
STANDARD
 76
     3
 10
3.158014526441178
 20
6.53037671479386
 30
0.0
 10
4.751345907885146
 20
6.245816156786132
 30
0.0
 10
5.075561874284991
 20
6.245816156786132
 30
0.0
  0
LEADER
  5
D27
330
C95
100
AcDbEntity
  8
TEXT_LEADERS
100
AcDbLeader
  3
STANDARD
 76
     3
 10
1.521419841257879
 20
4.973500039873216
 30
0.0
 10
4.74379347917876
 20
5.902809301851977
 30
0.0
 10
5.075561874284991
 20
5.902809301851977
 30
0.0
  0
TEXT
  5
D34
330
C95
100
AcDbEntity
  8
TEXT-SJ-LEADERS
100
AcDbText
 10
5.134884859999999
 20
2.551347997583528
 30
0.0
 40
0.125
  1
PVC SCH 80 NIPPLE
  7
ROMANS
100
AcDbText
  0
TEXT
  5
D3A
330
C95
100
AcDbEntity
  8
TEXT-SJ-LEADERS
100
AcDbText
 10
5.134884859999999
 20
3.776347997583528
 30
0.0
 40
0.125
  1
PVC SCH 80 NIPPLE
  7
ROMANS
100
AcDbText
  0
TEXT
  5
D3B
330
C95
100
AcDbEntity
  8
TEXT-SJ-LEADERS
100
AcDbText
 10
5.134884859999999
 20
2.901347997583528
 30
0.0
 40
0.125
  1
PVC SCH 40 STREET ELL
  7
ROMANS
100
AcDbText
  0
TEXT
  5
D3C
330
C95
100
AcDbEntity
  8
TEXT-SJ-LEADERS
100
AcDbText
 10
5.134884859999999
 20
2.376347997583527
 30
0.0
 40
0.125
  1
  (LENGTH AS REQUIRED)
  7
ROMANS
100
AcDbText
  0
TEXT
  5
D3D
330
C95
100
AcDbEntity
  8
TEXT-SJ-LEADERS
100
AcDbText
 10
5.134884859999999
 20
2.026347997583528
 30
0.0
 40
0.125
  1
PVC SCH 40 STREET ELL
  7
ROMANS
100
AcDbText
  0
TEXT
  5
D3E
330
C95
100
AcDbEntity
  8
TEXT-SJ-LEADERS
100
AcDbText
 10
5.134884859999999
 20
1.15134799758353
 30
0.0
 40
0.125
  1
PVC SCH 40 TEE OR ELL
  7
ROMANS
100
AcDbText
  0
TEXT
  5
D3F
330
C95
100
AcDbEntity
  8
TEXT-SJ-LEADERS
100
AcDbText
 10
5.134884859999999
 20
0.8013479975835311
 30
0.0
 40
0.125
  1
PVC LATERAL PIPE
  7
ROMANS
100
AcDbText
  0
LEADER
  5
D47
330
C95
100
AcDbEntity
  8
TEXT-SJ-LEADERS
100
AcDbLeader
  3
STANDARD
 76
     3
 10
3.711534245368312
 20
1.54425115792612
 30
0.0
 10
4.74379347917876
 20
1.204473946043103
 30
0.0
 10
5.075561874284991
 20
1.204473946043103
 30
0.0
1001
ACAD
1000
DSTYLE
1002
{
1070
   147
1040
0.09
1070
    77
1070
     0
1002
}
  0
LEADER
  5
D48
330
C95
100
AcDbEntity
  8
TEXT-SJ-LEADERS
100
AcDbLeader
  3
STANDARD
 76
     3
 10
2.565463480762218
 20
1.577043100151686
 30
0.0
 10
4.74379347917876
 20
0.8638585540526367
 30
0.0
 10
5.085394352016605
 20
0.8638585540526367
 30
0.0
1001
ACAD
1000
DSTYLE
1002
{
1070
   147
1040
0.09
1070
    77
1070
     0
1002
}
  0
LEADER
  5
D4C
330
C95
100
AcDbEntity
  8
TEXT-SJ-LEADERS
100
AcDbLeader
  3
STANDARD
 76
     3
 10
3.527423220942596
 20
1.874275252384099
 30
0.0
 10
4.74379347917876
 20
2.088605622030099
 30
0.0
 10
5.075561874284991
 20
2.088605622030099
 30
0.0
1001
ACAD
1000
DSTYLE
1002
{
1070
   147
1040
0.09
1070
    77
1070
     0
1002
}
  0
LEADER
  5
D4D
330
C95
100
AcDbEntity
  8
TEXT-SJ-LEADERS
100
AcDbLeader
  3
STANDARD
 76
     3
 10
2.541231368899248
 20
2.069059518282255
 30
0.0
 10
4.74379347917876
 20
2.611503820585731
 30
0.0
 10
5.075561874284991
 20
2.611503820585731
 30
0.0
1001
ACAD
1000
DSTYLE
1002
{
1070
   147
1040
0.09
1070
    77
1070
     0
1002
}
  0
LEADER
  5
D4E
330
C95
100
AcDbEntity
  8
TEXT-SJ-LEADERS
100
AcDbLeader
  3
STANDARD
 76
     3
 10
1.667225113881369
 20
2.268895867712784
 30
0.0
 10
4.74379347917876
 20
2.963797100808605
 30
0.0
 10
5.075561874284991
 20
2.963797100808605
 30
0.0
1001
ACAD
1000
DSTYLE
1002
{
1070
   147
1040
0.09
1070
    77
1070
     0
1002
}
  0
LEADER
  5
D4F
330
C95
100
AcDbEntity
  8
TEXT-SJ-LEADERS
100
AcDbLeader
  3
STANDARD
 76
     3
 10
1.432224895113161
 20
2.370122169412844
 30
0.0
 10
4.74379347917876
 20
3.312450936447924
 30
0.0
 10
5.075561874284991
 20
3.312450936447924
 30
0.0
1001
ACAD
1000
DSTYLE
1002
{
1070
   147
1040
0.09
1070
    77
1070
     0
1002
}
  0
LEADER
  5
D50
330
C95
100
AcDbEntity
  8
TEXT-SJ-LEADERS
100
AcDbLeader
  3
STANDARD
 76
     3
 10
1.409851746083289
 20
2.619828996583137
 30
0.0
 10
4.74379347917876
 20
3.831301122349688
 30
0.0
 10
5.075561874284991
 20
3.831301122349688
 30
0.0
1001
ACAD
1000
DSTYLE
1002
{
1070
   147
1040
0.09
1070
    77
1070
     0
1002
}
  0
LEADER
  5
D5C
330
C95
100
AcDbEntity
  8
TEXT-SJ-BUBBLES
100
AcDbLeader
  3
STANDARD
 76
     2
 10
1.404826963887685
 20
2.687166101268622
 30
0.0
 10
3.719814573427855
 20
3.489207705161958
 30
0.0
  0
LEADER
  5
D5D
330
C95
100
AcDbEntity
  8
TEXT-SJ-BUBBLES
100
AcDbLeader
  3
STANDARD
 76
     2
 10
2.244083299178538
 20
1.579008859482648
 30
0.0
 10
2.853242940368967
 20
1.227310376661898
 30
0.0
  0
LEADER
  5
D5E
330
C95
100
AcDbEntity
  8
TEXT-SJ-BUBBLES
100
AcDbLeader
  3
STANDARD
 76
     2
 10
3.162745034951904
 20
1.542573366420682
 30
0.0
 10
3.709720461875238
 20
1.226776956446384
 30
0.0
  0
LEADER
  5
D5F
330
C95
100
AcDbEntity
  8
TEXT-SJ-BUBBLES
100
AcDbLeader
  3
STANDARD
 76
     2
 10
3.648167417791384
 20
1.662916823482295
 30
0.0
 10
4.399246570245581
 20
1.229281072630148
 30
0.0
  0
LEADER
  5
D60
330
C95
100
AcDbEntity
  8
TEXT-SJ-BUBBLES
100
AcDbLeader
  3
STANDARD
 76
     2
 10
2.882036500094806
 20
1.998482121398378
 30
0.0
 10
3.722040156795807
 20
2.412998784768142
 30
0.0
  0
LEADER
  5
D61
330
C95
100
AcDbEntity
  8
TEXT-SJ-BUBBLES
100
AcDbLeader
  3
STANDARD
 76
     2
 10
1.670096373125173
 20
2.271577824386806
 30
0.0
 10
3.714783660190689
 20
2.806214098068736
 30
0.0
  0
LEADER
  5
D62
330
C95
100
AcDbEntity
  8
TEXT-SJ-BUBBLES
100
AcDbLeader
  3
STANDARD
 76
     2
 10
1.436714410278548
 20
2.403014071106478
 30
0.0
 10
3.716653932035002
 20
3.146726060925584
 30
0.0
  0
TEXT
  5
DED
330
C95
100
AcDbEntity
  8
INSTRUCT-OPTION
100
AcDbText
 10
10.06460695189961
 20
0.7549165349322991
 30
0.0
 40
0.1250000018625
  1
  OPTION-SJ
  7
ROMANS
100
AcDbText
  0
TEXT
  5
DEE
330
C95
100
AcDbEntity
  8
INSTRUCT-OPTION
100
AcDbText
 10
10.06460695189961
 20
0.3112338037335256
 30
0.0
 40
0.1250000018625
  1
  %%UOR%%U TEXT-SJ-BUBBLES
  7
ROMANS
100
AcDbText
  0
TEXT
  5
DEF
330
C95
100
AcDbEntity
  8
INSTRUCT-OPTION
100
AcDbText
 10
10.04791397332129
 20
0.9983181520241259
 30
0.0
 40
0.1250000018625
  1
%%UCONTRACTOR ASSEMBLED SWING JOINT
  7
ROMANS
100
AcDbText
  0
TEXT
  5
DF0
330
C95
100
AcDbEntity
  8
INSTRUCT-OPTION
100
AcDbText
 10
9.814601018672957
 20
0.5330751693329124
 30
0.0
 40
0.1250000018625
  1
  %%UAND EITHER%%U TEXT-SJ-LEADERS
  7
ROMANS
100
AcDbText
  0
TEXT
  5
DF1
330
C95
100
AcDbEntity
  8
INSTRUCT-OPTION
100
AcDbText
 10
9.990209325410489
 20
2.967934550143377
 30
0.0
 40
0.1250000018625
  1
  OPTION-RB-SJ
  7
ROMANS
100
AcDbText
  0
TEXT
  5
DF2
330
C95
100
AcDbEntity
  8
INSTRUCT-OPTION
100
AcDbText
 10
9.990209325410489
 20
2.524251818944604
 30
0.0
 40
0.1250000018625
  1
  %%UOR%%U TEXT-RB-SJ-BUBBLES
  7
ROMANS
100
AcDbText
  0
TEXT
  5
DF3
330
C95
100
AcDbEntity
  8
INSTRUCT-OPTION
100
AcDbText
 10
9.740203392183831
 20
2.74609318454399
 30
0.0
 40
0.1250000018625
  1
  %%UAND EITHER%%U TEXT-RB-SJ-LEADERS
  7
ROMANS
100
AcDbText
  0
TEXT
  5
DF4
330
C95
100
AcDbEntity
  8
INSTRUCT-OPTION
100
AcDbText
 10
9.973516346832168
 20
3.211336167235204
 30
0.0
 40
0.1250000018625
  1
%%URAIN BIRD SWING JOINT
  7
ROMANS
100
AcDbText
  0
LWPOLYLINE
  5
F38
330
C95
100
AcDbEntity
  8
OPTION-RB-SJ
100
AcDbPolyline
 90
        4
 70
     0
 43
0.0
 10
3.813980944580472
 20
2.167448832195491
 10
3.814892466197266
 20
2.167925023905282
 10
3.815684152357113
 20
2.168070658484678
 10
3.81628344170786
 20
2.167872387944357
  0
ARC
  5
F39
330
C95
100
AcDbEntity
  8
OPTION-RB-SJ
100
AcDbCircle
 10
3.789298957004356
 20
2.132333084971648
 30
0.0
 40
0.0446229141786391
100
AcDbArc
 50
52.79111695833716
 51
112.7911169583372
  0
LWPOLYLINE
  5
F3A
330
C95
100
AcDbEntity
  8
OPTION-RB-SJ
100
AcDbPolyline
 90
       10
 70
     0
 43
0.0
 10
3.774137781187985
 20
2.17248847018536
 10
3.780469197301777
 20
2.174550042014111
 10
3.786590562824565
 20
2.175503924360815
 10
3.792276839362222
 20
2.175540953308481
 10
3.797364791764691
 20
2.174884826578046
 10
3.801793097508525
 20
2.17375843785905
 10
3.805602182291972
 20
2.172339358688634
 10
3.808860278842876
 20
2.170755994865106
 10
3.811632923856957
 20
2.1691027069071
 10
3.813980944580472
 20
2.167448832195491
  0
ARC
  5
F3B
330
C95
100
AcDbEntity
  8
OPTION-RB-SJ
100
AcDbCircle
 10
3.873089009009632
 20
2.11913790909543
 30
0.0
 40
0.0044622914178639
100
AcDbArc
 50
352.7911169583369
 51
52.79111695833716
  0
ARC
  5
F3C
330
C95
100
AcDbEntity
  8
OPTION-RB-SJ
100
AcDbCircle
 10
3.880535083834381
 20
2.106890216404081
 30
0.0
 40
0.0044622924218795
100
AcDbArc
 50
172.7956303121367
 51
227.9412123793367
  0
LINE
  5
F3D
330
C95
100
AcDbEntity
  8
OPTION-RB-SJ
100
AcDbLine
 10
3.875145641630053
 20
2.121817151757902
 30
0.0
 11
3.873484960364935
 21
2.122268283653404
 31
0.0
  0
LINE
  5
F3E
330
C95
100
AcDbEntity
  8
OPTION-RB-SJ
100
AcDbLine
 10
3.857382759106526
 20
2.120951565491054
 30
0.0
 11
3.87201251761834
 21
2.110627213860282
 31
0.0
  0
LWPOLYLINE
  5
F3F
330
C95
100
AcDbEntity
  8
OPTION-RB-SJ
100
AcDbPolyline
 90
       10
 70
     0
 43
0.0
 10
3.872012517618343
 20
2.11062721386028
 10
3.872711794870598
 20
2.109574740677691
 10
3.87340811035074
 20
2.108627137632486
 10
3.874065981052529
 20
2.107840115538679
 10
3.874645752448907
 20
2.10726198565879
 10
3.875131173056244
 20
2.106903364031638
 10
3.875533215076484
 20
2.106756797733271
 10
3.875835779714162
 20
2.106829819532395
 10
3.876020811271491
 20
2.107086744367423
 10
3.87610845861319
 20
2.107449772208663
  0
LWPOLYLINE
  5
F40
330
C95
100
AcDbEntity
  8
OPTION-RB-SJ
100
AcDbPolyline
 90
        4
 70
     0
 43
0.0
 10
3.873484960364935
 20
2.122268283653404
 10
3.874393134060683
 20
2.122743260402892
 10
3.875187428794872
 20
2.122890135827838
 10
3.875787457492323
 20
2.12269183940227
  0
LWPOLYLINE
  5
F41
330
C95
100
AcDbEntity
  8
OPTION-RB-SJ
100
AcDbPolyline
 90
        4
 70
     0
 43
0.0
 10
3.872012518655738
 20
2.110627222061862
 10
3.871071431078183
 20
2.110164279514379
 10
3.870255287484168
 20
2.110037127408343
 10
3.869640355958953
 20
2.110257647472638
  0
LWPOLYLINE
  5
F42
330
C95
100
AcDbEntity
  8
OPTION-RB-SJ
100
AcDbPolyline
 90
        4
 70
     0
 43
0.0
 10
3.877516027188702
 20
2.118577949315703
 10
3.877330591879001
 20
2.119818452315358
 10
3.876498149673078
 20
2.120956579392549
 10
3.875145641630053
 20
2.121817151757902
  0
LINE
  5
F43
330
C95
100
AcDbEntity
  8
OPTION-RB-SJ
100
AcDbLine
 10
3.87201251761834
 20
2.110627213860282
 30
0.0
 11
3.873484960364935
 21
2.122268283653404
 31
0.0
  0
LINE
  5
F44
330
C95
100
AcDbEntity
  8
OPTION-RB-SJ
100
AcDbLine
 10
3.87610845861319
 20
2.107449772208664
 30
0.0
 11
3.8775160271887
 21
2.118577949315701
 31
0.0
  0
LINE
  5
F45
330
C95
100
AcDbEntity
  8
OPTION-RB-SJ
100
AcDbLine
 10
3.873123284164592
 20
2.149791385398965
 30
0.0
 11
4.138424396679169
 21
2.150426976205595
 31
0.0
  0
ARC
  5
F46
330
C95
100
AcDbEntity
  8
OPTION-RB-SJ
100
AcDbCircle
 10
3.846759903046161
 20
1.839861353250774
 30
0.0
 40
0.0044622914401754
100
AcDbArc
 50
117.6414266247372
 51
172.7913370363373
  0
LINE
  5
F47
330
C95
100
AcDbEntity
  8
OPTION-RB-SJ
100
AcDbLine
 10
3.840925287877717
 20
1.829293122247565
 30
0.0
 11
3.842332856435595
 21
1.840421299340927
 31
0.0
  0
LWPOLYLINE
  5
F48
330
C95
100
AcDbEntity
  8
OPTION-RB-SJ
100
AcDbPolyline
 90
        3
 70
     0
 43
0.0
 10
3.840925287877717
 20
1.829293122247565
 10
3.840438060677658
 20
1.828139476044165
 10
3.839349780613834
 20
1.827244216015685
  0
LINE
  5
F49
330
C95
100
AcDbEntity
  8
OPTION-RB-SJ
100
AcDbLine
 10
3.873910294704871
 20
1.821606407541049
 30
0.0
 11
4.139212163185277
 21
1.821606407541049
 31
0.0
  0
ARC
  5
F4A
330
C95
100
AcDbEntity
  8
OPTION-RB-SJ
100
AcDbCircle
 10
3.770680294428247
 20
1.985134731308063
 30
0.0
 40
0.1628736361273117
100
AcDbArc
 50
296.0217626079368
 51
49.56042180523715
  0
ARC
  5
F4B
330
C95
100
AcDbEntity
  8
OPTION-RB-SJ
100
AcDbCircle
 10
3.770680294428247
 20
1.985134731308063
 30
0.0
 40
0.1651047824609645
100
AcDbArc
 50
295.5306107216368
 51
50.05156391983715
  0
ARC
  5
F4C
330
C95
100
AcDbEntity
  8
OPTION-RB-SJ
100
AcDbCircle
 10
3.770680294428247
 20
1.985134731308063
 30
0.0
 40
0.1673359281698965
100
AcDbArc
 50
295.1108233003368
 51
50.4673926165372
  0
LINE
  5
F4D
330
C95
100
AcDbEntity
  8
OPTION-RB-SJ
100
AcDbLine
 10
4.139212163185277
 20
1.821606407541049
 30
0.0
 11
4.138424396679169
 21
2.150426976205595
 31
0.0
  0
LWPOLYLINE
  5
F4E
330
C95
100
AcDbEntity
  8
OPTION-RB-SJ
100
AcDbPolyline
 90
        6
 70
     0
 43
0.0
 10
3.837574761134915
 20
1.838363777240858
 10
3.8207471094969
 20
1.831979258637965
 10
3.804918672064123
 20
1.827805939941708
 10
3.789627223098023
 20
1.825328556451328
 10
3.774144844651012
 20
1.824304616598501
 10
3.758142873162626
 20
1.824786701979881
  0
LINE
  5
F4F
330
C95
100
AcDbEntity
  8
OPTION-RB-SJ
100
AcDbLine
 10
3.836102318374649
 20
1.826722707465365
 30
0.0
 11
3.767222807668503
 21
1.797780992430761
 31
0.0
  0
LINE
  5
F50
330
C95
100
AcDbEntity
  8
OPTION-RB-SJ
100
AcDbLine
 10
3.83822683941266
 20
1.825739191954397
 30
0.0
 11
3.769347328706514
 21
1.796797476919791
 31
0.0
  0
LINE
  5
F51
330
C95
100
AcDbEntity
  8
OPTION-RB-SJ
100
AcDbLine
 10
3.837826735033331
 20
1.826746726658227
 30
0.0
 11
3.836102318374649
 21
1.826722707465365
 31
0.0
  0
LWPOLYLINE
  5
F52
330
C95
100
AcDbEntity
  8
OPTION-RB-SJ
100
AcDbPolyline
 90
        4
 70
     0
 43
0.0
 10
3.837574761115118
 20
1.838363777084338
 10
3.83677857559783
 20
1.839046474345433
 10
3.836019789170149
 20
1.839372844015657
 10
3.835369310165035
 20
1.839312386935586
  0
LWPOLYLINE
  5
F53
330
C95
100
AcDbEntity
  8
OPTION-RB-SJ
100
AcDbPolyline
 90
        4
 70
     0
 43
0.0
 10
3.836102318374649
 20
1.826722707465365
 10
3.836866565443543
 20
1.826034552995142
 10
3.837597056669899
 20
1.825696382909942
 10
3.83822683941266
 20
1.825739191954397
  0
LINE
  5
F54
330
C95
100
AcDbEntity
  8
OPTION-RB-SJ
100
AcDbLine
 10
3.836102318374649
 20
1.826722707465365
 30
0.0
 11
3.837574761134915
 21
1.838363777240858
 31
0.0
  0
ARC
  5
F55
330
C95
100
AcDbEntity
  8
OPTION-RB-SJ
100
AcDbCircle
 10
3.770680294428247
 20
1.985134731308063
 30
0.0
 40
0.1740293588040582
100
AcDbArc
 50
288.4492627736368
 51
57.71710095323705
  0
ARC
  5
F56
330
C95
100
AcDbEntity
  8
OPTION-RB-SJ
100
AcDbCircle
 10
3.770680294428247
 20
1.985134731308063
 30
0.0
 40
0.1595269181886346
100
AcDbArc
 50
262.7878588799369
 51
82.79111695833721
  0
ARC
  5
F57
330
C95
100
AcDbEntity
  8
OPTION-RB-SJ
100
AcDbCircle
 10
3.770680294428247
 20
1.985134731308063
 30
0.0
 40
0.1936634475799164
100
AcDbArc
 50
228.4309445955366
 51
117.2311848542371
  0
ARC
  5
F58
330
C95
100
AcDbEntity
  8
OPTION-RB-SJ
100
AcDbCircle
 10
3.770680294428247
 20
1.985134731308063
 30
0.0
 40
0.1970101660986914
100
AcDbArc
 50
226.9694111049367
 51
118.5622256057372
  0
ARC
  5
F59
330
C95
100
AcDbEntity
  8
OPTION-RB-SJ
100
AcDbCircle
 10
3.836498269729958
 20
1.829853082023338
 30
0.0
 40
0.0044622914178639
100
AcDbArc
 50
292.7911169583367
 51
352.7911169583369
  0
LINE
  5
F5A
330
C95
100
AcDbEntity
  8
OPTION-RB-SJ
100
AcDbLine
 10
3.839349780613834
 20
1.827244216015685
 30
0.0
 11
3.837826735033331
 21
1.826746726658227
 31
0.0
  0
LWPOLYLINE
  5
F5B
330
C95
100
AcDbEntity
  8
OPTION-RB-SJ
100
AcDbPolyline
 90
       10
 70
     0
 43
0.0
 10
3.842332856435595
 20
1.840421299340927
 10
3.842339758975713
 20
1.840783923943349
 10
3.842233002428379
 20
1.841077467936451
 10
3.841968789706673
 20
1.841232283558437
 10
3.841540520390633
 20
1.841198490280116
 10
3.840964422850332
 20
1.840968453770641
 10
3.84023729783938
 20
1.840538187292368
 10
3.839370840078828
 20
1.839911750096338
 10
3.838450298974854
 20
1.839154088957675
 10
3.837574761134915
 20
1.838363777240858
  0
LINE
  5
F5C
330
C95
100
AcDbEntity
  8
OPTION-RB-SJ
100
AcDbLine
 10
3.813980944580472
 20
2.167448832195491
 30
0.0
 11
3.873484960364935
 21
2.122268283653404
 31
0.0
  0
LINE
  5
F5D
330
C95
100
AcDbEntity
  8
OPTION-RB-SJ
100
AcDbLine
 10
3.81628344170786
 20
2.167872387944357
 30
0.0
 11
3.875787457492323
 21
2.122691839402272
 31
0.0
  0
LWPOLYLINE
  5
F5E
330
C95
100
AcDbEntity
  8
OPTION-RB-SJ
100
AcDbPolyline
 90
        6
 70
     0
 43
0.0
 10
3.783131385320873
 20
2.145489567059385
 10
3.799131834724207
 20
2.143436332580403
 10
3.814589969377644
 20
2.139895046393665
 10
3.82913381824954
 20
2.135070347070311
 10
3.843189477662152
 20
2.128896477733293
 10
3.857382759106526
 20
2.120951565491054
  0
LINE
  5
F5F
330
C95
100
AcDbEntity
  8
OPTION-RB-SJ
100
AcDbLine
 10
4.138495526708087
 20
2.120736685519843
 30
0.0
 11
4.757346241523018
 21
2.121146523047053
 31
0.0
  0
LINE
  5
F60
330
C95
100
AcDbEntity
  8
OPTION-RB-SJ
100
AcDbLine
 10
4.139128673855222
 20
1.856455577661199
 30
0.0
 11
4.757979354481921
 21
1.856879685654075
 31
0.0
  0
TEXT
  5
F61
330
C95
100
AcDbEntity
  8
TEXT-RB-SJ-BUBBLES
100
AcDbText
 10
4.245641086128533
 20
1.124885018154968
 30
0.0
 40
0.125
  1
4
  7
ROMANS
 72
     4
 11
4.308141086128533
 21
1.187385018154968
 31
0.0
100
AcDbText
  0
LEADER
  5
F62
330
C95
100
AcDbEntity
  8
TEXT-RB-SJ-BUBBLES
100
AcDbLeader
  3
STANDARD
 76
     2
 10
4.035846610671959
 20
1.821606407541049
 30
0.0
 10
4.237441263897701
 20
1.326724881928867
 30
0.0
1001
ACAD
1000
DSTYLE
1002
{
1070
   340
1005
0
1070
   287
1070
     5
1002
}
  0
CIRCLE
  5
F63
330
C95
100
AcDbEntity
  8
TEXT-RB-SJ-BUBBLES
100
AcDbCircle
 10
4.308141086128533
 20
1.187385018154968
 30
0.0
 40
0.15625
  0
LWPOLYLINE
  5
F64
330
C95
100
AcDbEntity
  8
OPTION-RB-SJ
100
AcDbPolyline
 90
       29
 70
     0
 43
0.0
 10
4.757662786132945
 20
1.989013090725421
 10
4.76782264107438
 20
1.9906665020849
 10
4.777654406261501
 20
1.995621558429492
 10
4.78629677585472
 20
2.0034441429791
 10
4.793644200399841
 20
2.014038653209131
 10
4.799052855317485
 20
2.026476866928003
 10
4.802456604078721
 20
2.040606662106908
 10
4.803557194165861
 20
2.055190080781685
 10
4.802386605373039
 20
2.069768193759335
 10
4.798915329061833
 20
2.083881518229402
 10
4.793447139277637
 20
2.096293673905079
 10
4.786049036115365
 20
2.106852857798148
 10
4.777369284284853
 20
2.114633943158307
 10
4.767513890102417
 20
2.119541834292257
 10
4.757346229565002
 20
2.121146546358749
 10
4.74718651004524
 20
2.119493135303531
 10
4.737354609436451
 20
2.114538078654677
 10
4.728712239823057
 20
2.106715494105023
 10
4.721364815298164
 20
2.096120983854865
 10
4.715956160380468
 20
2.083682770156168
 10
4.712552547061081
 20
2.06955297528157
 10
4.711451821836455
 20
2.054969420840463
 10
4.712622410324965
 20
2.04039144330466
 10
4.716093686636126
 20
2.026278118854766
 10
4.72156187642037
 20
2.013865963158917
 10
4.728959979562413
 20
2.003306779285975
 10
4.737639731413105
 20
1.995525693925861
 10
4.747495261017206
 20
1.990617803096174
 10
4.757662786132945
 20
1.989013090725421
  0
LWPOLYLINE
  5
F65
330
C95
100
AcDbEntity
  8
OPTION-RB-SJ
100
AcDbPolyline
 90
       26
 70
     0
 43
0.0
 10
4.757979354481921
 20
1.856879685654075
 10
4.763794069399808
 20
1.857414576256623
 10
4.769514586420288
 20
1.858982945533749
 10
4.77505068929793
 20
1.861560059239515
 10
4.780315070156597
 20
1.865105274705512
 10
4.785224706386156
 20
1.869562681591101
 10
4.789702169845482
 20
1.874861983742471
 10
4.793676848091866
 20
1.880919607768742
 10
4.797086057908392
 20
1.887640021100383
 10
4.799876033871139
 20
1.894917238488287
 10
4.802002776297212
 20
1.902636493606049
 10
4.803432745061631
 20
1.910676048832188
 10
4.804143388678347
 20
1.918909115247171
 10
4.804123499842861
 20
1.927205852160869
 10
4.803373392186019
 20
1.93543541470797
 10
4.801904895410871
 20
1.94346801742922
 10
4.799741168649208
 20
1.951176981056767
 10
4.796916335241508
 20
1.958440730314849
 10
4.793474944624159
 20
1.965144711218903
 10
4.789471269707422
 20
1.971183197714009
 10
4.784968451028992
 20
1.976460959013784
 10
4.780037500919123
 20
1.980894761446225
 10
4.77475618356991
 20
1.984414681100822
 10
4.76920778877023
 20
1.986965206642003
 10
4.763479818250991
 20
1.988506114602078
 10
4.757662605733218
 20
1.989013103889939
  0
TEXT
  5
F66
330
C95
100
AcDbEntity
  8
TEXT-RB-SJ-BUBBLES
100
AcDbText
 10
5.128736177718754
 20
4.286363032917721
 30
0.0
 40
0.125
  1
LATERAL PIPE
  7
ROMANS
100
AcDbText
  0
TEXT
  5
F67
330
C95
100
AcDbEntity
  8
TEXT-RB-SJ-BUBBLES
100
AcDbText
 10
4.856781200177398
 20
4.275597258419857
 30
0.0
 40
0.125
  1
5
  7
ROMANS
 72
     4
 11
4.916305009701207
 21
4.338097258419857
 31
0.0
100
AcDbText
  0
CIRCLE
  5
F68
330
C95
100
AcDbEntity
  8
TEXT-RB-SJ-BUBBLES
100
AcDbCircle
 10
4.916305009701207
 20
4.338097258419857
 30
0.0
 40
0.15625
  0
TEXT
  5
F69
330
C95
100
AcDbEntity
  8
TEXT-RB-SJ-BUBBLES
100
AcDbText
 10
4.856781200177398
 20
5.137793268172952
 30
0.0
 40
0.125
  1
3
  7
ROMANS
 72
     4
 11
4.916305009701207
 21
5.200293268172952
 31
0.0
100
AcDbText
  0
TEXT
  5
F6A
330
C95
100
AcDbEntity
  8
TEXT-RB-SJ-BUBBLES
100
AcDbText
 10
4.853805009701207
 20
4.636481268639899
 30
0.0
 40
0.125
  1
4
  7
ROMANS
 72
     4
 11
4.916305009701207
 21
4.698981268639899
 31
0.0
100
AcDbText
  0
CIRCLE
  5
F6B
330
C95
100
AcDbEntity
  8
TEXT-RB-SJ-BUBBLES
100
AcDbCircle
 10
4.916305009701207
 20
4.698981268639899
 30
0.0
 40
0.15625
  0
CIRCLE
  5
F6C
330
C95
100
AcDbEntity
  8
TEXT-RB-SJ-BUBBLES
100
AcDbCircle
 10
4.916305009701207
 20
5.200293268172952
 30
0.0
 40
0.15625
  0
TEXT
  5
F6D
330
C95
100
AcDbEntity
  8
TEXT-RB-SJ-BUBBLES
100
AcDbText
 10
5.128736177718754
 20
4.636363032917721
 30
0.0
 40
0.125
  1
PVC SCH 40 TEE OR ELL
  7
ROMANS
100
AcDbText
  0
TEXT
  5
F6E
330
C95
100
AcDbEntity
  8
TEXT-RB-SJ-BUBBLES
100
AcDbText
 10
5.128736177718754
 20
4.968623697028498
 30
0.0
 40
0.125
  1
  RAIN BIRD TSJ-12075
  7
ROMANS
100
AcDbText
  0
TEXT
  5
F6F
330
C95
100
AcDbEntity
  8
TEXT-RB-SJ-BUBBLES
100
AcDbText
 10
5.128736177718754
 20
5.143623697028496
 30
0.0
 40
0.125
  1
PRE-FABRICATED SWING JOINT:
  7
ROMANS
100
AcDbText
  0
TEXT
  5
F70
330
C95
100
AcDbEntity
  8
TEXT-RB-SJ-LEADERS
100
AcDbText
 10
5.14145639
 20
0.931689431893851
 30
0.0
 40
0.125
  1
LATERAL PIPE
  7
ROMANS
100
AcDbText
  0
TEXT
  5
F71
330
C95
100
AcDbEntity
  8
TEXT-RB-SJ-LEADERS
100
AcDbText
 10
5.14145639
 20
1.281689432819453
 30
0.0
 40
0.125
  1
PVC SCH 40 TEE OR ELL
  7
ROMANS
100
AcDbText
  0
LEADER
  5
F72
330
C95
100
AcDbEntity
  8
TEXT-RB-SJ-LEADERS
100
AcDbLeader
  3
STANDARD
 76
     3
 10
4.571194869606165
 20
1.856751679342599
 30
0.0
 10
4.74379347917876
 20
1.343015333267981
 30
0.0
 10
5.075561874284991
 20
1.343015333267981
 30
0.0
1001
ACAD
1000
DSTYLE
1002
{
1070
   340
1005
C9E
1070
   287
1070
     5
1002
}
  0
LEADER
  5
F73
330
C95
100
AcDbEntity
  8
TEXT-RB-SJ-LEADERS
100
AcDbLeader
  3
STANDARD
 76
     3
 10
2.734485024158609
 20
1.855492953529681
 30
0.0
 10
4.74379347917876
 20
0.9771424658156135
 30
0.0
 10
5.075561874284991
 20
0.9771424658156135
 30
0.0
1001
ACAD
1000
DSTYLE
1002
{
1070
   340
1005
C9E
1070
   287
1070
     5
1002
}
  0
LEADER
  5
F74
330
C95
100
AcDbEntity
  8
TEXT-RB-SJ-LEADERS
100
AcDbLeader
  3
STANDARD
 76
     3
 10
2.233402317526107
 20
2.340378232813818
 30
0.0
 10
4.74379347917876
 20
3.19072359780872
 30
0.0
 10
5.075561874284991
 20
3.19072359780872
 30
0.0
1001
ACAD
1000
DSTYLE
1002
{
1070
   340
1005
C9E
1070
   287
1070
     5
1002
}
  0
TEXT
  5
F75
330
C95
100
AcDbEntity
  8
TEXT-RB-SJ-LEADERS
100
AcDbText
 10
5.14145639
 20
3.138665182312911
 30
0.0
 40
0.125
  1
PRE-FABRICATED SWING JOINT:
  7
ROMANS
100
AcDbText
  0
TEXT
  5
F76
330
C95
100
AcDbEntity
  8
TEXT-RB-SJ-LEADERS
100
AcDbText
 10
5.14145639
 20
2.96366518231291
 30
0.0
 40
0.125
  1
  RAIN BIRD TSJ-12075
  7
ROMANS
100
AcDbText
  0
LINE
  5
F77
330
C95
100
AcDbEntity
  8
OPTION-RB-SJ
100
AcDbLine
 10
2.684075897089213
 20
2.068415856465818
 30
0.0
 11
2.738416466379558
 21
2.151761350758838
 31
0.0
  0
LINE
  5
F78
330
C95
100
AcDbEntity
  8
OPTION-RB-SJ
100
AcDbLine
 10
2.684076128320995
 20
2.068415825445915
 30
0.0
 11
2.741889793164465
 21
2.060660083095464
 31
0.0
  0
LINE
  5
F79
330
C95
100
AcDbEntity
  8
OPTION-RB-SJ
100
AcDbLine
 10
2.730207517239178
 20
2.085768909523024
 30
0.0
 11
2.739210723618845
 21
2.084561123280836
 31
0.0
  0
LINE
  5
F7A
330
C95
100
AcDbEntity
  8
OPTION-RB-SJ
100
AcDbLine
 10
2.730207285976129
 20
2.085768940547118
 30
0.0
 11
2.75631903016226
 21
2.125818068512268
 31
0.0
  0
LINE
  5
F7B
330
C95
100
AcDbEntity
  8
OPTION-RB-SJ
100
AcDbLine
 10
2.650050011182044
 20
2.124536646312163
 30
0.0
 11
2.664194933686869
 21
2.122639095364446
 31
0.0
  0
LINE
  5
F7C
330
C95
100
AcDbEntity
  8
OPTION-RB-SJ
100
AcDbLine
 10
2.664305993588076
 20
2.144105944178569
 30
0.0
 11
2.67470354994768
 21
2.142711104940862
 31
0.0
  0
LINE
  5
F7D
330
C95
100
AcDbEntity
  8
OPTION-RB-SJ
100
AcDbLine
 10
2.649136712966953
 20
2.163326193797286
 30
0.0
 11
2.69232352060734
 21
2.157532654277109
 31
0.0
  0
LWPOLYLINE
  5
F7E
330
C95
100
AcDbEntity
  8
OPTION-RB-SJ
100
AcDbPolyline
 90
       92
 70
     0
 43
0.0
 10
2.662688802935858
 20
2.103937088252029
 10
2.663966980893194
 20
2.103881317885649
 10
2.665249681567512
 20
2.103850451578629
 10
2.666535581820993
 20
2.103845653005091
 10
2.667823358466796
 20
2.103868085829801
 10
2.669111688345162
 20
2.10391891368207
 10
2.670399248308912
 20
2.103999300285026
 10
2.671684715194102
 20
2.104110409236696
 10
2.67280560166545
 20
2.104233608202217
 10
2.67392299417524
 20
2.104381947433334
 10
2.675036009045624
 20
2.104556204140605
 10
2.676143762518496
 20
2.104757155529444
 10
2.677245370911825
 20
2.104985578779143
 10
2.678339950508107
 20
2.105242251041914
 10
2.67942661758469
 20
2.105527949550247
 10
2.680504488441806
 20
2.105843451469902
 10
2.681662805450769
 20
2.106219810609184
 10
2.682809716861766
 20
2.106630468121469
 10
2.683945204996927
 20
2.107073745899344
 10
2.685069252223197
 20
2.107547965813454
 10
2.686181840835633
 20
2.108051449791847
 10
2.687282953232444
 20
2.108582519700969
 10
2.688372571673208
 20
2.10913949744179
 10
2.689306984565531
 20
2.109642010554648
 10
2.690231167396248
 20
2.110163605915189
 10
2.691143530143383
 20
2.110705180179107
 10
2.692042482740127
 20
2.111267630024026
 10
2.692926435137386
 20
2.111851852141098
 10
2.693793797295452
 20
2.11245874317248
 10
2.69464297913396
 20
2.113089199813533
 10
2.695472390648654
 20
2.11374411873348
 10
2.696280441723719
 20
2.114424396600603
 10
2.697065542372629
 20
2.11513093009767
 10
2.697768162454907
 20
2.115806475632299
 10
2.698449485528783
 20
2.116504389841864
 10
2.69910909578687
 20
2.117223937995097
 10
2.699746577373734
 20
2.117964385239847
 10
2.700361514495532
 20
2.118724996827107
 10
2.700953491283279
 20
2.119505037922449
 10
2.701522091925402
 20
2.120303773763339
 10
2.702066900588393
 20
2.121120469542434
 10
2.70258750145647
 20
2.121954390465905
 10
2.703083478664857
 20
2.122804801730615
 10
2.703554416429054
 20
2.123670968538553
 10
2.703999898870736
 20
2.124552156104291
 10
2.704419510191869
 20
2.125447629647571
 10
2.704812834554739
 20
2.126356654329766
 10
2.705179456134237
 20
2.127278495406067
 10
2.705476883567528
 20
2.128092156198015
 10
2.705752516267841
 20
2.128914044976745
 10
2.706005180376019
 20
2.129743202897673
 10
2.70623370210386
 20
2.130578671170361
 10
2.706436907605763
 20
2.131419490932472
 10
2.706613623124777
 20
2.13226470338938
 10
2.706762674788237
 20
2.133113349714214
 10
2.706882888799527
 20
2.133964471053997
 10
2.706973091356916
 20
2.134817108636017
 10
2.707032108628328
 20
2.135670303580218
 10
2.707058766794288
 20
2.136523097100343
 10
2.70705189207592
 20
2.137374530356958
 10
2.707010310618284
 20
2.138223644536739
 10
2.706932848611245
 20
2.139069480804427
 10
2.706818332262396
 20
2.139911080338313
 10
2.706675671549478
 20
2.140699888157833
 10
2.706499931510155
 20
2.141483219956444
 10
2.706292021298676
 20
2.142260219082272
 10
2.706052850033799
 20
2.14303002885636
 10
2.705783326830119
 20
2.143791792568476
 10
2.705484360797061
 20
2.144544653588682
 10
2.705156861071129
 20
2.145287755251559
 10
2.704801736780452
 20
2.146020240829138
 10
2.704419897016726
 20
2.146741253677942
 10
2.704012250947721
 20
2.147449937128352
 10
2.703579707643214
 20
2.148145434492077
 10
2.703123176257459
 20
2.148826889117236
 10
2.702643565922745
 20
2.149493444307148
 10
2.70214178572658
 20
2.15014424338704
 10
2.701618744823229
 20
2.150778429705042
 10
2.701075352295978
 20
2.151395146555124
 10
2.700512517316812
 20
2.151993537298946
 10
2.699931148969031
 20
2.152572745230476
 10
2.699313293870635
 20
2.15314893817893
 10
2.69867769999697
 20
2.153702889516405
 10
2.698025363789754
 20
2.154233660317531
 10
2.697357281668801
 20
2.154740311612129
 10
2.696674450048779
 20
2.15522190451029
 10
2.695977865363031
 20
2.155677500024112
 10
2.695268524022015
 20
2.156106159232415
 10
2.694547422449742
 20
2.156506943196291
 10
2.693815557074412
 20
2.156878913008108
 10
2.693073924311634
 20
2.157221129666415
 10
2.69232352060734
 20
2.157532654277109
  0
LWPOLYLINE
  5
F7F
330
C95
100
AcDbEntity
  8
OPTION-RB-SJ
100
AcDbPolyline
 90
       99
 70
     0
 43
0.0
 10
2.664194933686872
 20
2.122639095364447
 10
2.664620170382798
 20
2.122630119703707
 10
2.665044721992115
 20
2.122631864548784
 10
2.665468381961033
 20
2.122644240167137
 10
2.665890943656466
 20
2.122667156709525
 10
2.666312200493379
 20
2.122700524447591
 10
2.666731945891857
 20
2.122744253572711
 10
2.667149973200133
 20
2.122798254333649
 10
2.667566075856039
 20
2.122862436935313
 10
2.667980047234872
 20
2.122936711591006
 10
2.668391680729655
 20
2.123020988527563
 10
2.668800769795984
 20
2.12311517796343
 10
2.669207107764317
 20
2.123219190133846
 10
2.669610488072491
 20
2.123332935243709
 10
2.670010704113556
 20
2.123456323519861
 10
2.670407549276332
 20
2.123589265157866
 10
2.670800816975768
 20
2.123731670429375
 10
2.671190300596519
 20
2.123883449498682
 10
2.671575793553533
 20
2.124044512637433
 10
2.671957089217906
 20
2.124214770027658
 10
2.67233398103169
 20
2.124394131905543
 10
2.672706262338884
 20
2.12458250848857
 10
2.673073726595071
 20
2.1247798099952
 10
2.673436167162011
 20
2.124985946656458
 10
2.673794299476912
 20
2.125201398865271
 10
2.674146966075401
 20
2.125425551520247
 10
2.674493958710008
 20
2.125658314129137
 10
2.674835069164535
 20
2.125899596195508
 10
2.67517008924471
 20
2.126149307267738
 10
2.675498810716625
 20
2.126407356835845
 10
2.675821025368263
 20
2.12667365443467
 10
2.676136524965688
 20
2.126948109554238
 10
2.676445101332393
 20
2.127230631756459
 10
2.67674654620316
 20
2.127521130535563
 10
2.677040651379527
 20
2.127819515408643
 10
2.677327208649488
 20
2.128125695910537
 10
2.677606009810409
 20
2.128439581527076
 10
2.677876846618996
 20
2.128761081797291
 10
2.678139510863259
 20
2.129090106256023
 10
2.67839379434054
 20
2.129426564389099
 10
2.678639488821114
 20
2.129770365717808
 10
2.678876386092957
 20
2.130121419777004
 10
2.67905550961243
 20
2.130401245487486
 10
2.67922859130725
 20
2.130685296918702
 10
2.679395109124827
 20
2.130973409650409
 10
2.67955454106486
 20
2.131265419414507
 10
2.679706365088298
 20
2.131561161772996
 10
2.679850059190616
 20
2.131860472426532
 10
2.679985101309908
 20
2.132163187003851
 10
2.68011096943746
 20
2.13246914117432
 10
2.680227141573885
 20
2.132778170558303
 10
2.680333095692745
 20
2.13309011081162
 10
2.680428309718569
 20
2.133404797580757
 10
2.680512261673926
 20
2.133722066530874
 10
2.680584429528174
 20
2.134041753286541
 10
2.68064429125485
 20
2.134363693503571
 10
2.680691324809784
 20
2.134687722824259
 10
2.680725008180056
 20
2.13501367688669
 10
2.6807448193434
 20
2.135341391377973
 10
2.680750236296271
 20
2.135670701887187
 10
2.680743625859345
 20
2.135942065259745
 10
2.680727083534988
 20
2.136213961320954
 10
2.680700730038251
 20
2.136485957879798
 10
2.680664686084138
 20
2.136757622745268
 10
2.680619072360627
 20
2.137028523761817
 10
2.680564009614006
 20
2.137298228734242
 10
2.680499618496765
 20
2.137566305479919
 10
2.680426019786491
 20
2.13783232179945
 10
2.680343334153384
 20
2.138095845523748
 10
2.680251682312491
 20
2.138356444461807
 10
2.680151184965288
 20
2.138613686440345
 10
2.680041962858091
 20
2.138867139264162
 10
2.679924136643388
 20
2.139116370750635
 10
2.679797827102941
 20
2.139360948731628
 10
2.679663154871504
 20
2.139600441010989
 10
2.679520240713115
 20
2.139834415407048
 10
2.67936920532507
 20
2.140062439715257
 10
2.679210169413058
 20
2.140284081793607
 10
2.679043253674372
 20
2.14049890943755
 10
2.678868578841786
 20
2.140706490469617
 10
2.678686265612592
 20
2.140906392685252
 10
2.678496434719542
 20
2.141098183906986
 10
2.678317737448787
 20
2.14126486975995
 10
2.678133037258052
 20
2.141424195132884
 10
2.677942424388909
 20
2.141575836948765
 10
2.677745989078721
 20
2.141719472099308
 10
2.677543821574214
 20
2.141854777427194
 10
2.677336012121157
 20
2.141981429886689
 10
2.677122650962058
 20
2.142099106289207
 10
2.676903828342688
 20
2.142207483589004
 10
2.676679634527498
 20
2.14230623864231
 10
2.676450159753857
 20
2.142395048340834
 10
2.676215494241415
 20
2.14247358956275
 10
2.675975728262997
 20
2.142541539226825
 10
2.675730952083066
 20
2.142598574189306
 10
2.675481255894186
 20
2.142644371363823
 10
2.675226729978529
 20
2.142678607620147
 10
2.674967464587014
 20
2.14270095983226
 10
2.67470354994768
 20
2.142711104940861
  0
LINE
  5
F80
330
C95
100
AcDbEntity
  8
OPTION-RB-SJ
100
AcDbLine
 10
2.650049995672092
 20
2.12453653069627
 30
0.0
 11
2.6643058624445
 21
2.144105844059089
 31
0.0
  0
LINE
  5
F81
330
C95
100
AcDbEntity
  8
OPTION-RB-SJ
100
AcDbLine
 10
2.662688802935858
 20
2.10393708825203
 30
0.0
 11
2.66894270780957
 21
2.070445984087571
 31
0.0
  0
LINE
  5
F82
330
C95
100
AcDbEntity
  8
OPTION-RB-SJ
100
AcDbLine
 10
2.643965007676649
 20
2.073796759501346
 30
0.0
 11
2.66894270780957
 21
2.070445984087571
 31
0.0
  0
LINE
  5
F83
330
C95
100
AcDbEntity
  8
OPTION-RB-SJ
100
AcDbLine
 10
2.637664868424995
 20
2.107535485574517
 30
0.0
 11
2.643965007676649
 21
2.073796759501346
 31
0.0
  0
LWPOLYLINE
  5
F84
330
C95
100
AcDbEntity
  8
OPTION-RB-SJ
100
AcDbPolyline
 90
       97
 70
     0
 43
0.0
 10
2.741889793164465
 20
2.060660083095464
 10
2.74291899601368
 20
2.060484824059599
 10
2.743939395589925
 20
2.060361045891174
 10
2.744951051682821
 20
2.060286873596962
 10
2.745954024135219
 20
2.060260432224345
 10
2.746948372781562
 20
2.06027984675816
 10
2.747934157433396
 20
2.060343242249978
 10
2.748911437920987
 20
2.060448743653375
 10
2.749880274073635
 20
2.06059447603346
 10
2.750840725729967
 20
2.060778564406338
 10
2.751792852693161
 20
2.060999133761049
 10
2.752736714788315
 20
2.06125430913143
 10
2.75414412501941
 20
2.061700258240295
 10
2.755533093109906
 20
2.062214169434021
 10
2.756903824031148
 20
2.062789618867588
 10
2.758256522758677
 20
2.063420182727259
 10
2.759591394277351
 20
2.064099437150294
 10
2.760908643527247
 20
2.064820958295879
 10
2.762208475497432
 20
2.065578322332542
 10
2.763491095145709
 20
2.066365105433008
 10
2.764756707470501
 20
2.067174883716793
 10
2.766515686629607
 20
2.068348408426037
 10
2.768242250967452
 20
2.069555623115794
 10
2.769937501044958
 20
2.070797163080273
 10
2.771602537552319
 20
2.072073663628192
 10
2.773238461081749
 20
2.073385760049567
 10
2.774846372243182
 20
2.074734087647962
 10
2.776427371673621
 20
2.076119281691472
 10
2.777982559987202
 20
2.077541977514924
 10
2.779513037852194
 20
2.079002810382227
 10
2.781019905833727
 20
2.080502415618864
 10
2.782126674397614
 20
2.081644316958101
 10
2.783218985378331
 20
2.082807726030769
 10
2.78429485739142
 20
2.083992308028741
 10
2.78535230905145
 20
2.085197728255448
 10
2.786389358946873
 20
2.086423651938229
 10
2.787404025683877
 20
2.087669744317969
 10
2.788394327868652
 20
2.088935670635556
 10
2.789358284129308
 20
2.090221096176669
 10
2.790293913067842
 20
2.091525686150936
 10
2.791199233263353
 20
2.09284910583469
 10
2.79207226334911
 20
2.09419102043336
 10
2.79291102192195
 20
2.095551095236831
 10
2.793713527601612
 20
2.096928995468245
 10
2.794477798967189
 20
2.098324386403956
 10
2.795201854669679
 20
2.099736933262922
 10
2.795883713270471
 20
2.101166301307952
 10
2.796521393389281
 20
2.10261215576219
 10
2.797112913654219
 20
2.104074161911336
 10
2.797656292671478
 20
2.105551984996267
 10
2.798149549011768
 20
2.107045290230793
 10
2.798590701316753
 20
2.108553742882876
 10
2.798977768179083
 20
2.110077008211125
 10
2.799308768209123
 20
2.111614751487695
 10
2.799581720004673
 20
2.113166637890936
 10
2.799749036321016
 20
2.114355138954488
 10
2.799880238770762
 20
2.115549918629216
 10
2.79997389091663
 20
2.11674927886048
 10
2.800028556219115
 20
2.117951521543661
 10
2.80004279819613
 20
2.119154948646068
 10
2.800015180366515
 20
2.12035786202343
 10
2.799944266230446
 20
2.121558563629492
 10
2.799828619279689
 20
2.122755355355463
 10
2.799666803045685
 20
2.123946539150892
 10
2.799457381051486
 20
2.125130416902795
 10
2.79919891673051
 20
2.126305290542032
 10
2.798889973659007
 20
2.127469461996235
 10
2.798529115315224
 20
2.128621233174333
 10
2.798114905226388
 20
2.129758905994613
 10
2.79773037299703
 20
2.130690056662521
 10
2.797309290828686
 20
2.131608941810585
 10
2.796852761204659
 20
2.132514151779962
 10
2.796361886608283
 20
2.133404276911813
 10
2.795837769505127
 20
2.134277907533739
 10
2.79528151234725
 20
2.135133633991098
 10
2.79469421763149
 20
2.135970046607307
 10
2.79407698780056
 20
2.136785735776731
 10
2.793430925378376
 20
2.137579291787305
 10
2.792757132772189
 20
2.138349305006316
 10
2.792056712496573
 20
2.139094365770729
 10
2.791330766985845
 20
2.139813064412341
 10
2.790580398754594
 20
2.140503991268117
 10
2.789806710241318
 20
2.141165736701144
 10
2.789010803929344
 20
2.14179689105257
 10
2.788193782280058
 20
2.142396044618737
 10
2.787356747798687
 20
2.142961787785615
 10
2.786500802919555
 20
2.143492710885014
 10
2.785627050108253
 20
2.143987404244549
 10
2.784736591865818
 20
2.144444458218902
 10
2.783830530644287
 20
2.144862463153442
 10
2.7829099689228
 20
2.145240009358027
 10
2.781946720773492
 20
2.14558545329255
 10
2.78097043583052
 20
2.145884835038398
 10
2.779982322796956
 20
2.146136609074919
 10
2.778983590380091
 20
2.146339229912737
 10
2.777975447318485
 20
2.146491152058279
 10
2.776959102301685
 20
2.146590830008622
  0
LWPOLYLINE
  5
F85
330
C95
100
AcDbEntity
  8
OPTION-RB-SJ
100
AcDbPolyline
 90
       95
 70
     0
 43
0.0
 10
2.739210723618846
 20
2.084561123280836
 10
2.739969139313234
 20
2.084525362940817
 10
2.740717408313087
 20
2.08451458342004
 10
2.74145574649522
 20
2.084528223465695
 10
2.742184369789636
 20
2.084565721865577
 10
2.742903494144075
 20
2.084626517421027
 10
2.743613335466621
 20
2.084710048875018
 10
2.744314109705022
 20
2.084815755028907
 10
2.745006032753803
 20
2.084943074643407
 10
2.745689320529452
 20
2.085091446524053
 10
2.746364189006789
 20
2.085260309436719
 10
2.747030854080354
 20
2.085449102142118
 10
2.747689531648876
 20
2.085657263432258
 10
2.748340437691381
 20
2.085884232104267
 10
2.748983788084669
 20
2.08612944690534
 10
2.749839933390483
 20
2.086488094295352
 10
2.750683256260321
 20
2.08687753667833
 10
2.751514286501991
 20
2.08729639703229
 10
2.75233355391907
 20
2.087743298303983
 10
2.753141588301627
 20
2.088216863457894
 10
2.753938919484534
 20
2.088715715436566
 10
2.754726077257831
 20
2.089238477204498
 10
2.755503591425146
 20
2.089783771708423
 10
2.756271991776504
 20
2.090350221912827
 10
2.757031808150995
 20
2.090936450791542
 10
2.757783570303197
 20
2.091541081281963
 10
2.758527808085717
 20
2.09216273634019
 10
2.759265051275075
 20
2.092800038948432
 10
2.759995829701942
 20
2.093451612017978
 10
2.760720673147031
 20
2.094116078562312
 10
2.761440111409755
 20
2.094792061496905
 10
2.762154674329167
 20
2.095478183795592
 10
2.762864891677597
 20
2.096173068409307
 10
2.763571293258645
 20
2.096875338284805
 10
2.764093261270463
 20
2.097400846758398
 10
2.764611761594483
 20
2.097930173710102
 10
2.765125137691273
 20
2.098463826152
 10
2.765631732981754
 20
2.099002311037827
 10
2.766129890908752
 20
2.099546135366133
 10
2.766617954893188
 20
2.100095806090647
 10
2.767094268346632
 20
2.100651830214108
 10
2.767557174707728
 20
2.101214714703792
 10
2.768005017432854
 20
2.101784966540512
 10
2.768436139915852
 20
2.102363092713466
 10
2.768848885595363
 20
2.102949600189924
 10
2.769241597927774
 20
2.103544995950703
 10
2.769612620306917
 20
2.104149786985004
 10
2.769960296189158
 20
2.104764480273636
 10
2.770282968981884
 20
2.105389582788065
 10
2.770578982123745
 20
2.106025601495574
 10
2.770846679057575
 20
2.106673043394699
 10
2.771084403208486
 20
2.107332415470448
 10
2.771290497983849
 20
2.108004224694289
 10
2.771463306835848
 20
2.108688978015762
 10
2.771601173180253
 20
2.109387182468879
 10
2.771676458840167
 20
2.109886610002424
 10
2.771733752434626
 20
2.110392039448448
 10
2.771773181590783
 20
2.110902562238517
 10
2.771794873891017
 20
2.111417269826095
 10
2.771798956957344
 20
2.111935253723022
 10
2.77178555839502
 20
2.112455605316049
 10
2.771754805794785
 20
2.112977416121195
 10
2.771706826766101
 20
2.113499777556483
 10
2.771641748895513
 20
2.114021781106667
 10
2.771559699827932
 20
2.114542518216833
 10
2.771460807114451
 20
2.115061080344668
 10
2.77134519839997
 20
2.115576558935264
 10
2.771213001271056
 20
2.116088045473376
 10
2.771064343341353
 20
2.11659463140829
 10
2.770899352193209
 20
2.117095408193493
 10
2.770718155458002
 20
2.117589467291807
 10
2.770520880718099
 20
2.118075900156721
 10
2.770307655573591
 20
2.118553798255256
 10
2.770078607651659
 20
2.119022253018961
 10
2.769833864525313
 20
2.119480355950334
 10
2.769573553835276
 20
2.119927198463186
 10
2.769297803168107
 20
2.120361872042282
 10
2.769006740106164
 20
2.120783468141103
 10
2.768700492263087
 20
2.121191078208934
 10
2.768379187256707
 20
2.121583793726334
 10
2.768042952696474
 20
2.121960706111327
 10
2.76769191613766
 20
2.122320906852857
 10
2.767326205256445
 20
2.122663487391828
 10
2.766988623426568
 20
2.122952714190682
 10
2.766639618296504
 20
2.123226636553411
 10
2.766279279720154
 20
2.123484614785354
 10
2.765907697564936
 20
2.12372600917412
 10
2.76552496164925
 20
2.123950179997969
 10
2.765131161840549
 20
2.124156487544516
 10
2.764726387957227
 20
2.124344292092018
 10
2.764310729870916
 20
2.124512953959352
 10
2.763884277427107
 20
2.124661833389325
 10
2.763447120479675
 20
2.124790290687268
 10
2.762999348847055
 20
2.124897686131451
 10
2.762541052396654
 20
2.124983380009478
  0
LINE
  5
F86
330
C95
100
AcDbEntity
  8
OPTION-RB-SJ
100
AcDbLine
 10
2.756319145778149
 20
2.125818053002316
 30
0.0
 11
2.762541052396654
 21
2.124983380009479
 31
0.0
  0
LINE
  5
F87
330
C95
100
AcDbEntity
  8
OPTION-RB-SJ
100
AcDbLine
 10
2.738416697642606
 20
2.151761319734742
 30
0.0
 11
2.776959102301685
 21
2.146590830008622
 31
0.0
  0
LINE
  5
F88
330
C95
100
AcDbEntity
  8
OPTION-RB-SJ
100
AcDbLine
 10
2.589261602384548
 20
2.081135258423467
 30
0.0
 11
2.649136466176221
 21
2.163326109191953
 31
0.0
  0
LINE
  5
F89
330
C95
100
AcDbEntity
  8
OPTION-RB-SJ
100
AcDbLine
 10
2.615835753544602
 20
2.077570200325061
 30
0.0
 11
2.637664852910851
 21
2.107535369927353
 31
0.0
  0
LWPOLYLINE
  5
F8A
330
C95
100
AcDbEntity
  8
OPTION-RB-SJ
100
AcDbPolyline
 90
      102
 70
     0
 43
0.0
 10
2.533048802524479
 20
2.162243754605249
 10
2.533500836556183
 20
2.16215439065631
 10
2.533949186395227
 20
2.162079858833383
 10
2.534393846883264
 20
2.162019920392216
 10
2.534834812830631
 20
2.161974336592763
 10
2.535272079034134
 20
2.16194286871269
 10
2.535705640304128
 20
2.161925278011941
 10
2.53613549144676
 20
2.161921325719194
 10
2.536561627263048
 20
2.161930773143393
 10
2.536984042576872
 20
2.161953381526758
 10
2.53740273218084
 20
2.161988912115685
 10
2.537817690920784
 20
2.162037126197188
 10
2.538228913575773
 20
2.162097785035424
 10
2.538636394938417
 20
2.162170649876784
 10
2.53904012985035
 20
2.162255481977028
 10
2.539440113126109
 20
2.162352042627362
 10
2.539836339527033
 20
2.16246009307839
 10
2.540228803926027
 20
2.162579394581668
 10
2.540617501088624
 20
2.162709708419062
 10
2.541002425820968
 20
2.162850795819251
 10
2.541383572955357
 20
2.163002418086985
 10
2.54176093729793
 20
2.163164336450943
 10
2.542211556214998
 20
2.163373235355261
 10
2.542656642843789
 20
2.163596378192136
 10
2.543096188119668
 20
2.163833344625262
 10
2.54353018285289
 20
2.164083714335107
 10
2.543958617916282
 20
2.164347066993757
 10
2.5443814841691
 20
2.164622982291031
 10
2.544798772466432
 20
2.164911039885464
 10
2.545210473685284
 20
2.165210819480418
 10
2.545616578680733
 20
2.165521900734429
 10
2.546017078294314
 20
2.165843863323775
 10
2.546411963430119
 20
2.166176286916353
 10
2.546745660586552
 20
2.166469043892484
 10
2.547074798545316
 20
2.166769020225038
 10
2.547398944052583
 20
2.167076068647343
 10
2.547717663868057
 20
2.167390041874985
 10
2.548030524729514
 20
2.16771079257873
 10
2.548337093418592
 20
2.168038173518972
 10
2.548636936655344
 20
2.168372037352951
 10
2.548929621234933
 20
2.168712236823326
 10
2.549214713885798
 20
2.169058624649876
 10
2.549491781359255
 20
2.169411053485638
 10
2.549760390409874
 20
2.169769376126478
 10
2.550020107802486
 20
2.170133445207703
 10
2.550270500301022
 20
2.17050311347616
 10
2.550511134629708
 20
2.170878233620371
 10
2.550741577565976
 20
2.171258658369444
 10
2.550961395865358
 20
2.171644240407698
 10
2.551170156260473
 20
2.172034832486184
 10
2.551367425520369
 20
2.172430287271481
 10
2.551552770408953
 20
2.172830457510436
 10
2.551725757664005
 20
2.173235195873836
 10
2.551885954031689
 20
2.173644355094992
 10
2.552032926302995
 20
2.174057787885293
 10
2.552166241202151
 20
2.174475346933245
 10
2.552285465475327
 20
2.174896884972163
 10
2.552390165913509
 20
2.175322254713447
 10
2.552479909240934
 20
2.175751308845589
 10
2.552554262217306
 20
2.176183900084184
 10
2.552612791602341
 20
2.17661988114481
 10
2.552655064138001
 20
2.177059104729516
 10
2.552680646601737
 20
2.177501423567423
 10
2.552688894795314
 20
2.177864591849013
 10
2.552685734211748
 20
2.178229107395456
 10
2.552671166173677
 20
2.178594353085422
 10
2.552645191976693
 20
2.178959711833031
 10
2.552607812956991
 20
2.17932456649921
 10
2.552559030396598
 20
2.179688300015811
 10
2.552498845680731
 20
2.180050295253116
 10
2.552427260091427
 20
2.180409935142981
 10
2.552344274947139
 20
2.180766602532797
 10
2.552249891574718
 20
2.181119680332482
 10
2.552144111301021
 20
2.181468551451976
 10
2.552026935448711
 20
2.18181259876994
 10
2.55189836531335
 20
2.182151205200502
 10
2.551758402248875
 20
2.182483753618116
 10
2.551607047564405
 20
2.182809626919189
 10
2.551444302555519
 20
2.183128208017835
 10
2.551270168558403
 20
2.183438879774986
 10
2.551084646917649
 20
2.183741025114112
 10
2.550887738942376
 20
2.184034026931609
 10
2.550679445937498
 20
2.184317268092588
 10
2.550459769216339
 20
2.184590131524718
 10
2.550228710132823
 20
2.184852000102465
 10
2.550029500358039
 20
2.185059345357587
 10
2.54982254369238
 20
2.185258439173324
 10
2.549607840918852
 20
2.185448934976786
 10
2.549385392740188
 20
2.185630486189927
 10
2.54915519989556
 20
2.18580274615023
 10
2.548917263167973
 20
2.185965368284795
 10
2.548671583238229
 20
2.186118005970778
 10
2.5484181609029
 20
2.186260312617541
 10
2.548156996874047
 20
2.18639194159802
 10
2.547888091899231
 20
2.18651254631227
 10
2.547611446725995
 20
2.186621780160305
 10
2.547327062101888
 20
2.186719296542145
 10
2.547034938738984
 20
2.186804748830749
 10
2.546735077402571
 20
2.186877790439675
 10
2.546427478836009
 20
2.186938074737687
 10
2.546112143769097
 20
2.186985255111259
 10
2.545789072953576
 20
2.187018984991706
  0
LINE
  5
F8B
330
C95
100
AcDbEntity
  8
OPTION-RB-SJ
100
AcDbLine
 10
2.517383265011179
 20
2.164345297087693
 30
0.0
 11
2.533048802524479
 21
2.162243754605249
 31
0.0
  0
LWPOLYLINE
  5
F8C
330
C95
100
AcDbEntity
  8
OPTION-RB-SJ
100
AcDbPolyline
 90
       90
 70
     0
 43
0.0
 10
2.548268843072681
 20
2.140587080406822
 10
2.549295423395086
 20
2.140672003476951
 10
2.550310572845083
 20
2.140789339610396
 10
2.55131418630463
 20
2.140938493414469
 10
2.55230615862442
 20
2.141118869500655
 10
2.553286384682207
 20
2.141329872444995
 10
2.55425475934223
 20
2.141570906841244
 10
2.555211177477096
 20
2.141841377345718
 10
2.556155533960382
 20
2.142140688503173
 10
2.557087723674047
 20
2.142468244920907
 10
2.558007641437512
 20
2.142823451214619
 10
2.558915182181733
 20
2.143205712000952
 10
2.559810240735473
 20
2.143614431846595
 10
2.560692711980696
 20
2.144049015358846
 10
2.561719340435673
 20
2.144595189117015
 10
2.562728061215426
 20
2.145175675820844
 10
2.563718696912137
 20
2.145789490714944
 10
2.564691070073223
 20
2.146435649065843
 10
2.565645003281535
 20
2.147113166167158
 10
2.566580319151201
 20
2.147821057308302
 10
2.567496840229621
 20
2.148558337755801
 10
2.568394389130917
 20
2.149324022799072
 10
2.569272788402495
 20
2.15011712770466
 10
2.570131860654285
 20
2.150936667730688
 10
2.570971428424333
 20
2.15178165819272
 10
2.571791314353855
 20
2.15265111434468
 10
2.572591340976706
 20
2.153544051470841
 10
2.573371330907011
 20
2.154459484860629
 10
2.574131106692169
 20
2.155396429780569
 10
2.574762438759991
 20
2.156211285959033
 10
2.575377787352598
 20
2.157040461844796
 10
2.575975983649062
 20
2.157883364234792
 10
2.576555858859725
 20
2.158739399921755
 10
2.577116244141715
 20
2.15960797565781
 10
2.577655970718935
 20
2.160488498217958
 10
2.578173869766227
 20
2.161380374367865
 10
2.578668772480408
 20
2.162283010917996
 10
2.579139510067638
 20
2.163195814629823
 10
2.579584913689229
 20
2.164118192286736
 10
2.580003814564874
 20
2.165049550632473
 10
2.580395043891379
 20
2.165989296477496
 10
2.580757432830064
 20
2.166936836605207
 10
2.581089812600639
 20
2.167891577759342
 10
2.581391014395689
 20
2.168852926719085
 10
2.581659869380752
 20
2.169820290299114
 10
2.581895208775513
 20
2.170793075243165
 10
2.582095863754837
 20
2.171770688316884
 10
2.582260665515538
 20
2.172752536330755
 10
2.582388445263758
 20
2.173738026046237
 10
2.58247803416083
 20
2.174726564246735
 10
2.582528263444171
 20
2.175717557689506
 10
2.582537853282766
 20
2.176769807983322
 10
2.582504242783959
 20
2.17782327532468
 10
2.582429752579233
 20
2.178877085337317
 10
2.582316703224
 20
2.17993036367106
 10
2.582167415385213
 20
2.180982235976709
 10
2.581984209627615
 20
2.1820318278551
 10
2.581769406542091
 20
2.183078264983149
 10
2.581525326746586
 20
2.184120673002309
 10
2.581254290854853
 20
2.185158177522755
 10
2.58095861945357
 20
2.18618990419014
 10
2.580640633129425
 20
2.187214978650107
 10
2.580252919414272
 20
2.188374952624868
 10
2.579838335308284
 20
2.189523457509655
 10
2.579396025774874
 20
2.190658817330034
 10
2.578925135826468
 20
2.19177935612091
 10
2.578424810408745
 20
2.192883397894299
 10
2.577894194502866
 20
2.193969266689312
 10
2.577332433072258
 20
2.195035286531508
 10
2.576738671111606
 20
2.196079781442251
 10
2.576112053548873
 20
2.197101075420023
 10
2.57560994031952
 20
2.1978657148286
 10
2.575087713011916
 20
2.198615043038881
 10
2.574544988783707
 20
2.199348309531985
 10
2.573981384734151
 20
2.200064763828685
 10
2.573396517976086
 20
2.200763655432025
 10
2.572790005671313
 20
2.201444233854398
 10
2.572161464883659
 20
2.202105748589502
 10
2.571510512792689
 20
2.202747449163254
 10
2.570836766493477
 20
2.203368585065163
 10
2.570139843130117
 20
2.203968405794078
 10
2.569419359770618
 20
2.204546160874973
 10
2.568674933590332
 20
2.205101099802499
 10
2.567906181702103
 20
2.205632472079692
 10
2.567112721218721
 20
2.206139527209604
 10
2.566294169270765
 20
2.206621514708818
 10
2.565450142953299
 20
2.207077684066832
 10
2.564580259432352
 20
2.207507284827302
 10
2.563684135798816
 20
2.20790956644847
 10
2.56276138918323
 20
2.208283778446908
  0
LINE
  5
F8D
330
C95
100
AcDbEntity
  8
OPTION-RB-SJ
100
AcDbLine
 10
2.487390124935156
 20
2.118343027373806
 30
0.0
 11
2.503055662448459
 21
2.116241484891358
 31
0.0
  0
LWPOLYLINE
  5
F8E
330
C95
100
AcDbEntity
  8
OPTION-RB-SJ
100
AcDbPolyline
 90
       81
 70
     0
 43
0.0
 10
2.510635133821851
 20
2.091683052493055
 10
2.511723685259674
 20
2.091682619144509
 10
2.512805459393303
 20
2.091712069945908
 10
2.513880300488503
 20
2.091770935774111
 10
2.514948052730764
 20
2.091858747500825
 10
2.516008560390035
 20
2.091975036034187
 10
2.517061667651814
 20
2.092119332245899
 10
2.518107218781859
 20
2.092291167012825
 10
2.519145057969851
 20
2.092490071237945
 10
2.5201750294461
 20
2.092715575771033
 10
2.52119697746701
 20
2.092967211537965
 10
2.522210746231613
 20
2.093244509392706
 10
2.523216179978599
 20
2.09354700024759
 10
2.524213122920527
 20
2.093874214938857
 10
2.525201419282554
 20
2.094225684396556
 10
2.526180913330434
 20
2.094600939497553
 10
2.527243255501768
 20
2.095038603966271
 10
2.528294650546063
 20
2.095503613576535
 10
2.529334893880559
 20
2.095995352214724
 10
2.530363780948608
 20
2.096513203843288
 10
2.531381107211304
 20
2.097056552438219
 10
2.532386668041068
 20
2.09762478190782
 10
2.533380258934457
 20
2.098217276255171
 10
2.534361675277431
 20
2.098833419370825
 10
2.53533071254462
 20
2.099472595213057
 10
2.536287166165838
 20
2.100134187762045
 10
2.537230831531251
 20
2.10081758093964
 10
2.538161504129021
 20
2.101522158686356
 10
2.539078979371226
 20
2.102247304968849
 10
2.539983052714772
 20
2.102992403731844
 10
2.540873519536269
 20
2.10375683891491
 10
2.541750175341626
 20
2.104539994472121
 10
2.542612815520996
 20
2.105341254325303
 10
2.543323391046051
 20
2.106025162571263
 10
2.54402255909133
 20
2.106721458415142
 10
2.544708865658704
 20
2.107430288410102
 10
2.545380856785515
 20
2.108151799136368
 10
2.546037078487155
 20
2.10888613712938
 10
2.546676076814506
 20
2.109633448951627
 10
2.547296397751698
 20
2.110393881142729
 10
2.547896587353804
 20
2.111167580296457
 10
2.548475191667507
 20
2.111954692944038
 10
2.54903075664985
 20
2.112755365660561
 10
2.54956182839653
 20
2.113569744986596
 10
2.550066952891677
 20
2.11439797746176
 10
2.550544676176814
 20
2.115240209697552
 10
2.550993544280893
 20
2.116096588211676
 10
2.551412103223527
 20
2.116967259570814
 10
2.55179889903783
 20
2.117852370323936
 10
2.552152477743428
 20
2.118752067037734
 10
2.552471385342174
 20
2.119666496265361
 10
2.552711566701949
 20
2.120446205725277
 10
2.552925767441408
 20
2.121235198005679
 10
2.553113517262597
 20
2.122032248889247
 10
2.553274345783108
 20
2.12283613412225
 10
2.553407782745609
 20
2.123645629434164
 10
2.553513357798966
 20
2.124459510567054
 10
2.553590600627497
 20
2.125276553290068
 10
2.553639040911328
 20
2.126095533341072
 10
2.553658208330589
 20
2.126915226457938
 10
2.553647632551877
 20
2.127734408396269
 10
2.553606843268852
 20
2.128551854876201
 10
2.553535370152305
 20
2.129366341684616
 10
2.553432742895902
 20
2.130176644541645
 10
2.553321825635298
 20
2.130854776145861
 10
2.553188206979974
 20
2.13152834269176
 10
2.553031606157835
 20
2.132196613395141
 10
2.552851742406157
 20
2.132858857422791
 10
2.552648334979937
 20
2.13351434395503
 10
2.552421103102902
 20
2.134162342176384
 10
2.552169766061318
 20
2.134802121262982
 10
2.551894043034121
 20
2.135432950421266
 10
2.551593653321096
 20
2.136054098809641
 10
2.551268316145975
 20
2.136664835612625
 10
2.550917750718961
 20
2.137264430032465
 10
2.550541676322115
 20
2.137852151214026
 10
2.550139812183367
 20
2.1384272683731
 10
2.549711877544176
 20
2.138989050707742
 10
2.549257591655345
 20
2.139536767367006
 10
2.548776673754147
 20
2.140069687517677
 10
2.548268843072681
 20
2.140587080406822
  0
LINE
  5
F8F
330
C95
100
AcDbEntity
  8
OPTION-RB-SJ
100
AcDbLine
 10
2.487389993778045
 20
2.118342927272064
 30
0.0
 11
2.503268721322274
 21
2.142697013795412
 31
0.0
  0
LWPOLYLINE
  5
F90
330
C95
100
AcDbEntity
  8
OPTION-RB-SJ
100
AcDbPolyline
 90
      102
 70
     0
 43
0.0
 10
2.503055662448459
 20
2.116241484891358
 10
2.503537319792237
 20
2.116159558984665
 10
2.504013739623207
 20
2.116092070248794
 10
2.504484986941442
 20
2.116038857248113
 10
2.504951126782475
 20
2.115999758574082
 10
2.505412224101532
 20
2.115974612813007
 10
2.505868343961238
 20
2.11596325852087
 10
2.506319551321028
 20
2.11596553431525
 10
2.506765911225774
 20
2.115981278738593
 10
2.507207488648456
 20
2.116010330390748
 10
2.507644348620405
 20
2.116052527831885
 10
2.50807655611461
 20
2.116107709661857
 10
2.508504176180136
 20
2.116175714454379
 10
2.508927273803491
 20
2.116256380791569
 10
2.509345914016026
 20
2.116349547233595
 10
2.509760161777176
 20
2.116455052398045
 10
2.510170082131802
 20
2.116572734827355
 10
2.510575740052904
 20
2.116702433121384
 10
2.510977200589537
 20
2.116843985853835
 10
2.511374528710495
 20
2.116997231593293
 10
2.511767789451295
 20
2.117162008931208
 10
2.512215099602829
 20
2.117365551308961
 10
2.512657215358117
 20
2.117583885485317
 10
2.513094235590771
 20
2.11781676601858
 10
2.513526259193084
 20
2.118063947369078
 10
2.513953385030275
 20
2.118325184032579
 10
2.514375711936266
 20
2.118600230509064
 10
2.514793338807558
 20
2.118888841290119
 10
2.515206364505167
 20
2.119190770840248
 10
2.515614887916234
 20
2.119505773700042
 10
2.516019007915322
 20
2.119833604316277
 10
2.516418823340553
 20
2.120174017220194
 10
2.51673559240698
 20
2.120455244337914
 10
2.51704925875315
 20
2.120744114374181
 10
2.517359411728417
 20
2.121040373388986
 10
2.517665640695689
 20
2.121343767424574
 10
2.517967535008504
 20
2.121654042572213
 10
2.518264684016217
 20
2.12197094489188
 10
2.518556677113001
 20
2.122294220421636
 10
2.518843103621124
 20
2.122623615256926
 10
2.519123552934767
 20
2.122958875435814
 10
2.519397614389739
 20
2.123299747036015
 10
2.519664877380201
 20
2.123645976095585
 10
2.519924931210715
 20
2.123997308696433
 10
2.520177365279622
 20
2.124353490907899
 10
2.520421768949832
 20
2.124714268772224
 10
2.520657731557145
 20
2.125079388367133
 10
2.520884842482212
 20
2.125448595748412
 10
2.521102691092102
 20
2.125821636989583
 10
2.521310866718443
 20
2.126198258137097
 10
2.521508958741873
 20
2.12657820524674
 10
2.52169655649819
 20
2.126961224396232
 10
2.521873249385771
 20
2.127347061654906
 10
2.522038626749778
 20
2.127735463051467
 10
2.522192277930203
 20
2.128126174694907
 10
2.522333792303499
 20
2.12851894260975
 10
2.522462759236752
 20
2.128913512869511
 10
2.522578768097045
 20
2.129309631547721
 10
2.522681408215998
 20
2.129707044690827
 10
2.522770268960711
 20
2.130105498372341
 10
2.522844939711811
 20
2.130504738648061
 10
2.522905009805103
 20
2.130904511595713
 10
2.522950068634761
 20
2.131304563253335
 10
2.522979705518862
 20
2.131704639685124
 10
2.522993509842237
 20
2.13210448697813
 10
2.522991070967786
 20
2.13250385117461
 10
2.522971978231318
 20
2.132902478352286
 10
2.522935821026991
 20
2.133300114549202
 10
2.522882188690629
 20
2.133696505843093
 10
2.522810670585128
 20
2.134091398276199
 10
2.522736644131908
 20
2.134421318238365
 10
2.52264996530332
 20
2.134749456727604
 10
2.522550861978556
 20
2.135075266257612
 10
2.522439562014858
 20
2.135398199297279
 10
2.522316293269493
 20
2.13571770831548
 10
2.522181283648697
 20
2.136033245790453
 10
2.52203476101394
 20
2.136344264222349
 10
2.521876953218261
 20
2.136650216048787
 10
2.521708088136647
 20
2.136950553752186
 10
2.521528393661834
 20
2.137244729828508
 10
2.52133809764686
 20
2.13753219671537
 10
2.521137427957373
 20
2.137812406944197
 10
2.520926612508979
 20
2.138084812944216
 10
2.520705879114108
 20
2.138348867206233
 10
2.520475455661296
 20
2.13860402219494
 10
2.520235570043257
 20
2.13884973040631
 10
2.520008461438473
 20
2.139065369141204
 10
2.519773827326007
 20
2.139272258419044
 10
2.519531841169217
 20
2.139469981448588
 10
2.519282676476254
 20
2.139658121416673
 10
2.519026506706267
 20
2.139836261500795
 10
2.518763505331944
 20
2.140003984860719
 10
2.518493845816634
 20
2.140160874705202
 10
2.518217701650761
 20
2.140306514207553
 10
2.517935246293475
 20
2.140440486545243
 10
2.517646653221667
 20
2.140562374909329
 10
2.517352095908003
 20
2.140671762459561
 10
2.517051747847129
 20
2.140768232400506
 10
2.516745782484639
 20
2.140851367927395
 10
2.516434373306774
 20
2.140920752182254
 10
2.516117693776858
 20
2.140975968373847
 10
2.515795917354065
 20
2.141016599679665
  0
LINE
  5
F91
330
C95
100
AcDbEntity
  8
OPTION-RB-SJ
100
AcDbLine
 10
2.545323448380319
 20
2.087029591583861
 30
0.0
 11
2.57423028078642
 21
2.083151720410739
 31
0.0
  0
LINE
  5
F92
330
C95
100
AcDbEntity
  8
OPTION-RB-SJ
100
AcDbLine
 10
2.503268968099467
 20
2.142697098418477
 30
0.0
 11
2.515795917354065
 21
2.141016599679665
 31
0.0
  0
LINE
  5
F93
330
C95
100
AcDbEntity
  8
OPTION-RB-SJ
100
AcDbLine
 10
2.545323217099535
 20
2.087029622594418
 30
0.0
 11
2.598892899015434
 21
2.170478531951572
 31
0.0
  0
LINE
  5
F94
330
C95
100
AcDbEntity
  8
OPTION-RB-SJ
100
AcDbLine
 10
2.533262123698985
 20
2.188699483730527
 30
0.0
 11
2.545789072953576
 21
2.187018984991706
 31
0.0
  0
LINE
  5
F95
330
C95
100
AcDbEntity
  8
OPTION-RB-SJ
100
AcDbLine
 10
2.517383149395286
 20
2.164345312597644
 30
0.0
 11
2.533261876908249
 21
2.188699399125189
 31
0.0
  0
LINE
  5
F96
330
C95
100
AcDbEntity
  8
OPTION-RB-SJ
100
AcDbLine
 10
2.515359559934007
 20
2.214642765990638
 30
0.0
 11
2.56276138918323
 21
2.208283778446908
 31
0.0
  0
LINE
  5
F97
330
C95
100
AcDbEntity
  8
OPTION-RB-SJ
100
AcDbLine
 10
2.441258736034705
 20
2.100989943310234
 30
0.0
 11
2.515359328670955
 21
2.21464279701473
 31
0.0
  0
LINE
  5
F98
330
C95
100
AcDbEntity
  8
OPTION-RB-SJ
100
AcDbLine
 10
2.44125885168186
 20
2.100989927796091
 30
0.0
 11
2.510635133821851
 21
2.091683052493056
 31
0.0
  0
LINE
  5
F99
330
C95
100
AcDbEntity
  8
OPTION-RB-SJ
100
AcDbLine
 10
2.598893014631327
 20
2.170478516441621
 30
0.0
 11
2.627799847037424
 21
2.166600645268496
 31
0.0
  0
LINE
  5
F9A
330
C95
100
AcDbEntity
  8
OPTION-RB-SJ
100
AcDbLine
 10
2.5892618336476
 20
2.081135227399369
 30
0.0
 11
2.615835884670432
 21
2.077570300431
 31
0.0
  0
LINE
  5
F9B
330
C95
100
AcDbEntity
  8
OPTION-RB-SJ
100
AcDbLine
 10
2.574230165152796
 20
2.083151735907147
 30
0.0
 11
2.627799715911583
 21
2.166600545162553
 31
0.0
  0
LINE
  5
F9C
330
C95
100
AcDbEntity
  8
OPTION-RB-SJ
100
AcDbLine
 10
2.305410948698539
 20
2.233390740386449
 30
0.0
 11
2.318665668769396
 21
2.226904400192853
 31
0.0
  0
LINE
  5
F9D
330
C95
100
AcDbEntity
  8
OPTION-RB-SJ
100
AcDbLine
 10
2.321528305503746
 20
2.239468160446062
 30
0.0
 11
2.327154557128067
 21
2.237536312912077
 31
0.0
  0
LINE
  5
F9E
330
C95
100
AcDbEntity
  8
OPTION-RB-SJ
100
AcDbLine
 10
2.311572898619644
 20
2.226678700328044
 30
0.0
 11
2.305410848596791
 21
2.233390871543558
 31
0.0
  0
LINE
  5
F9F
330
C95
100
AcDbEntity
  8
OPTION-RB-SJ
100
AcDbLine
 10
2.326378882790864
 20
2.231755077581716
 30
0.0
 11
2.32152832101789
 21
2.239468276093225
 31
0.0
  0
ARC
  5
FA0
330
C95
100
AcDbEntity
  8
OPTION-RB-SJ
100
AcDbCircle
 10
2.412462233637421
 20
2.203173787326986
 30
0.0
 40
0.0165660994034248
100
AcDbArc
 50
324.884917526065
 51
42.18012680566529
  0
LINE
  5
FA1
330
C95
100
AcDbEntity
  8
OPTION-RB-SJ
100
AcDbLine
 10
2.38058277347596
 20
2.240962619983467
 30
0.0
 11
2.390213759036395
 21
2.233785088744644
 31
0.0
  0
LINE
  5
FA2
330
C95
100
AcDbEntity
  8
OPTION-RB-SJ
100
AcDbLine
 10
2.388662410312974
 20
2.222222618074576
 30
0.0
 11
2.380582673342946
 21
2.240962751144773
 31
0.0
  0
ARC
  5
FA3
330
C95
100
AcDbEntity
  8
OPTION-RB-SJ
100
AcDbCircle
 10
2.401822754603379
 20
2.100968784455042
 30
0.0
 40
0.0407779374502621
100
AcDbArc
 50
26.29324862376515
 51
75.68724158406531
  0
ARC
  5
FA4
330
C95
100
AcDbEntity
  8
OPTION-RB-SJ
100
AcDbCircle
 10
2.399773433972245
 20
2.12540556284501
 30
0.0
 40
0.0179092966469241
100
AcDbArc
 50
73.42585473396524
 51
139.6241228802652
  0
ARC
  5
FA5
330
C95
100
AcDbEntity
  8
OPTION-RB-SJ
100
AcDbCircle
 10
2.422756389126349
 20
2.136799191350618
 30
0.0
 40
0.0148776560095323
100
AcDbArc
 50
337.263747176565
 51
83.11490308136525
  0
ARC
  5
FA6
330
C95
100
AcDbEntity
  8
OPTION-RB-SJ
100
AcDbCircle
 10
2.414558773139319
 20
2.161788305164497
 30
0.0
 40
0.0089546483123064
100
AcDbArc
 50
144.8849175260654
 51
263.1149030813656
  0
ARC
  5
FA7
330
C95
100
AcDbEntity
  8
OPTION-RB-SJ
100
AcDbCircle
 10
2.363783375787195
 20
2.132844762374831
 30
0.0
 40
0.0143274373086147
100
AcDbArc
 50
236.5633226578655
 51
319.6241228802656
  0
LINE
  5
FA8
330
C95
100
AcDbEntity
  8
OPTION-RB-SJ
100
AcDbLine
 10
2.378171405296381
 20
2.214213219315467
 30
0.0
 11
2.388958564035865
 21
2.206880704357062
 31
0.0
  0
LINE
  5
FA9
330
C95
100
AcDbEntity
  8
OPTION-RB-SJ
100
AcDbLine
 10
2.351647704461916
 20
2.209531817349481
 30
0.0
 11
2.385475568030951
 21
2.189691719757787
 31
0.0
  0
LINE
  5
FAA
330
C95
100
AcDbEntity
  8
OPTION-RB-SJ
100
AcDbLine
 10
2.32133076780903
 20
2.233609367692997
 30
0.0
 11
2.326378882790864
 21
2.231755077581716
 31
0.0
  0
LINE
  5
FAB
330
C95
100
AcDbEntity
  8
OPTION-RB-SJ
100
AcDbLine
 10
2.343906022600728
 20
2.16937249717341
 30
0.0
 11
2.361941166423584
 21
2.163421824225421
 31
0.0
  0
LINE
  5
FAC
330
C95
100
AcDbEntity
  8
OPTION-RB-SJ
100
AcDbLine
 10
2.327407982273681
 20
2.16923167407611
 30
0.0
 11
2.352225535407699
 21
2.161194054272208
 31
0.0
  0
LINE
  5
FAD
330
C95
100
AcDbEntity
  8
OPTION-RB-SJ
100
AcDbLine
 10
2.311600855177036
 20
2.165466800599999
 30
0.0
 11
2.338730954912296
 21
2.157118951101076
 31
0.0
  0
LINE
  5
FAE
330
C95
100
AcDbEntity
  8
OPTION-RB-SJ
100
AcDbLine
 10
2.316973697187634
 20
2.231839707562681
 30
0.0
 11
2.323756222128212
 21
2.229752745179084
 31
0.0
  0
LINE
  5
FAF
330
C95
100
AcDbEntity
  8
OPTION-RB-SJ
100
AcDbLine
 10
2.404882166425608
 20
2.142570753179303
 30
0.0
 11
2.411903663562541
 21
2.140481003539512
 31
0.0
  0
LINE
  5
FB0
330
C95
100
AcDbEntity
  8
OPTION-RB-SJ
100
AcDbLine
 10
2.359247820671074
 20
2.169668666410451
 30
0.0
 11
2.371156133632087
 21
2.166305535048111
 31
0.0
  0
LINE
  5
FB1
330
C95
100
AcDbEntity
  8
OPTION-RB-SJ
100
AcDbLine
 10
2.436844794035506
 20
2.125123717811908
 30
0.0
 11
2.44709613886232
 21
2.122571410887876
 31
0.0
  0
LINE
  5
FB2
330
C95
100
AcDbEntity
  8
OPTION-RB-SJ
100
AcDbLine
 10
2.424539168570713
 20
2.151563485179709
 30
0.0
 11
2.413485302327129
 21
2.152898232766903
 31
0.0
  0
LINE
  5
FB3
330
C95
100
AcDbEntity
  8
OPTION-RB-SJ
100
AcDbLine
 10
2.386129932747837
 20
2.137007191194945
 30
0.0
 11
2.374698176767558
 21
2.123563459701141
 31
0.0
  0
LINE
  5
FB4
330
C95
100
AcDbEntity
  8
OPTION-RB-SJ
100
AcDbLine
 10
2.371156018016197
 20
2.166305550558058
 30
0.0
 11
2.34031045560286
 21
2.203990342341915
 31
0.0
  0
LINE
  5
FB5
330
C95
100
AcDbEntity
  8
OPTION-RB-SJ
100
AcDbLine
 10
2.338730954912296
 20
2.157118951101076
 30
0.0
 11
2.327407982273681
 21
2.16923167407611
 31
0.0
  0
LINE
  5
FB6
330
C95
100
AcDbEntity
  8
OPTION-RB-SJ
100
AcDbLine
 10
2.352225535407699
 20
2.161194054272208
 30
0.0
 11
2.343906022600728
 21
2.16937249717341
 31
0.0
  0
LINE
  5
FB7
330
C95
100
AcDbEntity
  8
OPTION-RB-SJ
100
AcDbLine
 10
2.323078942678803
 20
2.154510350923493
 30
0.0
 11
2.31160097081066
 21
2.165466785103592
 31
0.0
  0
LINE
  5
FB8
330
C95
100
AcDbEntity
  8
OPTION-RB-SJ
100
AcDbLine
 10
2.381090250678939
 20
2.200873869299105
 30
0.0
 11
2.387407431079084
 21
2.195318087029278
 31
0.0
  0
LINE
  5
FB9
330
C95
100
AcDbEntity
  8
OPTION-RB-SJ
100
AcDbLine
 10
2.447096254509484
 20
2.122571395373727
 30
0.0
 11
2.436477957986086
 21
2.131049130780387
 31
0.0
  0
LINE
  5
FBA
330
C95
100
AcDbEntity
  8
OPTION-RB-SJ
100
AcDbLine
 10
2.438381750873602
 20
2.119032005999982
 30
0.0
 11
2.43684476301141
 21
2.125123486548859
 31
0.0
  0
LINE
  5
FBB
330
C95
100
AcDbEntity
  8
OPTION-RB-SJ
100
AcDbLine
 10
2.318665784398824
 20
2.226904384665169
 30
0.0
 11
2.316973697187634
 21
2.231839707562681
 31
0.0
  0
LINE
  5
FBC
330
C95
100
AcDbEntity
  8
OPTION-RB-SJ
100
AcDbLine
 10
2.385475599055048
 20
2.18969195102084
 30
0.0
 11
2.381090250678939
 21
2.200873869299105
 31
0.0
  0
LINE
  5
FBD
330
C95
100
AcDbEntity
  8
OPTION-RB-SJ
100
AcDbLine
 10
2.36194106632184
 20
2.163421955382536
 30
0.0
 11
2.359247820671074
 21
2.169668666410451
 31
0.0
  0
LINE
  5
FBE
330
C95
100
AcDbEntity
  8
OPTION-RB-SJ
100
AcDbLine
 10
2.388958448388702
 20
2.206880719871206
 30
0.0
 11
2.378876410040136
 21
2.228243744867107
 31
0.0
  0
LINE
  5
FBF
330
C95
100
AcDbEntity
  8
OPTION-RB-SJ
100
AcDbLine
 10
2.387407299917776
 20
2.19531798689626
 30
0.0
 11
2.378171289649218
 21
2.214213234829611
 31
0.0
  0
LINE
  5
FC0
330
C95
100
AcDbEntity
  8
OPTION-RB-SJ
100
AcDbLine
 10
2.323756106494591
 20
2.229752760675496
 30
0.0
 11
2.32133076780903
 21
2.233609367692997
 31
0.0
  0
LINE
  5
FC1
330
C95
100
AcDbEntity
  8
OPTION-RB-SJ
100
AcDbLine
 10
2.378876641303184
 20
2.228243713843015
 30
0.0
 11
2.388662525960134
 21
2.222222602560429
 31
0.0
  0
LINE
  5
FC2
330
C95
100
AcDbEntity
  8
OPTION-RB-SJ
100
AcDbLine
 10
2.426013275204883
 20
2.19364462568913
 30
0.0
 11
2.407233885806462
 21
2.166939203353887
 31
0.0
  0
LINE
  5
FC3
330
C95
100
AcDbEntity
  8
OPTION-RB-SJ
100
AcDbLine
 10
2.327154572642215
 20
2.237536428559238
 30
0.0
 11
2.318228776568075
 21
2.258744107428939
 31
0.0
  0
LINE
  5
FC4
330
C95
100
AcDbEntity
  8
OPTION-RB-SJ
100
AcDbLine
 10
2.318228660952189
 20
2.258744122938887
 30
0.0
 11
2.351647488713004
 21
2.209531964020737
 31
0.0
  0
LINE
  5
FC5
330
C95
100
AcDbEntity
  8
OPTION-RB-SJ
100
AcDbLine
 10
2.379060092844751
 20
2.264708529795734
 30
0.0
 11
2.424738335183971
 21
2.214297320058758
 31
0.0
  0
LINE
  5
FC6
330
C95
100
AcDbEntity
  8
OPTION-RB-SJ
100
AcDbLine
 10
2.390213658916919
 20
2.233785219888215
 30
0.0
 11
2.379059992743011
 21
2.264708660952845
 31
0.0
  0
LINE
  5
FC7
330
C95
100
AcDbEntity
  8
OPTION-RB-SJ
100
AcDbLine
 10
2.340310571236489
 20
2.203990326845505
 30
0.0
 11
2.281975268599035
 21
2.234180606370025
 31
0.0
  0
LINE
  5
FC8
330
C95
100
AcDbEntity
  8
OPTION-RB-SJ
100
AcDbLine
 10
2.281975384214924
 20
2.234180590860074
 30
0.0
 11
2.311573029763216
 21
2.226678800447524
 31
0.0
  0
LINE
  5
FC9
330
C95
100
AcDbEntity
  8
OPTION-RB-SJ
100
AcDbLine
 10
2.28091785803914
 20
2.21313509936278
 30
0.0
 11
2.309824690476516
 21
2.209257228185458
 31
0.0
  0
LINE
  5
FCA
330
C95
100
AcDbEntity
  8
OPTION-RB-SJ
100
AcDbLine
 10
2.289166433618847
 20
2.164945147296067
 30
0.0
 11
2.355888742251545
 21
2.120888583168034
 31
0.0
  0
LINE
  5
FCB
330
C95
100
AcDbEntity
  8
OPTION-RB-SJ
100
AcDbLine
 10
2.289166433618847
 20
2.164945147296067
 30
0.0
 11
2.323079058294692
 21
2.154510335413541
 31
0.0
  0
LINE
  5
FCC
330
C95
100
AcDbEntity
  8
OPTION-RB-SJ
100
AcDbLine
 10
2.256254993050661
 20
2.125808203212416
 30
0.0
 11
2.309824643924732
 21
2.209256881292981
 31
0.0
  0
LINE
  5
FCD
330
C95
100
AcDbEntity
  8
OPTION-RB-SJ
100
AcDbLine
 10
3.557286710309312
 20
1.813658780233569
 30
0.0
 11
3.167139445490144
 21
1.86300729601426
 31
0.0
  0
LINE
  5
FCE
330
C95
100
AcDbEntity
  8
OPTION-RB-SJ
100
AcDbLine
 10
3.771447438278988
 20
2.145835682448242
 30
0.0
 11
3.783131385320873
 21
2.145489567059385
 31
0.0
  0
LWPOLYLINE
  5
FCF
330
C95
100
AcDbEntity
  8
OPTION-RB-SJ
100
AcDbPolyline
 90
        4
 70
     0
 43
0.0
 10
3.774137781187985
 20
2.17248847018536
 10
3.773373546378623
 20
2.17317661521738
 10
3.7726430535928
 20
2.173514792083375
 10
3.772013260118672
 20
2.17347198570029
  0
LINE
  5
FD0
330
C95
100
AcDbEntity
  8
OPTION-RB-SJ
100
AcDbLine
 10
3.721328044272524
 20
2.152175128947749
 30
0.0
 11
3.772013260118674
 21
2.17347198570029
 31
0.0
  0
LINE
  5
FD1
330
C95
100
AcDbEntity
  8
OPTION-RB-SJ
100
AcDbLine
 10
3.724760112792979
 20
2.151741017244248
 30
0.0
 11
3.774137781187985
 21
2.17248847018536
 31
0.0
  0
LINE
  5
FD2
330
C95
100
AcDbEntity
  8
OPTION-RB-SJ
100
AcDbLine
 10
3.639008783039779
 20
2.165880907892008
 30
0.0
 11
3.611152709824302
 21
2.201804239995855
 31
0.0
  0
ARC
  5
FD3
330
C95
100
AcDbEntity
  8
OPTION-RB-SJ
100
AcDbCircle
 10
3.647824597822975
 20
2.172716965898678
 30
0.0
 40
0.0111557285446598
100
AcDbArc
 50
217.7911169583366
 51
262.7911169583367
  0
ARC
  5
FD4
330
C95
100
AcDbEntity
  8
OPTION-RB-SJ
100
AcDbCircle
 10
3.605863220954387
 20
2.197702605191854
 30
0.0
 40
0.0066934371267959
100
AcDbArc
 50
37.79111695833715
 51
82.79111695833721
  0
LINE
  5
FD5
330
C95
100
AcDbEntity
  8
OPTION-RB-SJ
100
AcDbLine
 10
3.790698856447744
 20
2.143400630372363
 30
0.0
 11
3.646424698365911
 21
2.161649420515598
 31
0.0
  0
LINE
  5
FD6
330
C95
100
AcDbEntity
  8
OPTION-RB-SJ
100
AcDbLine
 10
3.63747836296309
 20
2.167854545319226
 30
0.0
 11
3.696399830985893
 21
2.167854545319226
 31
0.0
  0
ARC
  5
FD7
330
C95
100
AcDbEntity
  8
OPTION-RB-SJ
100
AcDbCircle
 10
3.752061631852137
 20
1.837936377644475
 30
0.0
 40
0.0446229141786391
100
AcDbArc
 50
232.7911169583366
 51
292.7911169583368
  0
LWPOLYLINE
  5
FD8
330
C95
100
AcDbEntity
  8
OPTION-RB-SJ
100
AcDbPolyline
 90
       10
 70
     0
 43
0.0
 10
3.767222807668503
 20
1.797780992430761
 10
3.764536433024233
 20
1.796763668496477
 10
3.761439485587517
 20
1.795852861936173
 10
3.757890119601699
 20
1.795130700129193
 10
3.753848118368491
 20
1.794704774824646
 10
3.749279163501713
 20
1.79471640538794
 10
3.744188220758951
 20
1.795347677516119
 10
3.738690167504519
 20
1.796799268782785
 10
3.732998813710089
 20
1.799247280102045
 10
3.727379644276024
 20
1.802820630420634
  0
LINE
  5
FD9
330
C95
100
AcDbEntity
  8
OPTION-RB-SJ
100
AcDbLine
 10
3.727379644276024
 20
1.802820630420634
 30
0.0
 11
3.684722988757954
 21
1.835209219146956
 31
0.0
  0
LWPOLYLINE
  5
FDA
330
C95
100
AcDbEntity
  8
OPTION-RB-SJ
100
AcDbPolyline
 90
        4
 70
     0
 43
0.0
 10
3.767222807668503
 20
1.797780992430761
 10
3.767987054565411
 20
1.797092838109514
 10
3.768717545811197
 20
1.796754667926444
 10
3.769347328706514
 20
1.796797476919791
  0
LWPOLYLINE
  5
FDB
330
C95
100
AcDbEntity
  8
OPTION-RB-SJ
100
AcDbPolyline
 90
        4
 70
     0
 43
0.0
 10
3.727379644276024
 20
1.802820630420634
 10
3.726468122663188
 20
1.802344438742147
 10
3.72567643648571
 20
1.802198804149079
 10
3.725077147166265
 20
1.802397074685433
  0
LWPOLYLINE
  5
FDC
330
C95
100
AcDbEntity
  8
OPTION-RB-SJ
100
AcDbPolyline
 90
        3
 70
     0
 43
0.0
 10
3.758142873162626
 20
1.824786701979881
 10
3.742151425402841
 20
1.826846968224978
 10
3.731492611603258
 20
1.829293474813568
  0
ARC
  5
FDD
330
C95
100
AcDbEntity
  8
OPTION-RB-SJ
100
AcDbCircle
 10
3.604987674905117
 20
1.834050077031257
 30
0.0
 40
0.0111557285446598
100
AcDbArc
 50
82.79111695833732
 51
127.7911169583374
  0
ARC
  5
FDE
330
C95
100
AcDbEntity
  8
OPTION-RB-SJ
100
AcDbCircle
 10
3.558126649990605
 20
1.820299307468888
 30
0.0
 40
0.0066934371267959
100
AcDbArc
 50
262.7911169583367
 51
307.7911169583375
  0
LINE
  5
FDF
330
C95
100
AcDbEntity
  8
OPTION-RB-SJ
100
AcDbLine
 10
3.598151616898449
 20
1.842865891814452
 30
0.0
 11
3.562228284794606
 21
1.815009818598972
 31
0.0
  0
LINE
  5
FE0
330
C95
100
AcDbEntity
  8
OPTION-RB-SJ
100
AcDbLine
 10
3.563062666841745
 20
1.821606407541049
 30
0.0
 11
3.660809948692079
 21
1.821606407541049
 31
0.0
  0
LINE
  5
FE1
330
C95
100
AcDbEntity
  8
OPTION-RB-SJ
100
AcDbLine
 10
3.750661732412708
 20
1.826868832275065
 30
0.0
 11
3.606387574348509
 21
1.845117622431972
 31
0.0
  0
LINE
  5
FE2
330
C95
100
AcDbEntity
  8
OPTION-RB-SJ
100
AcDbLine
 10
3.725077147166265
 20
1.802397074685433
 30
0.0
 11
3.681290920237485
 21
1.835643330850452
 31
0.0
  0
LINE
  5
FE3
330
C95
100
AcDbEntity
  8
OPTION-RB-SJ
100
AcDbLine
 10
3.557286710309312
 20
1.813658780233569
 30
0.0
 11
3.60670316060437
 21
2.204343132431129
 31
0.0
  0
LINE
  5
FE4
330
C95
100
AcDbEntity
  8
OPTION-RB-SJ
100
AcDbLine
 10
3.611152709824302
 20
2.201804239995855
 30
0.0
 11
3.562228284794606
 21
1.815009818598972
 31
0.0
  0
LINE
  5
FE5
330
C95
100
AcDbEntity
  8
OPTION-RB-SJ
100
AcDbLine
 10
3.598151616898449
 20
1.842865891814452
 30
0.0
 11
3.639008783039779
 21
2.165880907892008
 31
0.0
  0
LINE
  5
FE6
330
C95
100
AcDbEntity
  8
OPTION-RB-SJ
100
AcDbLine
 10
3.606387574348509
 20
1.845117622431972
 30
0.0
 11
3.646424698365911
 21
2.161649420515598
 31
0.0
  0
TEXT
  5
FE7
330
C95
100
AcDbEntity
  8
TEXT-RB-SJ-BUBBLES
100
AcDbText
 10
3.494157147468215
 20
2.905539839048085
 30
0.0
 40
0.125
  1
3
  7
ROMANS
 72
     4
 11
3.553680956992025
 21
2.968039839048085
 31
0.0
100
AcDbText
  0
CIRCLE
  5
FE8
330
C95
100
AcDbEntity
  8
TEXT-RB-SJ-BUBBLES
100
AcDbCircle
 10
3.553680956992025
 20
2.968039839048085
 30
0.0
 40
0.15625
  0
ARC
  5
FE9
330
C95
100
AcDbEntity
  8
OPTION-RB-SJ
100
AcDbCircle
 10
3.216135925953372
 20
2.250371384600999
 30
0.0
 40
0.0033467185633979
100
AcDbArc
 50
82.79111695833732
 51
172.7911169583373
  0
ARC
  5
FEA
330
C95
100
AcDbEntity
  8
OPTION-RB-SJ
100
AcDbCircle
 10
3.167915526038907
 20
2.251410556784215
 30
0.0
 40
0.0044622914178639
100
AcDbArc
 50
352.791116958337
 51
82.79111695833732
  0
LINE
  5
FEB
330
C95
100
AcDbEntity
  8
OPTION-RB-SJ
100
AcDbLine
 10
3.16772528196479
 20
2.249906495233593
 30
0.0
 11
3.124377877808804
 21
2.255389373753923
 31
0.0
  0
LINE
  5
FEC
330
C95
100
AcDbEntity
  8
OPTION-RB-SJ
100
AcDbLine
 10
3.130419479239451
 20
2.260651161006709
 30
0.0
 11
3.168475485814676
 21
2.255837574931978
 31
0.0
  0
LWPOLYLINE
  5
FED
330
C95
100
AcDbEntity
  8
OPTION-RB-SJ
100
AcDbPolyline
 90
        4
 70
     0
 43
0.0
 10
3.121158515197325
 20
2.255081789472474
 10
3.122101237646655
 20
2.255554034669959
 10
3.123208177084259
 20
2.255659793857291
 10
3.124377877808804
 20
2.255389373753924
  0
LWPOLYLINE
  5
FEE
330
C95
100
AcDbEntity
  8
OPTION-RB-SJ
100
AcDbPolyline
 90
        3
 70
     0
 43
0.0
 10
3.127173509402219
 20
2.259745963360989
 10
3.129001191557872
 20
2.260587770583898
 10
3.130465973896934
 20
2.260645201484595
  0
LINE
  5
FEF
330
C95
100
AcDbEntity
  8
OPTION-RB-SJ
100
AcDbLine
 10
3.130463227029877
 20
2.260645627420965
 30
0.0
 11
3.130257565659059
 21
2.260465407066906
 31
0.0
  0
LINE
  5
FF0
330
C95
100
AcDbEntity
  8
OPTION-RB-SJ
100
AcDbLine
 10
3.130257565659059
 20
2.260465407066906
 30
0.0
 11
3.124377877808804
 21
2.255389373753923
 31
0.0
  0
ARC
  5
FF1
330
C95
100
AcDbEntity
  8
OPTION-RB-SJ
100
AcDbCircle
 10
3.173689783577397
 20
2.225942037371029
 30
0.0
 40
0.0044622914178639
100
AcDbArc
 50
172.7911310205367
 51
262.7911169583367
  0
LWPOLYLINE
  5
FF2
330
C95
100
AcDbEntity
  8
OPTION-RB-SJ
100
AcDbPolyline
 90
        5
 70
     0
 43
0.0
 10
3.08214405916646
 20
2.219182079229709
 10
3.164251897985695
 20
2.208799194839091
 10
3.165693788127517
 20
2.208610401432221
 10
3.166650480522041
 20
2.208497222525146
 10
3.166979613283015
 20
2.20845149347762
  0
LINE
  5
FF3
330
C95
100
AcDbEntity
  8
OPTION-RB-SJ
100
AcDbLine
 10
3.069148781479504
 20
2.205828430235249
 30
0.0
 11
3.160685494541663
 21
2.194250235701054
 31
0.0
  0
LINE
  5
FF4
330
C95
100
AcDbEntity
  8
OPTION-RB-SJ
100
AcDbLine
 10
3.069608313497588
 20
2.209461470680555
 30
0.0
 11
3.161145026559746
 21
2.197883276146361
 31
0.0
  0
LINE
  5
FF5
330
C95
100
AcDbEntity
  8
OPTION-RB-SJ
100
AcDbLine
 10
3.082628998557641
 20
2.223015989410766
 30
0.0
 11
3.163037534495132
 21
2.212845363438413
 31
0.0
  0
LINE
  5
FF6
330
C95
100
AcDbEntity
  8
OPTION-RB-SJ
100
AcDbLine
 10
3.173129823783996
 20
2.221515019209596
 30
0.0
 11
3.208545969028713
 21
2.217035340995497
 31
0.0
  0
LWPOLYLINE
  5
FF7
330
C95
100
AcDbEntity
  8
OPTION-RB-SJ
100
AcDbPolyline
 90
        4
 70
     0
 43
0.0
 10
3.166298710485269
 20
2.203068294763519
 10
3.166652544012661
 20
2.201101389749829
 10
3.168097517492295
 20
2.199509414862699
 10
3.170246776271266
 20
2.198721768315595
  0
LWPOLYLINE
  5
FF8
330
C95
100
AcDbEntity
  8
OPTION-RB-SJ
100
AcDbPolyline
 90
        5
 70
     0
 43
0.0
 10
3.166979613283015
 20
2.20845149347762
 10
3.166828204854088
 20
2.209961291784106
 10
3.166025873610415
 20
2.211326485794443
 10
3.164694767185104
 20
2.212339237080286
 10
3.163037534495132
 20
2.212845363438413
  0
LINE
  5
FF9
330
C95
100
AcDbEntity
  8
OPTION-RB-SJ
100
AcDbLine
 10
3.170246776288894
 20
2.198721768329265
 30
0.0
 11
3.173129823789752
 21
2.221515019129359
 31
0.0
  0
LWPOLYLINE
  5
FFA
330
C95
100
AcDbEntity
  8
OPTION-RB-SJ
100
AcDbPolyline
 90
        7
 70
     0
 43
0.0
 10
3.161145026559746
 20
2.197883276146362
 10
3.162229187405197
 20
2.197928034769875
 10
3.163363905434466
 20
2.198364122443689
 10
3.164456454446706
 20
2.199213485067564
 10
3.165370197893054
 20
2.200399390088866
 10
3.165990564381462
 20
2.201740301075183
 10
3.166298808561611
 20
2.20306908297464
  0
LWPOLYLINE
  5
FFB
330
C95
100
AcDbEntity
  8
OPTION-RB-SJ
100
AcDbPolyline
 90
        7
 70
     0
 43
0.0
 10
3.160685494541663
 20
2.194250235701055
 10
3.162831527775549
 20
2.194156335050868
 10
3.165028937850355
 20
2.194442742760307
 10
3.16708752815203
 20
2.195142574897894
 10
3.168746742868675
 20
2.196198559423939
 10
3.169805289348459
 20
2.197445365297665
 10
3.170246776288894
 20
2.198721768329265
  0
ARC
  5
FFC
330
C95
100
AcDbEntity
  8
OPTION-RB-SJ
100
AcDbCircle
 10
3.089954758367758
 20
2.236532105298094
 30
0.0
 40
0.0044622559203357
100
AcDbArc
 50
262.7911169603368
 51
307.8089292404368
  0
LINE
  5
FFD
330
C95
100
AcDbEntity
  8
OPTION-RB-SJ
100
AcDbLine
 10
3.08214405916646
 20
2.21918207922971
 30
0.0
 11
3.079409635963793
 21
2.222708405142989
 31
0.0
  0
LINE
  5
FFE
330
C95
100
AcDbEntity
  8
OPTION-RB-SJ
100
AcDbLine
 10
3.069608313497588
 20
2.209461470680555
 30
0.0
 11
3.069148781479504
 21
2.205828430235249
 31
0.0
  0
LINE
  5
FFF
330
C95
100
AcDbEntity
  8
OPTION-RB-SJ
100
AcDbLine
 10
3.08214405916646
 20
2.21918207922971
 30
0.0
 11
3.082628998557641
 21
2.223015989410766
 31
0.0
  0
LWPOLYLINE
  5
1000
330
C95
100
AcDbEntity
  8
OPTION-RB-SJ
100
AcDbPolyline
 90
        4
 70
     0
 43
0.0
 10
3.079409635963793
 20
2.222708405142989
 10
3.080352358413126
 20
2.223180650340475
 10
3.081459297833093
 20
2.223286409514134
 10
3.082628998557641
 20
2.223015989410766
  0
LINE
  5
1001
330
C95
100
AcDbEntity
  8
OPTION-RB-SJ
100
AcDbLine
 10
3.069608313497588
 20
2.209461470680555
 30
0.0
 11
3.08214405916646
 21
2.21918207922971
 31
0.0
  0
LWPOLYLINE
  5
1002
330
C95
100
AcDbEntity
  8
OPTION-RB-SJ
100
AcDbPolyline
 90
        4
 70
     0
 43
0.0
 10
3.066296125010043
 20
2.21253977605119
 10
3.065358330189762
 20
2.212076426649849
 10
3.064252642996288
 20
2.21198590206951
 10
3.063082385281804
 20
2.212276660629084
  0
LWPOLYLINE
  5
1003
330
C95
100
AcDbEntity
  8
OPTION-RB-SJ
100
AcDbPolyline
 90
        3
 70
     0
 43
0.0
 10
3.089404023447546
 20
2.232105235652787
 10
3.088901837745096
 20
2.231733650234938
 10
3.063082385101832
 20
2.212276659331959
  0
LWPOLYLINE
  5
1004
330
C95
100
AcDbEntity
  8
OPTION-RB-SJ
100
AcDbPolyline
 90
       10
 70
     0
 43
0.0
 10
3.063082385101832
 20
2.212276659331959
 10
3.062320161850969
 20
2.211580290353754
 10
3.061793887046962
 20
2.210760739268616
 10
3.061637636304602
 20
2.209800472194082
 10
3.062014914748155
 20
2.208789461372199
 10
3.062925290055319
 20
2.20786385765524
 10
3.064258998346665
 20
2.207090376948137
 10
3.065849294411207
 20
2.20650061721368
 10
3.06750578084225
 20
2.206093105205228
 10
3.069148781479504
 20
2.205828430235249
  0
LWPOLYLINE
  5
1005
330
C95
100
AcDbEntity
  8
OPTION-RB-SJ
100
AcDbPolyline
 90
       10
 70
     0
 43
0.0
 10
3.066296123410404
 20
2.212539778114089
 10
3.065500618609574
 20
2.211860357532861
 10
3.064866493438991
 20
2.211151782738725
 10
3.064498914174648
 20
2.210435882270367
 10
3.064547691734382
 20
2.209810231074917
 10
3.065057811458916
 20
2.209378386640817
 10
3.065949643275523
 20
2.209158777954902
 10
3.067093559602509
 20
2.20912990364251
 10
3.068338154075368
 20
2.209246786254594
 10
3.069608313497588
 20
2.209461470680555
  0
ARC
  5
1006
330
C95
100
AcDbEntity
  8
OPTION-RB-SJ
100
AcDbCircle
 10
3.120598924889319
 20
1.877327522658401
 30
0.0
 40
0.0044622914178639
100
AcDbArc
 50
262.7911169583367
 51
352.791116958337
  0
ARC
  5
1007
330
C95
100
AcDbEntity
  8
OPTION-RB-SJ
100
AcDbCircle
 10
3.132532739973189
 20
1.900556202964537
 30
0.0
 40
0.0044622914178639
100
AcDbArc
 50
82.79111695833732
 51
172.7911029399374
  0
ARC
  5
1008
330
C95
100
AcDbEntity
  8
OPTION-RB-SJ
100
AcDbCircle
 10
3.167559415321967
 20
1.866327559625082
 30
0.0
 40
0.0033467185633979
100
AcDbArc
 50
172.7911169583365
 51
262.7911169583367
  0
LINE
  5
1009
330
C95
100
AcDbEntity
  8
OPTION-RB-SJ
100
AcDbLine
 10
3.13309269974896
 20
1.9049832211123
 30
0.0
 11
3.168508844993677
 21
1.900503542898201
 31
0.0
  0
LWPOLYLINE
  5
100A
330
C95
100
AcDbEntity
  8
OPTION-RB-SJ
100
AcDbPolyline
 90
        7
 70
     0
 43
0.0
 10
3.135975747261694
 20
1.927776472006301
 10
3.13586997749106
 20
1.9291081176188
 10
3.135169881914144
 20
1.93056679580664
 10
3.133840856505953
 20
1.932001500427659
 10
3.132017887571374
 20
1.933204309266208
 10
3.129942974664733
 20
1.934040782755645
 10
3.127828956386563
 20
1.934487843741566
  0
LWPOLYLINE
  5
100B
330
C95
100
AcDbEntity
  8
OPTION-RB-SJ
100
AcDbPolyline
 90
        7
 70
     0
 43
0.0
 10
3.131069414021695
 20
1.924546987069034
 10
3.131103083852004
 20
1.925898225259166
 10
3.13084279982671
 20
1.927339642006173
 10
3.130260691920066
 20
1.928715442396763
 10
3.129412989422372
 20
1.929822678527366
 10
3.128414156910641
 20
1.930538666709197
 10
3.127369424382156
 20
1.930854803278626
  0
LINE
  5
100C
330
C95
100
AcDbEntity
  8
OPTION-RB-SJ
100
AcDbLine
 10
3.131068550173951
 20
1.924540844223464
 30
0.0
 11
3.131068255287916
 21
1.924538399716505
 31
0.0
  0
LINE
  5
100D
330
C95
100
AcDbEntity
  8
OPTION-RB-SJ
100
AcDbLine
 10
3.127828956386563
 20
1.934487843741566
 30
0.0
 11
3.12003896511355
 21
1.872900504510636
 31
0.0
  0
LINE
  5
100E
330
C95
100
AcDbEntity
  8
OPTION-RB-SJ
100
AcDbLine
 10
3.131069414021695
 20
1.924546987069034
 30
0.0
 11
3.125026350486495
 21
1.876770783908875
 31
0.0
  0
LINE
  5
100F
330
C95
100
AcDbEntity
  8
OPTION-RB-SJ
100
AcDbLine
 10
3.133092699760836
 20
1.90498322120621
 30
0.0
 11
3.135975747261694
 21
1.927776472006301
 31
0.0
  0
LWPOLYLINE
  5
1010
330
C95
100
AcDbEntity
  8
OPTION-RB-SJ
100
AcDbPolyline
 90
        5
 70
     0
 43
0.0
 10
3.130388873972041
 20
1.91916666640949
 10
3.12986415381829
 20
1.917738249713033
 10
3.128732491288534
 20
1.916609195855929
 10
3.127191544989595
 20
1.915966035076868
 10
3.125476916433097
 20
1.915892716004208
  0
LWPOLYLINE
  5
1011
330
C95
100
AcDbEntity
  8
OPTION-RB-SJ
100
AcDbPolyline
 90
        4
 70
     0
 43
0.0
 10
3.125701126512095
 20
1.882105534565375
 10
3.124865548855736
 20
1.880263599906395
 10
3.123067647610345
 20
1.879065250873739
 10
3.120789168963444
 20
1.878831584209026
  0
LWPOLYLINE
  5
1012
330
C95
100
AcDbEntity
  8
OPTION-RB-SJ
100
AcDbPolyline
 90
        4
 70
     0
 43
0.0
 10
3.131069414021695
 20
1.924546987069034
 10
3.1319021732704
 20
1.926366683520084
 10
3.133698011955787
 20
1.927548760866362
 10
3.135975747261694
 20
1.927776472006301
  0
LWPOLYLINE
  5
1013
330
C95
100
AcDbEntity
  8
OPTION-RB-SJ
100
AcDbPolyline
 90
        3
 70
     0
 43
0.0
 10
3.082029472787108
 20
1.877708285699801
 10
3.080625122032666
 20
1.878128624334347
 10
3.079064602653233
 20
1.879398994646121
  0
LWPOLYLINE
  5
1014
330
C95
100
AcDbEntity
  8
OPTION-RB-SJ
100
AcDbPolyline
 90
        4
 70
     0
 43
0.0
 10
3.074400378285361
 20
1.885413949707745
 10
3.075195826118425
 20
1.884721848813379
 10
3.076241570583321
 20
1.884343803277467
 10
3.077441764807458
 20
1.884314462729356
  0
LINE
  5
1015
330
C95
100
AcDbEntity
  8
OPTION-RB-SJ
100
AcDbLine
 10
3.077441764807458
 20
1.884314462729356
 30
0.0
 11
3.082019276267279
 21
1.877722850765654
 31
0.0
  0
LINE
  5
1016
330
C95
100
AcDbEntity
  8
OPTION-RB-SJ
100
AcDbLine
 10
3.082019276267279
 20
1.877722850765654
 30
0.0
 11
3.082026695508081
 21
1.877708580202134
 31
0.0
  0
LINE
  5
1017
330
C95
100
AcDbEntity
  8
OPTION-RB-SJ
100
AcDbLine
 10
3.081982958569625
 20
1.877714090581408
 30
0.0
 11
3.12003896511355
 21
1.872900504510636
 31
0.0
  0
LINE
  5
1018
330
C95
100
AcDbEntity
  8
OPTION-RB-SJ
100
AcDbLine
 10
3.120789168963444
 20
1.878831584209026
 30
0.0
 11
3.077441764807458
 21
1.884314462729356
 31
0.0
  0
ARC
  5
1019
330
C95
100
AcDbEntity
  8
OPTION-RB-SJ
100
AcDbCircle
 10
3.048798042202388
 20
1.911148860237765
 30
0.0
 40
0.0044622558980242
100
AcDbArc
 50
37.77330382563711
 51
82.7911169566372
  0
LWPOLYLINE
  5
101A
330
C95
100
AcDbEntity
  8
OPTION-RB-SJ
100
AcDbPolyline
 90
       10
 70
     0
 43
0.0
 10
3.036292243324405
 20
1.94606603827576
 10
3.034611489797745
 20
1.946220086460138
 10
3.032876838495874
 20
1.946234409864347
 10
3.031166320612556
 20
1.94604737951808
 10
3.029681371960929
 20
1.945611979471962
 10
3.028595875639302
 20
1.944928850884317
 10
3.028013746842291
 20
1.944046012231687
 10
3.027945089928065
 20
1.943092668186886
 10
3.028252394644089
 20
1.942184011976365
 10
3.028811356105932
 20
1.941331363005037
  0
LWPOLYLINE
  5
101B
330
C95
100
AcDbEntity
  8
OPTION-RB-SJ
100
AcDbPolyline
 90
       10
 70
     0
 43
0.0
 10
3.035832711319998
 20
1.942432997812819
 10
3.034639472440093
 20
1.942963905705265
 10
3.033444353088079
 20
1.943390952400652
 10
3.03231614300047
 20
1.943643501120311
 10
3.031401283717836
 20
1.94363827154384
 10
3.030821808320737
 20
1.943328690185279
 10
3.030642022429677
 20
1.942729225002498
 10
3.030828981795159
 20
1.941952595721278
 10
3.031263985521496
 20
1.941121357185453
 10
3.031858366926976
 20
1.940276341494665
  0
LWPOLYLINE
  5
101C
330
C95
100
AcDbEntity
  8
OPTION-RB-SJ
100
AcDbPolyline
 90
        4
 70
     0
 43
0.0
 10
3.031858366662503
 20
1.940276341289583
 10
3.031065538655394
 20
1.940958729876822
 10
3.030017224287372
 20
1.941321820951051
 10
3.028811396279158
 20
1.94133168061284
  0
LWPOLYLINE
  5
101D
330
C95
100
AcDbEntity
  8
OPTION-RB-SJ
100
AcDbPolyline
 90
        4
 70
     0
 43
0.0
 10
3.042026993942202
 20
1.92716282895891
 10
3.042818839300136
 20
1.926472822079356
 10
3.043866987147405
 20
1.926092901814669
 10
3.045068380477975
 20
1.926063341962888
  0
LWPOLYLINE
  5
101E
330
C95
100
AcDbEntity
  8
OPTION-RB-SJ
100
AcDbPolyline
 90
        3
 70
     0
 43
0.0
 10
3.028811356105932
 20
1.941331363005037
 10
3.048973435415048
 20
1.916057877298576
 10
3.049366893607644
 20
1.915573438305631
  0
LINE
  5
101F
330
C95
100
AcDbEntity
  8
OPTION-RB-SJ
100
AcDbLine
 10
3.04555331985548
 20
1.929897252161577
 30
0.0
 11
3.035832711319998
 21
1.942432997812819
 31
0.0
  0
LINE
  5
1020
330
C95
100
AcDbEntity
  8
OPTION-RB-SJ
100
AcDbLine
 10
3.035832691661243
 20
1.942433000299395
 30
0.0
 11
3.036292265850106
 21
1.946066034567829
 31
0.0
  0
LINE
  5
1021
330
C95
100
AcDbEntity
  8
OPTION-RB-SJ
100
AcDbLine
 10
3.04555331985548
 20
1.929897252161577
 30
0.0
 11
3.045068380477973
 21
1.926063341962888
 31
0.0
  0
LINE
  5
1022
330
C95
100
AcDbEntity
  8
OPTION-RB-SJ
100
AcDbLine
 10
3.042291982689214
 20
1.927370783148544
 30
0.0
 11
3.042026993942202
 21
1.92716282895891
 31
0.0
  0
LINE
  5
1023
330
C95
100
AcDbEntity
  8
OPTION-RB-SJ
100
AcDbLine
 10
3.04555331985548
 20
1.929897252161577
 30
0.0
 11
3.042291982689214
 21
1.927370783148544
 31
0.0
  0
LINE
  5
1024
330
C95
100
AcDbEntity
  8
OPTION-RB-SJ
100
AcDbLine
 10
3.079052862821276
 20
1.879414082253388
 30
0.0
 11
3.031858366926976
 21
1.940276341494665
 31
0.0
  0
LINE
  5
1025
330
C95
100
AcDbEntity
  8
OPTION-RB-SJ
100
AcDbLine
 10
3.045068380477973
 20
1.926063341962888
 30
0.0
 11
3.077441764807458
 21
1.884314462729356
 31
0.0
  0
LWPOLYLINE
  5
1026
330
C95
100
AcDbEntity
  8
OPTION-RB-SJ
100
AcDbPolyline
 90
        3
 70
     0
 43
0.0
 10
3.04555331985548
 20
1.929897252161578
 10
3.130050412111446
 20
1.919210799849033
 10
3.130388873972041
 20
1.91916666640949
  0
LINE
  5
1027
330
C95
100
AcDbEntity
  8
OPTION-RB-SJ
100
AcDbLine
 10
3.125476916433097
 20
1.915892716004208
 30
0.0
 11
3.045068380477973
 21
1.926063341962888
 31
0.0
  0
LINE
  5
1028
330
C95
100
AcDbEntity
  8
OPTION-RB-SJ
100
AcDbLine
 10
3.127369424382153
 20
1.930854803278626
 30
0.0
 11
3.035832711319998
 21
1.942432997812819
 31
0.0
  0
LINE
  5
1029
330
C95
100
AcDbEntity
  8
OPTION-RB-SJ
100
AcDbLine
 10
3.127828956386563
 20
1.934487843741566
 30
0.0
 11
3.036292243324405
 21
1.94606603827576
 31
0.0
  0
LINE
  5
102A
330
C95
100
AcDbEntity
  8
OPTION-RB-SJ
100
AcDbLine
 10
3.164239151701436
 20
1.866747529505848
 30
0.0
 11
3.212815662342548
 21
2.250791354432827
 31
0.0
  0
LINE
  5
102B
330
C95
100
AcDbEntity
  8
OPTION-RB-SJ
100
AcDbLine
 10
3.167139445490144
 20
1.86300729601426
 30
0.0
 11
3.216555895785202
 21
2.253691648211822
 31
0.0
  0
LINE
  5
102C
330
C95
100
AcDbEntity
  8
OPTION-RB-SJ
100
AcDbLine
 10
3.168475485814676
 20
2.255837574931978
 30
0.0
 11
3.160685361464642
 21
2.194250257272436
 31
0.0
  0
LINE
  5
102D
330
C95
100
AcDbEntity
  8
OPTION-RB-SJ
100
AcDbLine
 10
3.172342136768561
 20
2.250847375978238
 30
0.0
 11
3.166299073215732
 21
2.203071172804407
 31
0.0
  0
LWPOLYLINE
  5
102E
330
C95
100
AcDbEntity
  8
OPTION-RB-SJ
100
AcDbPolyline
 90
        4
 70
     0
 43
0.0
 10
3.171667360739003
 20
2.245512625290434
 10
3.171316781631326
 20
2.247504481886643
 10
3.169873919016656
 20
2.249112803467763
 10
3.167725281952909
 20
2.249906495139681
  0
LINE
  5
102F
330
C95
100
AcDbEntity
  8
OPTION-RB-SJ
100
AcDbLine
 10
3.127158382651681
 20
2.259734274008393
 30
0.0
 11
3.066296123410404
 21
2.212539778114089
 31
0.0
  0
LINE
  5
1030
330
C95
100
AcDbEntity
  8
OPTION-RB-SJ
100
AcDbLine
 10
3.124377877808804
 20
2.255389373753923
 30
0.0
 11
3.082628998557641
 21
2.223015989410766
 31
0.0
  0
CIRCLE
  5
1031
330
C95
100
AcDbEntity
  8
OPTION-RB-SJ
100
AcDbCircle
 10
2.7902771105128
 20
2.052492505339164
 30
0.0
 40
0.0151030122959836
  0
INSERT
  5
1032
330
C95
100
AcDbEntity
  8
OPTION-RB-SJ
100
AcDbBlockReference
  2
*T3
 10
2.613843241839505
 20
4.065526828919287
 30
0.0
 41
-0.223114570893196
 42
0.2231145708931953
 43
-0.2231145708931953
 50
52.640650847635
210
0.0
220
0.0
230
-1.0
  0
TEXT
  5
1033
330
C95
100
AcDbEntity
  8
TEXT-RB-SJ-BUBBLES
100
AcDbText
 10
2.803612147973441
 20
1.124885018154968
 30
0.0
 40
0.125
  1
5
  7
ROMANS
 72
     4
 11
2.86313595749725
 21
1.187385018154968
 31
0.0
100
AcDbText
  0
CIRCLE
  5
1034
330
C95
100
AcDbEntity
  8
TEXT-RB-SJ-BUBBLES
100
AcDbCircle
 10
2.86313595749725
 20
1.187385018154968
 30
0.0
 40
0.15625
  0
LINE
  5
1035
330
C95
100
AcDbEntity
  8
OPTION-RB-SJ
100
AcDbLine
 10
1.383428101943108
 20
2.126292861859767
 30
0.0
 11
3.048919150719072
 21
1.915630071912978
 31
0.0
  0
LINE
  5
1036
330
C95
100
AcDbEntity
  8
OPTION-RB-SJ
100
AcDbLine
 10
1.437707808087036
 20
2.441023159997472
 30
0.0
 11
3.088956279870289
 21
2.232161869347243
 31
0.0
  0
LINE
  5
1037
330
C95
100
AcDbEntity
  8
OPTION-RB-SJ
100
AcDbLine
 10
1.42858434733734
 20
1.854597999492659
 30
0.0
 11
3.223895852422928
 21
1.855828354379295
 31
0.0
  0
LEADER
  5
1038
330
C95
100
AcDbEntity
  8
TEXT-RB-SJ-BUBBLES
100
AcDbLeader
  3
STANDARD
 76
     2
 10
2.452003572645371
 20
1.855299364599142
 30
0.0
 10
2.765369342364528
 20
1.309269190488745
 30
0.0
1001
ACAD
1000
DSTYLE
1002
{
1070
   340
1005
0
1070
   287
1070
     5
1002
}
  0
LEADER
  5
1039
330
C95
100
AcDbEntity
  8
TEXT-RB-SJ-BUBBLES
100
AcDbLeader
  3
STANDARD
 76
     2
 10
2.39746361383072
 20
2.319626628995571
 30
0.0
 10
3.407935338581964
 20
2.911716866698705
 30
0.0
1001
ACAD
1000
DSTYLE
1002
{
1070
   340
1005
0
1070
   287
1070
     5
1002
}
  0
LINE
  5
103A
330
C95
100
AcDbEntity
  8
OPTION-RB-SJ
100
AcDbLine
 10
3.60670316060437
 20
2.204343132431129
 30
0.0
 11
3.216555895785202
 21
2.253691648211822
 31
0.0
  0
LINE
  5
103B
330
C95
100
AcDbEntity
  8
OPTION-RB-SJ
100
AcDbLine
 10
1.920935868184439
 20
2.170791608937518
 30
0.0
 11
1.952952844494745
 21
2.166496509850211
 31
0.0
  0
LINE
  5
103C
330
C95
100
AcDbEntity
  8
OPTION-RB-SJ
100
AcDbLine
 10
1.920935868184439
 20
2.170791608937518
 30
0.0
 11
1.995036576436579
 21
2.284444447132062
 31
0.0
  0
LINE
  5
103D
330
C95
100
AcDbEntity
  8
OPTION-RB-SJ
100
AcDbLine
 10
2.012939255817446
 20
2.258501149362
 30
0.0
 11
2.025466205089772
 21
2.256820650636726
 31
0.0
  0
LINE
  5
103E
330
C95
100
AcDbEntity
  8
OPTION-RB-SJ
100
AcDbLine
 10
1.995036576436579
 20
2.284444447132062
 30
0.0
 11
2.047068990408468
 21
2.277464263507132
 31
0.0
  0
LINE
  5
103F
330
C95
100
AcDbEntity
  8
OPTION-RB-SJ
100
AcDbLine
 10
2.16953449580109
 20
2.137441816735988
 30
0.0
 11
2.223104177699257
 21
2.220890726079605
 31
0.0
  0
LINE
  5
1040
330
C95
100
AcDbEntity
  8
OPTION-RB-SJ
100
AcDbLine
 10
2.152190527513515
 20
2.139768639557664
 30
0.0
 11
2.205760209411678
 21
2.223217548901279
 31
0.0
  0
LINE
  5
1041
330
C95
100
AcDbEntity
  8
OPTION-RB-SJ
100
AcDbLine
 10
2.169534626958201
 20
2.137441916837731
 30
0.0
 11
2.198441459382034
 21
2.133564045678147
 31
0.0
  0
LINE
  5
1042
330
C95
100
AcDbEntity
  8
OPTION-RB-SJ
100
AcDbLine
 10
2.021531860732026
 20
2.157296470612205
 30
0.0
 11
2.099961271854051
 21
2.237410195010475
 31
0.0
  0
LINE
  5
1043
330
C95
100
AcDbEntity
  8
OPTION-RB-SJ
100
AcDbLine
 10
2.139852831718445
 20
2.232058832895067
 30
0.0
 11
2.116346255524905
 21
2.144576937515181
 31
0.0
  0
LINE
  5
1044
330
C95
100
AcDbEntity
  8
OPTION-RB-SJ
100
AcDbLine
 10
2.05332927626239
 20
2.153030943464922
 30
0.0
 11
2.021531760612551
 21
2.157296601755774
 31
0.0
  0
LINE
  5
1045
330
C95
100
AcDbEntity
  8
OPTION-RB-SJ
100
AcDbLine
 10
2.116346286548994
 20
2.144577168778228
 30
0.0
 11
2.0874394541429
 21
2.148455039951351
 31
0.0
  0
LINE
  5
1046
330
C95
100
AcDbEntity
  8
OPTION-RB-SJ
100
AcDbLine
 10
2.091921756990334
 20
2.161978720687982
 30
0.0
 11
2.065552135061317
 21
2.165516223354765
 31
0.0
  0
LINE
  5
1047
330
C95
100
AcDbEntity
  8
OPTION-RB-SJ
100
AcDbLine
 10
2.083886234314483
 20
2.184244050871939
 30
0.0
 11
2.098645484813667
 21
2.182264087391204
 31
0.0
  0
LINE
  5
1048
330
C95
100
AcDbEntity
  8
OPTION-RB-SJ
100
AcDbLine
 10
2.05332937638187
 20
2.153030812321345
 30
0.0
 11
2.065552104037216
 21
2.165515992091715
 31
0.0
  0
LINE
  5
1049
330
C95
100
AcDbEntity
  8
OPTION-RB-SJ
100
AcDbLine
 10
2.091921841599862
 20
2.161978473928524
 30
0.0
 11
2.087439438632948
 21
2.148454924335465
 31
0.0
  0
LINE
  5
104A
330
C95
100
AcDbEntity
  8
OPTION-RB-SJ
100
AcDbLine
 10
2.010112419819181
 20
2.203557514576253
 30
0.0
 11
2.016937077404572
 21
2.157912981608521
 31
0.0
  0
LINE
  5
104B
330
C95
100
AcDbEntity
  8
OPTION-RB-SJ
100
AcDbLine
 10
2.083886218800331
 20
2.184243935224778
 30
0.0
 11
2.107192343086432
 21
2.208050570556951
 31
0.0
  0
LINE
  5
104C
330
C95
100
AcDbEntity
  8
OPTION-RB-SJ
100
AcDbLine
 10
2.107192458720054
 20
2.208050555060536
 30
0.0
 11
2.09864546928598
 21
2.18226397176178
 31
0.0
  0
LINE
  5
104D
330
C95
100
AcDbEntity
  8
OPTION-RB-SJ
100
AcDbLine
 10
2.099961434003985
 20
2.237410526379461
 30
0.0
 11
2.139852747126649
 21
2.232059079668067
 31
0.0
  0
LINE
  5
104E
330
C95
100
AcDbEntity
  8
OPTION-RB-SJ
100
AcDbLine
 10
1.99529618230857
 20
2.23144092818539
 30
0.0
 11
2.01233814755648
 21
2.229154736988795
 31
0.0
  0
LINE
  5
104F
330
C95
100
AcDbEntity
  8
OPTION-RB-SJ
100
AcDbLine
 10
2.123283695089681
 20
2.143646510717248
 30
0.0
 11
2.176853245830737
 21
2.227095319959121
 31
0.0
  0
LINE
  5
1050
330
C95
100
AcDbEntity
  8
OPTION-RB-SJ
100
AcDbLine
 10
2.123283695089681
 20
2.143646510717248
 30
0.0
 11
2.152190527513515
 21
2.139768639557664
 31
0.0
  0
LINE
  5
1051
330
C95
100
AcDbEntity
  8
OPTION-RB-SJ
100
AcDbLine
 10
1.952952844494745
 20
2.166496509850211
 30
0.0
 11
1.979968339742157
 21
2.207931887997006
 31
0.0
  0
LINE
  5
1052
330
C95
100
AcDbEntity
  8
OPTION-RB-SJ
100
AcDbLine
 10
1.979968339742157
 20
2.207931887997006
 30
0.0
 11
1.986843446085361
 21
2.161950062660778
 31
0.0
  0
LINE
  5
1053
330
C95
100
AcDbEntity
  8
OPTION-RB-SJ
100
AcDbLine
 10
1.986843561701246
 20
2.161950047150829
 30
0.0
 11
2.016937077404572
 21
2.157912981608521
 31
0.0
  0
LWPOLYLINE
  5
1054
330
C95
100
AcDbEntity
  8
OPTION-RB-SJ
100
AcDbPolyline
 90
       92
 70
     0
 43
0.0
 10
2.010112419819181
 20
2.203557514576254
 10
2.011668409382473
 20
2.20349506364726
 10
2.013228240524963
 20
2.203474023575486
 10
2.014790394895543
 20
2.203494677271891
 10
2.016353354098312
 20
2.203557307669351
 10
2.01791559971541
 20
2.203662197655949
 10
2.019475613382212
 20
2.20380963016036
 10
2.021031876698598
 20
2.203999888084202
 10
2.022408315334021
 20
2.204204778356043
 10
2.023779545744119
 20
2.204443802051642
 10
2.025144507398926
 20
2.204717156708579
 10
2.026502139753998
 20
2.205025039993716
 10
2.027851382283578
 20
2.205367649475903
 10
2.029191174439007
 20
2.205745182790736
 10
2.030520455645521
 20
2.206157837497713
 10
2.031838165389951
 20
2.20660581125951
 10
2.033143243128799
 20
2.207089301631439
 10
2.03443462828214
 20
2.207608506253275
 10
2.035711260355495
 20
2.208163622689692
 10
2.036972078786673
 20
2.208754848593995
 10
2.0382160230051
 20
2.209382381556974
 10
2.039376366001324
 20
2.210009514125376
 10
2.040519949602967
 20
2.210668713227684
 10
2.041646065361964
 20
2.211359375077381
 10
2.042754004826077
 20
2.21208089585668
 10
2.043843059529503
 20
2.21283267176551
 10
2.044912521037728
 20
2.21361409899961
 10
2.045961680880771
 20
2.21442457372766
 10
2.046989830610577
 20
2.215263492163125
 10
2.047996261792614
 20
2.216130250501755
 10
2.048980265943368
 20
2.217024244929949
 10
2.049941134632522
 20
2.217944871674717
 10
2.050878159403617
 20
2.218891526887001
 10
2.051790631777339
 20
2.219863606784463
 10
2.052677843332693
 20
2.220860507545119
 10
2.053539085608088
 20
2.221881625400183
 10
2.05437365014709
 20
2.222926356500579
 10
2.055180828501623
 20
2.223994097059793
 10
2.055959912205918
 20
2.225084243277752
 10
2.056710192807702
 20
2.22619619133667
 10
2.057430961872473
 20
2.227329337432289
 10
2.058121510934428
 20
2.228483077764548
 10
2.058781131545518
 20
2.229656808546919
 10
2.059409115249305
 20
2.230849925930339
 10
2.06000475360191
 20
2.232061826159555
 10
2.060506439181087
 20
2.233154297408347
 10
2.060981086841689
 20
2.234260033447685
 10
2.061427778092073
 20
2.235377933857131
 10
2.061845594399996
 20
2.23650689826945
 10
2.062233617251902
 20
2.23764582621938
 10
2.062590928146798
 20
2.238793617335489
 10
2.062916608575345
 20
2.239949171183788
 10
2.0632097400146
 20
2.241111387348041
 10
2.063469403945879
 20
2.242279165443261
 10
2.063694681873344
 20
2.24345140501774
 10
2.063884655291823
 20
2.244627005668768
 10
2.064038405682606
 20
2.245804867011369
 10
2.064155014518598
 20
2.246983888598023
 10
2.064233563298806
 20
2.248162970057295
 10
2.064273133527427
 20
2.249341010937464
 10
2.064272806667991
 20
2.250516910840022
 10
2.064231664228876
 20
2.25168956934453
 10
2.064148787673642
 20
2.252857886052459
 10
2.064023258528379
 20
2.254020760556916
 10
2.063854158234716
 20
2.255177092414579
 10
2.063640568322951
 20
2.256325781249811
 10
2.063381570252448
 20
2.257465726632823
 10
2.063102787808446
 20
2.258505263584399
 10
2.062785636977952
 20
2.259535186568264
 10
2.062430924516125
 20
2.260554205839571
 10
2.062039457115581
 20
2.261561031661859
 10
2.06161204158048
 20
2.262554374299623
 10
2.061149484589892
 20
2.263532944034146
 10
2.060652592948001
 20
2.264495451129926
 10
2.060122173347411
 20
2.265440605850494
 10
2.059559032543281
 20
2.266367118451014
 10
2.058963977294969
 20
2.267273699217906
 10
2.05833781431282
 20
2.268159058428246
 10
2.057681350383259
 20
2.269021906333003
 10
2.056995392185377
 20
2.269860953213447
 10
2.056280746505598
 20
2.270674909320535
 10
2.05556001505994
 20
2.271440155112403
 10
2.054813726602385
 20
2.272179338591023
 10
2.054042620083756
 20
2.272891278387144
 10
2.053247434414229
 20
2.273574793184735
 10
2.052428908575878
 20
2.274228701610372
 10
2.051587781478877
 20
2.274851822348006
 10
2.05072479209177
 20
2.275442974041951
 10
2.049840679351824
 20
2.276000975340703
 10
2.048936182182745
 20
2.276524644910489
 10
2.048012039557276
 20
2.277012801426892
 10
2.047068990408468
 20
2.277464263507133
  0
LWPOLYLINE
  5
1055
330
C95
100
AcDbEntity
  8
OPTION-RB-SJ
100
AcDbPolyline
 90
       94
 70
     0
 43
0.0
 10
2.01233814755648
 20
2.229154736988795
 10
2.012981426225507
 20
2.229211050809602
 10
2.013625067186105
 20
2.229282817273656
 10
2.014268480274522
 20
2.2293700669228
 10
2.014911075358257
 20
2.229472830294689
 10
2.015552262265154
 20
2.229591137868622
 10
2.016191450880464
 20
2.22972502019579
 10
2.016828051040408
 20
2.229874507818048
 10
2.017461472590585
 20
2.230039631228218
 10
2.01809112541203
 20
2.230220420946237
 10
2.018716419340966
 20
2.230416907513943
 10
2.019336764209453
 20
2.230629121441918
 10
2.019885232807396
 20
2.230831627153551
 10
2.020428879340369
 20
2.231046682270658
 10
2.020967285475477
 20
2.231274308418897
 10
2.021500032862113
 20
2.231514527210407
 10
2.022026703175793
 20
2.231767360333388
 10
2.022546878092966
 20
2.232032829364505
 10
2.023060139271414
 20
2.23231095597843
 10
2.023566068382446
 20
2.232601761832102
 10
2.02406424708479
 20
2.232905268488639
 10
2.02455425705815
 20
2.233221497667529
 10
2.025035679947725
 20
2.233550470949622
 10
2.025508097438351
 20
2.233892209974127
 10
2.025971091170075
 20
2.234246736402174
 10
2.026424242872566
 20
2.23461407185104
 10
2.026867134136848
 20
2.234994237972516
 10
2.027299346661324
 20
2.23538725638807
 10
2.027651788412333
 20
2.235725324778454
 10
2.027996058999581
 20
2.23607224998669
 10
2.0283317271649
 20
2.23642790970817
 10
2.028658361515677
 20
2.236792181704066
 10
2.028975530776019
 20
2.237164943656233
 10
2.029282803593925
 20
2.237546073272629
 10
2.029579748621611
 20
2.237935448292507
 10
2.029865934556091
 20
2.23833294643318
 10
2.030140930058917
 20
2.238738445384889
 10
2.030404303800026
 20
2.239151822900418
 10
2.030655624440977
 20
2.239572956669993
 10
2.030894460696508
 20
2.240001724424484
 10
2.031120381196904
 20
2.240438003858319
 10
2.031332954625653
 20
2.24088167270654
 10
2.03153174963075
 20
2.241332608677129
 10
2.031716334926956
 20
2.241790689500937
 10
2.031886279162288
 20
2.242255792885929
 10
2.032041151002482
 20
2.242727796553626
 10
2.032180519126832
 20
2.2432065782078
 10
2.032303952232338
 20
2.24369201556576
 10
2.032411018922225
 20
2.244183986357423
 10
2.032501287938301
 20
2.244682368278159
 10
2.032558284554823
 20
2.245064331754787
 10
2.032605299167207
 20
2.245449341958797
 10
2.032642253043086
 20
2.245836830742969
 10
2.032669067472057
 20
2.246226230004867
 10
2.032685663676928
 20
2.246616971619182
 10
2.032691962947279
 20
2.247008487483487
 10
2.03268788656429
 20
2.247400209432813
 10
2.032673355741448
 20
2.247791569390855
 10
2.032648291808937
 20
2.24818199920198
 10
2.032612615976061
 20
2.248570930758615
 10
2.032566249528195
 20
2.248957795927067
 10
2.032509113737165
 20
2.249342026591358
 10
2.032441129861281
 20
2.249723054653264
 10
2.032362219136909
 20
2.250100311969746
 10
2.032272302880696
 20
2.250473230402894
 10
2.032171302319675
 20
2.250841241858681
 10
2.032059138739228
 20
2.251203778203406
 10
2.031935733393446
 20
2.251560271307567
 10
2.031801007540628
 20
2.251910153072929
 10
2.031654882466155
 20
2.252252855365785
 10
2.031497279406404
 20
2.25258781004311
 10
2.031328119637398
 20
2.252914449020194
 10
2.031147324440325
 20
2.253232204132067
 10
2.03095481504221
 20
2.253540507284698
 10
2.030750512732622
 20
2.253838790375659
 10
2.030534338792749
 20
2.25412648523997
 10
2.030306214449605
 20
2.254403023783607
 10
2.030066061002119
 20
2.254667837855124
 10
2.029848635768698
 20
2.254886938778172
 10
2.029622105989624
 20
2.255096480624949
 10
2.029386420789917
 20
2.255296096023626
 10
2.029141529258208
 20
2.255485417686838
 10
2.02888738047052
 20
2.255664078233421
 10
2.02862392352481
 20
2.255831710327009
 10
2.028351107501299
 20
2.255987946617691
 10
2.028068881515676
 20
2.256132419782653
 10
2.027777194626243
 20
2.25626476242718
 10
2.027475995939346
 20
2.256384607277454
 10
2.027165234562282
 20
2.256491586948104
 10
2.026844859543998
 20
2.256585334093422
 10
2.026514820000199
 20
2.256665481390581
 10
2.026175065024634
 20
2.256731661471953
 10
2.025825543683997
 20
2.256783507005367
 10
2.025466205089776
 20
2.256820650636726
  0
LINE
  5
1056
330
C95
100
AcDbEntity
  8
OPTION-RB-SJ
100
AcDbLine
 10
1.995296082189098
 20
2.231441059328962
 30
0.0
 11
2.012939140201557
 21
2.258501164871949
 31
0.0
  0
LINE
  5
1057
330
C95
100
AcDbEntity
  8
OPTION-RB-SJ
100
AcDbLine
 10
1.178487391783545
 20
2.692130536851016
 30
0.0
 11
1.400185502738161
 21
2.692130536851016
 31
0.0
  0
LWPOLYLINE
  5
1059
330
C95
100
AcDbEntity
  8
OPTION-RB-SJ
100
AcDbPolyline
 90
        4
 70
     0
 43
0.0
 10
1.14096542879909
 20
2.649282062457397
 10
1.141875257087487
 20
2.650700720325238
 10
1.143167169747875
 20
2.652036866810308
 10
1.144829886531477
 20
2.653146520189783
  0
LWPOLYLINE
  5
105A
330
C95
100
AcDbEntity
  8
OPTION-RB-SJ
100
AcDbPolyline
 90
        4
 70
     0
 43
0.0
 10
1.144829886531477
 20
2.653146520189783
 10
1.145631307889852
 20
2.653471261105015
 10
1.146500663998296
 20
2.653674904311125
 10
1.147406191686398
 20
2.653744353875261
  0
LINE
  5
105B
330
C95
100
AcDbEntity
  8
OPTION-RB-SJ
100
AcDbLine
 10
1.431267045199731
 20
2.653744353875261
 30
0.0
 11
1.147406191686398
 21
2.653744353875261
 31
0.0
  0
LWPOLYLINE
  5
105C
330
C95
100
AcDbEntity
  8
OPTION-RB-SJ
100
AcDbPolyline
 90
        4
 70
     0
 43
0.0
 10
1.433843350354652
 20
2.653146520189783
 10
1.433041928996278
 20
2.653471261105015
 10
1.432172572887834
 20
2.653674904311125
 10
1.431267045199731
 20
2.653744353875261
  0
LWPOLYLINE
  5
105D
330
C95
100
AcDbEntity
  8
OPTION-RB-SJ
100
AcDbPolyline
 90
        4
 70
     0
 43
0.0
 10
1.437707808087039
 20
2.649282062457397
 10
1.436797979798642
 20
2.650700720325238
 10
1.435506067138254
 20
2.652036866810308
 10
1.433843350354652
 20
2.653146520189783
  0
LINE
  5
105E
330
C95
100
AcDbEntity
  8
OPTION-RB-SJ
100
AcDbLine
 10
1.14096542879909
 20
2.649282062457397
 30
0.0
 11
1.140965257616878
 21
2.726203292344898
 31
0.0
  0
LINE
  5
105F
330
C95
100
AcDbEntity
  8
OPTION-RB-SJ
100
AcDbLine
 10
1.437707808087039
 20
2.649282062457397
 30
0.0
 11
1.437707808087039
 21
2.726321759950401
 31
0.0
  0
LINE
  5
1060
330
C95
100
AcDbEntity
  8
OPTION-RB-SJ
100
AcDbLine
 10
1.437707808087039
 20
2.298992186155081
 30
0.0
 11
1.437707808087039
 21
2.649282062457397
 31
0.0
  0
LINE
  5
1061
330
C95
100
AcDbEntity
  8
OPTION-RB-SJ
100
AcDbLine
 10
1.14096542879909
 20
2.298992186155081
 30
0.0
 11
1.14096542879909
 21
2.649282062457397
 31
0.0
  0
LINE
  5
1062
330
C95
100
AcDbEntity
  8
OPTION-RB-SJ
100
AcDbLine
 10
1.437707808087039
 20
2.298992186155081
 30
0.0
 11
1.14096542879909
 21
2.298992186155081
 31
0.0
  0
LWPOLYLINE
  5
1063
330
C95
100
AcDbEntity
  8
OPTION-RB-SJ
100
AcDbPolyline
 90
        8
 70
     0
 43
0.0
 10
1.46943302122015
 20
2.220848612763306
 10
1.467022024729786
 20
2.208022556550803
 10
1.463722304179794
 20
2.195423490119239
 10
1.459954050170597
 20
2.183864618600741
 10
1.455893929571763
 20
2.173473808955888
 10
1.4515243231595
 20
2.164200363039229
 10
1.446459185385711
 20
2.155754077959544
 10
1.440425122141619
 20
2.14790368247884
  0
LINE
  5
1064
330
C95
100
AcDbEntity
  8
OPTION-RB-SJ
100
AcDbLine
 10
1.368198745361301
 20
2.118576479825164
 30
0.0
 11
1.444273311385347
 21
2.118596740295248
 31
0.0
  0
LWPOLYLINE
  5
1065
330
C95
100
AcDbEntity
  8
OPTION-RB-SJ
100
AcDbPolyline
 90
        8
 70
     0
 43
0.0
 10
1.440425122119309
 20
2.147903682501151
 10
1.432553495279151
 20
2.141854898670834
 10
1.424095036376824
 20
2.136786957350907
 10
1.414819585374136
 20
2.132419739870976
 10
1.404428695809646
 20
2.128362057334304
 10
1.392857649843782
 20
2.124592403571222
 10
1.380240214099552
 20
2.121291755623206
 10
1.367485816709351
 20
2.11889929778947
  0
ARC
  5
1066
330
C95
100
AcDbEntity
  8
OPTION-RB-SJ
100
AcDbCircle
 10
1.289336618443065
 20
2.298992186155081
 30
0.0
 40
0.154906064131446
100
AcDbArc
 50
163.2982969753234
 51
16.51342197939964
  0
ARC
  5
1067
330
C95
100
AcDbEntity
  8
OPTION-RB-SJ
100
AcDbCircle
 10
1.289336618443065
 20
2.298992186155081
 30
0.0
 40
0.194938144407656
100
AcDbArc
 50
139.5629750600571
 51
40.23037778769977
  0
ARC
  5
1068
330
C95
100
AcDbEntity
  8
OPTION-RB-SJ
100
AcDbCircle
 10
1.289336618443065
 20
2.298992186155081
 30
0.0
 40
0.1968986088132448
100
AcDbArc
 50
138.8980550269985
 51
40.8939614353996
  0
ARC
  5
1069
330
C95
100
AcDbEntity
  8
OPTION-RB-SJ
100
AcDbCircle
 10
1.289336618443065
 20
2.298992186155081
 30
0.0
 40
0.1483711896439748
100
AcDbArc
 50
179.9999999999991
 51
359.9999999999996
  0
LWPOLYLINE
  5
106A
330
C95
100
AcDbEntity
  8
OPTION-RB-SJ
100
AcDbPolyline
 90
       29
 70
     0
 43
0.0
 10
0.5455134609705956
 20
1.853992817284886
 10
0.5352681937962844
 20
1.855597343406372
 10
0.5253373600456678
 20
1.860505053807209
 10
0.5165915139090278
 20
1.868285980843189
 10
0.509137609835787
 20
1.878845031031962
 10
0.5036279756886353
 20
1.891257087438156
 10
0.5001301533096692
 20
1.90537034829074
 10
0.4989510318450039
 20
1.919948440826381
 10
0.5000602900457857
 20
1.934531880267651
 10
0.5034904491085451
 20
1.948661874161181
 10
0.5089405487135866
 20
1.961100051727912
 10
0.5163437741696755
 20
1.971694695662237
 10
0.5250522380689647
 20
1.979517438556198
 10
0.5349594428243213
 20
1.98447267561373
 10
0.5451969044026557
 20
1.986126272918214
 10
0.555441629789653
 20
1.984521745478578
 10
0.5653724635604427
 20
1.979614035077789
 10
0.5741183096970281
 20
1.971833108061984
 10
0.5815727555173344
 20
1.961274059150919
 10
0.5870823893400108
 20
1.94886213818652
 10
0.5905796702964384
 20
1.934748740594258
 10
0.5917587914366227
 20
1.920170783500413
 10
0.5906495335603191
 20
1.905587208617346
 10
0.5872199159200982
 20
1.891457351463497
 10
0.5817698166395376
 20
1.87901903845497
 10
0.5743660494363804
 20
1.868424393242936
 10
0.5656575855371457
 20
1.860601650328801
 10
0.555750380761616
 20
1.855646413271219
 10
0.5455134609705956
 20
1.853992817284886
  0
LWPOLYLINE
  5
106B
330
C95
100
AcDbEntity
  8
OPTION-RB-SJ
100
AcDbPolyline
 90
       26
 70
     0
 43
0.0
 10
0.5451966823254186
 20
1.986126285982885
 10
0.5394235010187067
 20
1.986633415031992
 10
0.5337388703214963
 20
1.988174460431216
 10
0.5282324404732556
 20
1.99072511892751
 10
0.5229910513890545
 20
1.99424516500366
 10
0.5180973630969798
 20
1.998679085311026
 10
0.5136285521898943
 20
2.00395695406739
 10
0.5096550946583284
 20
2.009995535932529
 10
0.5062396544930702
 20
2.016699598635437
 10
0.5034360953142959
 20
2.023963414817875
 10
0.5012886310610476
 20
2.031672429489779
 10
0.4998311285942971
 20
2.039705066539034
 10
0.4990865736990683
 20
2.047934646201797
 10
0.4990667084468888
 20
2.05623138274836
 10
0.4997718461255914
 20
2.064464431332757
 10
0.5011908662754409
 20
2.072503951553608
 10
0.5033013900307132
 20
2.080223155066317
 10
0.5060701331003901
 20
2.087500305084224
 10
0.5094534306533189
 20
2.09422063632521
 10
0.5133979259099469
 20
2.100278164902466
 10
0.5178414116557095
 20
2.105577359689431
 10
0.5227138113234501
 20
2.110034649043024
 10
0.5279382840284251
 20
2.113579738639979
 10
0.5334324365379009
 20
2.116156720192154
 10
0.5391096225496441
 20
2.117724953019555
 10
0.545935554813326
 20
2.118357491539793
  0
LINE
  5
106C
330
C95
100
AcDbEntity
  8
OPTION-RB-SJ
100
AcDbLine
 10
0.5459355548133289
 20
2.118357491539793
 30
0.0
 11
1.210570600710345
 21
2.118534499693351
 31
0.0
  0
LINE
  5
106D
330
C95
100
AcDbEntity
  8
OPTION-RB-SJ
100
AcDbLine
 10
0.545513460970597
 20
1.853992817284887
 30
0.0
 11
1.42858434733734
 21
1.854284597502027
 31
0.0
  0
LINE
  5
1082
330
C95
100
AcDbEntity
  8
OPTION-RB-SJ
100
AcDbLine
 10
2.176853245830737
 20
2.227095319959121
 30
0.0
 11
2.20576007825457
 21
2.223217448799537
 31
0.0
  0
LINE
  5
1083
330
C95
100
AcDbEntity
  8
OPTION-RB-SJ
100
AcDbLine
 10
2.227348160626828
 20
2.129686074372
 30
0.0
 11
2.256254993050661
 21
2.125808203212416
 31
0.0
  0
LINE
  5
1084
330
C95
100
AcDbEntity
  8
OPTION-RB-SJ
100
AcDbLine
 10
2.223104177699257
 20
2.220890726079605
 30
0.0
 11
2.25201101012309
 21
2.21701285492002
 31
0.0
  0
LINE
  5
10A1
330
C95
100
AcDbEntity
  8
OPTION-RB-SJ
100
AcDbLine
 10
2.226269967142054
 20
2.176913997120867
 30
0.0
 11
2.227348376397653
 21
2.129685927745568
 31
0.0
  0
LINE
  5
10A2
330
C95
100
AcDbEntity
  8
OPTION-RB-SJ
100
AcDbLine
 10
2.198441428330857
 20
2.133563814450568
 30
0.0
 11
2.226269836016212
 21
2.176913897014927
 31
0.0
  0
LINE
  5
10A3
330
C95
100
AcDbEntity
  8
OPTION-RB-SJ
100
AcDbLine
 10
2.25201101012309
 20
2.21701285492002
 30
0.0
 11
2.255176668422314
 21
2.173036025841804
 31
0.0
  0
LINE
  5
10A4
330
C95
100
AcDbEntity
  8
OPTION-RB-SJ
100
AcDbLine
 10
2.255176668422314
 20
2.173036025841804
 30
0.0
 11
2.280917927120985
 21
2.213134736973897
 31
0.0
  0
LEADER
  5
123B
330
C95
100
AcDbEntity
  8
TEXT-RB-SJ-PRS-LEADERS
100
AcDbLeader
  3
STANDARD
 76
     3
 10
2.643780997674372
 20
1.37539758569246
 30
0.0
 10
4.794354314181838
 20
0.4090259058788961
 30
0.0
 10
5.110034788973806
 20
0.4090259058788961
 30
0.0
1001
ACAD
1000
DSTYLE
1002
{
1070
   147
1040
0.09
1070
    77
1070
     0
1070
   279
1070
     2
1070
   340
1005
10DB
1002
}
  0
LEADER
  5
123C
330
C95
100
AcDbEntity
  8
TEXT-RB-SJ-PRS-LEADERS
100
AcDbLeader
  3
STANDARD
 76
     3
 10
4.597054007791307
 20
1.335953852550141
 30
0.0
 10
4.784489267996546
 20
0.7640195810397961
 30
0.0
 10
5.10016978137072
 20
0.7640195810397961
 30
0.0
1001
ACAD
1000
DSTYLE
1002
{
1070
   147
1040
0.09
1070
    77
1070
     0
1070
   279
1070
     2
1070
   340
1005
10DB
1002
}
  0
LEADER
  5
123D
330
C95
100
AcDbEntity
  8
TEXT-RB-SJ-PRS-LEADERS
100
AcDbLeader
  3
STANDARD
 76
     3
 10
1.580723940938963
 20
2.379170829026615
 30
0.0
 10
4.77648257244253
 20
3.862899270769431
 30
0.0
 10
5.096882345754545
 20
3.862899270769431
 30
0.0
1001
ACAD
1000
DSTYLE
1002
{
1070
   147
1040
0.09
1070
    77
1070
     0
1070
   279
1070
     2
1070
   340
1005
10DB
1002
}
  0
TEXT
  5
123E
330
C95
100
AcDbEntity
  8
TEXT-RB-SJ-PRS-BUBBLES
100
AcDbText
 10
5.14145639
 20
5.33929201696469
 30
0.0
 40
0.125
  1
PRE-FABRICATED SWING JOINT:
  7
ROMANS
100
AcDbText
  0
TEXT
  5
123F
330
C95
100
AcDbEntity
  8
TEXT-RB-SJ-PRS-BUBBLES
100
AcDbText
 10
5.14145639
 20
5.164292016964693
 30
0.0
 40
0.125
  1
  RAIN BIRD TSJ-075-PRS
  7
ROMANS
100
AcDbText
  0
TEXT
  5
1240
330
C95
100
AcDbEntity
  8
TEXT-RB-SJ-PRS-BUBBLES
100
AcDbText
 10
5.14145639
 20
4.667856862212999
 30
0.0
 40
0.125
  1
PVC SCH 40 TEE OR ELL
  7
ROMANS
100
AcDbText
  0
TEXT
  5
1241
330
C95
100
AcDbEntity
  8
TEXT-RB-SJ-PRS-BUBBLES
100
AcDbText
 10
5.14145639
 20
4.317856862212997
 30
0.0
 40
0.125
  1
LATERAL PIPE
  7
ROMANS
100
AcDbText
  0
TEXT
  5
1242
330
C95
100
AcDbEntity
  8
TEXT-RB-SJ-PRS-BUBBLES
100
AcDbText
 10
5.14145639
 20
4.979595718197111
 30
0.0
 40
0.125
  1
  WITH 45 PSI PRESSURE REGULATOR
  7
ROMANS
100
AcDbText
  0
TEXT
  5
1243
330
C95
100
AcDbEntity
  8
TEXT-RB-SJ-PRS-LEADERS
100
AcDbText
 10
5.14145639
 20
3.439300092307079
 30
0.0
 40
0.125
  1
  WITH 45 PSI PRESSURE REGULATOR
  7
ROMANS
100
AcDbText
  0
ARC
  5
1244
330
C95
100
AcDbEntity
  8
OPTION-RB-SJ-PRS
100
AcDbCircle
 10
1.548545241615922
 20
2.600310406653332
 30
0.0
 40
0.0063259725580844
100
AcDbArc
 50
359.9266674661092
 51
90.00000000000044
  0
ARC
  5
1245
330
C95
100
AcDbEntity
  8
OPTION-RB-SJ-PRS
100
AcDbCircle
 10
1.49823385150096
 20
2.600310406653334
 30
0.0
 40
0.0063259725580844
100
AcDbArc
 50
90.0
 51
180.0
  0
ARC
  5
1246
330
C95
100
AcDbEntity
  8
OPTION-RB-SJ-PRS
100
AcDbCircle
 10
1.415915615917055
 20
2.602034272364396
 30
0.0
 40
0.0063259725580844
100
AcDbArc
 50
359.9266674661092
 51
90.0000000000009
  0
ARC
  5
1247
330
C95
100
AcDbEntity
  8
OPTION-RB-SJ-PRS
100
AcDbCircle
 10
1.365604225802093
 20
2.602034272364396
 30
0.0
 40
0.0063259725580844
100
AcDbArc
 50
90.0
 51
180.0
  0
ARC
  5
1248
330
C95
100
AcDbEntity
  8
OPTION-RB-SJ-PRS
100
AcDbCircle
 10
1.234941677498611
 20
2.600310406653332
 30
0.0
 40
0.0063259725580844
100
AcDbArc
 50
359.9266674661092
 51
90.00000000000044
  0
ARC
  5
1249
330
C95
100
AcDbEntity
  8
OPTION-RB-SJ-PRS
100
AcDbCircle
 10
1.184630287383648
 20
2.600310406653334
 30
0.0
 40
0.0063259725580844
100
AcDbArc
 50
90.0
 51
180.0
  0
ARC
  5
124A
330
C95
100
AcDbEntity
  8
OPTION-RB-SJ-PRS
100
AcDbCircle
 10
1.089422740435657
 20
2.600310406653332
 30
0.0
 40
0.0063259725580844
100
AcDbArc
 50
359.9266674661092
 51
90.00000000000044
  0
ARC
  5
124B
330
C95
100
AcDbEntity
  8
OPTION-RB-SJ-PRS
100
AcDbCircle
 10
1.039111350320694
 20
2.600310406653334
 30
0.0
 40
0.0063259725580844
100
AcDbArc
 50
90.0
 51
180.0
  0
LWPOLYLINE
  5
124C
330
C95
100
AcDbEntity
  8
OPTION-RB-SJ-PRS
100
AcDbPolyline
 90
        2
 70
   128
 43
0.0
 10
1.077938372554679
 20
2.068611319873515
 42
0.0008240863683312
 10
1.512030960260906
 20
2.068611319873515
 42
2.821968236869615
  0
LWPOLYLINE
  5
124D
330
C95
100
AcDbEntity
  8
OPTION-RB-SJ-PRS
100
AcDbPolyline
 90
        2
 70
   128
 43
0.0
 10
1.056012591409457
 20
2.110933266123182
 42
0.0155688402775604
 10
1.533956741406129
 20
2.110933266123182
 42
4.294897269690976
  0
LWPOLYLINE
  5
124E
330
C95
100
AcDbEntity
  8
OPTION-RB-SJ-PRS
100
AcDbPolyline
 90
        6
 70
   128
 43
0.0
 10
1.352331915967495
 20
2.401630676291346
 42
0.3041142020588742
 10
1.370617358177808
 20
2.430004562349481
 10
1.387741527253036
 20
2.5281423823551
 10
1.514440163543681
 20
2.528310969914039
 10
1.524714664988818
 20
2.445007938739423
 42
0.2421582479142593
 10
1.550971685653911
 20
2.406209274057814
 42
1.371174814995273
  0
LWPOLYLINE
  5
124F
330
C95
100
AcDbEntity
  8
OPTION-RB-SJ-PRS
100
AcDbPolyline
 90
        6
 70
   128
 43
0.0
 10
1.060059871471932
 20
2.405222674686085
 42
0.3041142020588742
 10
1.078345313682245
 20
2.433596560744221
 10
1.095469482757473
 20
2.531734380749839
 10
1.207347194464344
 20
2.531734380749839
 10
1.234745826401119
 20
2.427890884560418
 42
0.2679665732332179
 10
1.274710827394907
 20
2.400936517710376
 42
1.371174814995273
  0
LWPOLYLINE
  5
1250
330
C95
100
AcDbEntity
  8
OPTION-RB-SJ-PRS
100
AcDbPolyline
 90
        3
 70
   128
 43
0.0
 10
1.010751584396197
 20
2.406207264098703
 10
1.296392757904759
 20
2.400503572246416
 10
1.579217705295693
 20
2.406202141071028
  0
LINE
  5
1251
330
C95
100
AcDbEntity
  8
OPTION-RB-SJ-PRS
100
AcDbLine
 10
1.455414082217976
 20
2.725326555435272
 30
0.0
 11
1.518720390260708
 21
2.606636379211418
 31
0.0
  0
LINE
  5
1252
330
C95
100
AcDbEntity
  8
OPTION-RB-SJ-PRS
100
AcDbLine
 10
1.134554852713878
 20
2.725326555435272
 30
0.0
 11
1.071248544671146
 21
2.606636379211418
 31
0.0
  0
LINE
  5
1253
330
C95
100
AcDbEntity
  8
OPTION-RB-SJ-PRS
100
AcDbLine
 10
1.315634471586329
 20
2.725326555435272
 30
0.0
 11
1.315456108532096
 21
2.585968972843558
 31
0.0
  0
LINE
  5
1254
330
C95
100
AcDbEntity
  8
OPTION-RB-SJ-PRS
100
AcDbLine
 10
1.291490519831096
 20
2.725326555435272
 30
0.0
 11
1.291312196327751
 21
2.585999874512789
 31
0.0
  0
LWPOLYLINE
  5
1255
330
C95
100
AcDbEntity
  8
OPTION-RB-SJ-PRS
100
AcDbPolyline
 90
        4
 70
   128
 43
0.0
 10
1.45335159832504
 20
2.727354311740378
 10
1.455414082217976
 20
2.725326555435272
 10
1.455414082217976
 20
2.685677900356748
 10
1.455541402613707
 20
2.586200670388509
  0
LWPOLYLINE
  5
1256
330
C95
100
AcDbEntity
  8
OPTION-RB-SJ-PRS
100
AcDbPolyline
 90
        4
 70
   128
 43
0.0
 10
1.136617336606814
 20
2.727354311740378
 10
1.134554852713878
 20
2.725326555435272
 10
1.134554852713878
 20
2.685677900356748
 10
1.134427532318146
 20
2.586200670388509
  0
LINE
  5
1257
330
C95
100
AcDbEntity
  8
OPTION-RB-SJ-PRS
100
AcDbLine
 10
1.122552957737616
 20
1.8937916888194
 30
0.0
 11
1.122552957737616
 21
1.984723159481837
 31
0.0
  0
LINE
  5
1258
330
C95
100
AcDbEntity
  8
OPTION-RB-SJ-PRS
100
AcDbLine
 10
1.467416375077969
 20
1.8937916888194
 30
0.0
 11
1.467416375077969
 21
1.984723159481837
 31
0.0
  0
LWPOLYLINE
  5
1259
330
C95
100
AcDbEntity
  8
OPTION-RB-SJ-PRS
100
AcDbPolyline
 90
        2
 70
   128
 43
0.0
 10
1.122552957737616
 20
1.984723159481837
 42
0.032452391362471
 10
1.46741637507797
 20
1.984723159481837
 42
1.833078206779899
  0
LWPOLYLINE
  5
125A
330
C95
100
AcDbEntity
  8
OPTION-RB-SJ-PRS
100
AcDbPolyline
 90
        7
 70
   128
 43
0.0
 10
1.46741637507797
 20
1.984723159481837
 42
0.2873983003127189
 10
1.509762746734194
 20
2.030823843152561
 10
1.512030960260906
 20
2.068611319873515
 42
-0.3148458370097231
 10
1.533956741406129
 20
2.110933266123182
 42
0.1810074811729221
 10
1.557394652041296
 20
2.169125945419925
 42
0.0372106418098649
 10
1.578564387733341
 20
2.328589033625918
 10
1.580728056029903
 20
2.585629452640367
  0
LINE
  5
125B
330
C95
100
AcDbEntity
  8
OPTION-RB-SJ-PRS
100
AcDbLine
 10
1.554871208992628
 20
2.600302310080176
 30
0.0
 11
1.554852471665342
 21
2.5856625706679
 31
0.0
  0
LINE
  5
125C
330
C95
100
AcDbEntity
  8
OPTION-RB-SJ-PRS
100
AcDbLine
 10
1.49823385150096
 20
2.606636379211418
 30
0.0
 11
1.548545241615922
 21
2.606636379211418
 31
0.0
  0
LINE
  5
125D
330
C95
100
AcDbEntity
  8
OPTION-RB-SJ-PRS
100
AcDbLine
 10
1.491907878942875
 20
2.58574313312885
 30
0.0
 11
1.491907878942875
 21
2.600310406653334
 31
0.0
  0
LINE
  5
125E
330
C95
100
AcDbEntity
  8
OPTION-RB-SJ-PRS
100
AcDbLine
 10
1.422241583293761
 20
2.60202617579124
 30
0.0
 11
1.422220856867547
 21
2.585832325190497
 31
0.0
  0
LINE
  5
125F
330
C95
100
AcDbEntity
  8
OPTION-RB-SJ-PRS
100
AcDbLine
 10
1.365604225802093
 20
2.60836024492248
 30
0.0
 11
1.415915615917055
 21
2.60836024492248
 31
0.0
  0
LINE
  5
1260
330
C95
100
AcDbEntity
  8
OPTION-RB-SJ-PRS
100
AcDbLine
 10
1.359278253244008
 20
2.585912885105609
 30
0.0
 11
1.359278253244008
 21
2.602034272364396
 31
0.0
  0
LINE
  5
1261
330
C95
100
AcDbEntity
  8
OPTION-RB-SJ-PRS
100
AcDbLine
 10
1.241267644875316
 20
2.600302310080176
 30
0.0
 11
1.241249659649537
 21
2.586250198236544
 31
0.0
  0
LINE
  5
1262
330
C95
100
AcDbEntity
  8
OPTION-RB-SJ-PRS
100
AcDbLine
 10
1.178304314825563
 20
2.586330761660103
 30
0.0
 11
1.178304314825563
 21
2.600310406653334
 31
0.0
  0
LINE
  5
1263
330
C95
100
AcDbEntity
  8
OPTION-RB-SJ-PRS
100
AcDbLine
 10
1.184630287383648
 20
2.606636379211418
 30
0.0
 11
1.234941677498611
 21
2.606636379211418
 31
0.0
  0
LINE
  5
1264
330
C95
100
AcDbEntity
  8
OPTION-RB-SJ-PRS
100
AcDbLine
 10
1.095748707812362
 20
2.600302310080176
 30
0.0
 11
1.095730722586584
 21
2.586250198236544
 31
0.0
  0
LINE
  5
1265
330
C95
100
AcDbEntity
  8
OPTION-RB-SJ-PRS
100
AcDbLine
 10
1.039111350320694
 20
2.606636379211418
 30
0.0
 11
1.089422740435657
 21
2.606636379211418
 31
0.0
  0
LINE
  5
1266
330
C95
100
AcDbEntity
  8
OPTION-RB-SJ-PRS
100
AcDbLine
 10
1.03278537776261
 20
2.586330761660103
 30
0.0
 11
1.03278537776261
 21
2.600310406653334
 31
0.0
  0
LINE
  5
1267
330
C95
100
AcDbEntity
  8
OPTION-RB-SJ-PRS
100
AcDbLine
 10
1.00923511971096
 20
2.586360903514431
 30
0.0
 11
1.580728056029903
 21
2.585629452640367
 31
0.0
  0
LWPOLYLINE
  5
1268
330
C95
100
AcDbEntity
  8
OPTION-RB-SJ-PRS
100
AcDbPolyline
 90
        7
 70
   128
 43
0.0
 10
1.122552957737616
 20
1.984723159481837
 42
-0.287398300312719
 10
1.080206586081392
 20
2.030823843152561
 10
1.077938372554679
 20
2.068611319873515
 42
0.3148458370097231
 10
1.056012591409457
 20
2.110933266123182
 42
-0.1810074811729221
 10
1.03257468077429
 20
2.169125945419925
 42
-0.0372106418098649
 10
1.011404945082245
 20
2.328589033625918
 10
1.00923511971096
 20
2.586360903514431
  0
LINE
  5
1269
330
C95
100
AcDbEntity
  8
OPTION-RB-SJ-PRS
100
AcDbLine
 10
1.467416375077969
 20
1.8937916888194
 30
0.0
 11
1.467416375077969
 21
1.984723159481837
 31
0.0
  0
LINE
  5
126A
330
C95
100
AcDbEntity
  8
OPTION-RB-SJ-PRS
100
AcDbLine
 10
1.122552957737616
 20
1.8937916888194
 30
0.0
 11
1.122552957737616
 21
1.984723159481837
 31
0.0
  0
LINE
  5
126B
330
C95
100
AcDbEntity
  8
OPTION-RB-SJ-PRS
100
AcDbLine
 10
2.876357275762645
 20
1.691045677991588
 30
0.0
 11
2.892796000574158
 21
1.688840411908675
 31
0.0
  0
LINE
  5
126C
330
C95
100
AcDbEntity
  8
OPTION-RB-SJ-PRS
100
AcDbLine
 10
2.892925070433177
 20
1.713788418524146
 30
0.0
 11
2.905008739866461
 21
1.712167386074013
 31
0.0
  0
LINE
  5
126D
330
C95
100
AcDbEntity
  8
OPTION-RB-SJ-PRS
100
AcDbLine
 10
2.875295873126922
 20
1.736125507623287
 30
0.0
 11
2.925486041793163
 21
1.729392462474094
 31
0.0
  0
LWPOLYLINE
  5
126E
330
C95
100
AcDbEntity
  8
OPTION-RB-SJ-PRS
100
AcDbPolyline
 90
       92
 70
     0
 43
0.0
 10
2.89104562909368
 20
1.667105605780247
 10
2.892531081961562
 20
1.66704079144809
 10
2.894021790969935
 20
1.667004919726143
 10
2.895516218415178
 20
1.666999342994999
 10
2.8970128265367
 20
1.667025413624373
 10
2.898510077605392
 20
1.66708448394278
 10
2.900006433906757
 20
1.667177906387766
 10
2.901500357706817
 20
1.667307033251485
 10
2.902803012015537
 20
1.667450210698414
 10
2.904101605766662
 20
1.667622605266024
 10
2.905395111981285
 20
1.667825120200721
 10
2.906682503587235
 20
1.668058658742944
 10
2.907962753600752
 20
1.668324124102764
 10
2.909234834996846
 20
1.668622419458782
 10
2.910497720744547
 20
1.668954448082902
 10
2.91175038383948
 20
1.669321113169469
 10
2.913096538584996
 20
1.669758504347741
 10
2.914429438151051
 20
1.670235755872726
 10
2.915749061993055
 20
1.670750917507798
 10
2.917055389618496
 20
1.671302038990829
 10
2.918348400451325
 20
1.671887170126399
 10
2.919628074035365
 20
1.672504360647503
 10
2.920894389753332
 20
1.673151660327255
 10
2.92198033111441
 20
1.673735663157503
 10
2.923054383462487
 20
1.674341842695917
 10
2.924114698930692
 20
1.674971241003793
 10
2.925159429600048
 20
1.675624900167902
 10
2.92618672757217
 20
1.676303862290745
 10
2.927194744959576
 20
1.677009169417883
 10
2.928181633827536
 20
1.677741863656705
 10
2.929145546329772
 20
1.678502987084226
 10
2.930084634490356
 20
1.679293581776362
 10
2.930997050483611
 20
1.680114689825869
 10
2.931813610501926
 20
1.680899784769843
 10
2.9326054198961
 20
1.681710875790609
 10
2.933371995429606
 20
1.682547109009672
 10
2.934112853810082
 20
1.683407630408056
 10
2.93482751181674
 20
1.684291586086652
 10
2.935515486141467
 20
1.685198122047071
 10
2.936176293542873
 20
1.686126384374492
 10
2.936809450754076
 20
1.687075519102001
 10
2.937414474528793
 20
1.688044672278402
 10
2.937990881563804
 20
1.689032989941678
 10
2.938538188649179
 20
1.690039618135767
 10
2.939055912465954
 20
1.691063702919232
 10
2.939543569788469
 20
1.692104390356647
 10
2.940000677344956
 20
1.693160826444747
 10
2.940426751878293
 20
1.694232157289303
 10
2.940772411440981
 20
1.695177764862918
 10
2.941092741941764
 20
1.696132934709525
 10
2.941386379163365
 20
1.697096552494122
 10
2.941651958970972
 20
1.698067503944638
 10
2.94188811716306
 20
1.699044674705432
 10
2.942093489641134
 20
1.700026950499565
 10
2.942266712172221
 20
1.701013217012618
 10
2.942406420611728
 20
1.702002359899837
 10
2.942511250809115
 20
1.702993264909744
 10
2.942579838578581
 20
1.703984817666115
 10
2.942610819748963
 20
1.70497590390173
 10
2.942602830196291
 20
1.705965409287574
 10
2.942554505708187
 20
1.706952219524972
 10
2.942464482124345
 20
1.707935220289761
 10
2.942331395305062
 20
1.708913297273521
 10
2.942165600108923
 20
1.709830021608337
 10
2.941961361298577
 20
1.710740381906817
 10
2.941719735460697
 20
1.711643382598684
 10
2.941441779140696
 20
1.712538028082188
 10
2.941128548879158
 20
1.713423322719228
 10
2.940781101210657
 20
1.714298270965023
 10
2.940400492701236
 20
1.715161877233552
 10
2.939987779907204
 20
1.716013145866102
 10
2.939544019342532
 20
1.716851081302158
 10
2.939070267609599
 20
1.717674687950819
 10
2.938567581196899
 20
1.718482970199485
 10
2.938037016691106
 20
1.719274932477872
 10
2.937479630653365
 20
1.720049579163627
 10
2.936896479592778
 20
1.720805914659865
 10
2.936288620096027
 20
1.721542943396312
 10
2.935657108667312
 20
1.722259669739751
 10
2.935003001913905
 20
1.722955098135638
 10
2.934327356340023
 20
1.72362823295075
 10
2.93360930716496
 20
1.724297863859985
 10
2.932870642617487
 20
1.724941646361629
 10
2.932112520726656
 20
1.72555848927008
 10
2.931336099496064
 20
1.726147301347661
 10
2.930542536923324
 20
1.726706991449984
 10
2.929732991027753
 20
1.727236468318769
 10
2.928908619802077
 20
1.727734640773289
 10
2.928070581254768
 20
1.728200417612206
 10
2.927220033399168
 20
1.728632707670533
 10
2.926358134233982
 20
1.729030419674251
 10
2.925486041793163
 20
1.729392462474094
  0
LWPOLYLINE
  5
126F
330
C95
100
AcDbEntity
  8
OPTION-RB-SJ-PRS
100
AcDbPolyline
 90
       99
 70
     0
 43
0.0
 10
2.892796000574163
 20
1.688840411908675
 10
2.893290195506775
 20
1.688829980715657
 10
2.893783594256147
 20
1.688832008512417
 10
2.894275956772824
 20
1.688846391015002
 10
2.894767042915201
 20
1.688873023803822
 10
2.895256612597512
 20
1.688911802599778
 10
2.895744425739939
 20
1.688962623030492
 10
2.896230242179166
 20
1.689025380790273
 10
2.896713821856005
 20
1.689099971522465
 10
2.897194924638588
 20
1.689186290880171
 10
2.897673310415648
 20
1.689284234532215
 10
2.898148739148643
 20
1.689393698137679
 10
2.898620970653595
 20
1.689514577375152
 10
2.899089764871323
 20
1.68964676788797
 10
2.89955488169059
 20
1.68979016534497
 10
2.900016080995246
 20
1.689944665378631
 10
2.90047312269951
 20
1.690110163709872
 10
2.900925766682391
 20
1.690286555934828
 10
2.901373772858102
 20
1.690473737774412
 10
2.901816901089897
 20
1.690671604845376
 10
2.902254911323492
 20
1.690880052827414
 10
2.902687563390646
 20
1.691098977378486
 10
2.903114617252798
 20
1.691328274157686
 10
2.903535832762351
 20
1.69156783883871
 10
2.90395204137493
 20
1.691818229717097
 10
2.904361897926692
 20
1.692078731943934
 10
2.90476516039985
 20
1.69234924035235
 10
2.90516158681296
 20
1.692629649770618
 10
2.905550935210056
 20
1.692919855079085
 10
2.905932963589117
 20
1.693219751090281
 10
2.906307429973553
 20
1.693529232668816
 10
2.906674092361308
 20
1.693848194627226
 10
2.907032708817062
 20
1.694176531861583
 10
2.907383037302404
 20
1.694514139189311
 10
2.907724835856498
 20
1.694860911454399
 10
2.908057862502776
 20
1.695216743521458
 10
2.908381875275553
 20
1.695581530198148
 10
2.908696632161896
 20
1.695955166353956
 10
2.909001891185251
 20
1.696337546853496
 10
2.90929741037991
 20
1.696728566504423
 10
2.909582947748708
 20
1.697128120155604
 10
2.909858261315049
 20
1.69753610267167
 10
2.910066432285436
 20
1.697861306139434
 10
2.910267581662543
 20
1.698191420589227
 10
2.910461102735453
 20
1.69852625493771
 10
2.91064638885402
 20
1.698865618278346
 10
2.910822833323068
 20
1.699209319507157
 10
2.910989829487538
 20
1.699557167681294
 10
2.911146770625693
 20
1.699908971774337
 10
2.911293050077606
 20
1.70026454080708
 10
2.911428061194197
 20
1.70062368374337
 10
2.911551197294942
 20
1.700986209588255
 10
2.911661851642337
 20
1.701351927335942
 10
2.911759417612813
 20
1.701720646002336
 10
2.911843288520964
 20
1.702092174556169
 10
2.911912857686242
 20
1.702466322002483
 10
2.911967518407514
 20
1.702842897330616
 10
2.912006664019973
 20
1.703221709525004
 10
2.912029687847944
 20
1.703602567627062
 10
2.91203598323751
 20
1.703985280564277
 10
2.91202830082331
 20
1.704300649404502
 10
2.91200907592351
 20
1.704616637316491
 10
2.911978448828838
 20
1.70493274202325
 10
2.911936559829969
 20
1.70524846124779
 10
2.911883549186175
 20
1.70556329275434
 10
2.911819557224482
 20
1.705876734261035
 10
2.911744724162918
 20
1.706188283500632
 10
2.911659190364888
 20
1.706497438186397
 10
2.911563096068997
 20
1.706803696066816
 10
2.911456581565975
 20
1.70710655486491
 10
2.911339787130771
 20
1.707405512324288
 10
2.91121285309045
 20
1.707700066163098
 10
2.911075919663037
 20
1.707989714114089
 10
2.910929127216789
 20
1.708273953926865
 10
2.910772615949117
 20
1.70855228331846
 10
2.910606526207685
 20
1.708824200022736
 10
2.910430998262583
 20
1.709089201746974
 10
2.910246172393666
 20
1.70934678627113
 10
2.910052188871025
 20
1.709596451302485
 10
2.909849188005988
 20
1.709837694579788
 10
2.909637310068642
 20
1.710070013810303
 10
2.909416695370294
 20
1.710292906732783
 10
2.909209019770974
 20
1.710486623090431
 10
2.908994367791999
 20
1.710671785360514
 10
2.908772844308904
 20
1.710848018074433
 10
2.908544554192339
 20
1.711014945727252
 10
2.908309602323829
 20
1.711172192757053
 10
2.908068093583793
 20
1.711319383731598
 10
2.907820132848859
 20
1.71145614305263
 10
2.907565824999442
 20
1.711582095287895
 10
2.907305274937673
 20
1.711696864891229
 10
2.907038587534206
 20
1.711800076357685
 10
2.9067658676391
 20
1.711891354166595
 10
2.906487220164219
 20
1.711970322844464
 10
2.906202750011701
 20
1.712036606845139
 10
2.90591256200013
 20
1.712089830689156
 10
2.905616761052231
 20
1.71212961884608
 10
2.905315452054404
 20
1.712155595790366
 10
2.905008739866461
 20
1.712167386074011
  0
LINE
  5
1270
330
C95
100
AcDbEntity
  8
OPTION-RB-SJ-PRS
100
AcDbLine
 10
2.876357257737531
 20
1.691045543626919
 30
0.0
 11
2.892924918022787
 21
1.713788302168857
 31
0.0
  0
LINE
  5
1271
330
C95
100
AcDbEntity
  8
OPTION-RB-SJ-PRS
100
AcDbLine
 10
2.89104562909368
 20
1.667105605780249
 30
0.0
 11
2.898313694449376
 21
1.628183438139847
 31
0.0
  0
LINE
  5
1272
330
C95
100
AcDbEntity
  8
OPTION-RB-SJ-PRS
100
AcDbLine
 10
2.869285501557579
 20
1.632077589904443
 30
0.0
 11
2.898313694449376
 21
1.628183438139847
 31
0.0
  0
LINE
  5
1273
330
C95
100
AcDbEntity
  8
OPTION-RB-SJ-PRS
100
AcDbLine
 10
2.861963704255627
 20
1.671287534901929
 30
0.0
 11
2.869285501557579
 21
1.632077589904443
 31
0.0
  0
LINE
  5
1274
330
C95
100
AcDbEntity
  8
OPTION-RB-SJ-PRS
100
AcDbLine
 10
2.805711153550878
 20
1.64060613180838
 30
0.0
 11
2.875295586315528
 21
1.736125409297984
 31
0.0
  0
LINE
  5
1275
330
C95
100
AcDbEntity
  8
OPTION-RB-SJ-PRS
100
AcDbLine
 10
2.836594684929059
 20
1.636462948344717
 30
0.0
 11
2.861963686225641
 21
1.671287400500918
 31
0.0
  0
LWPOLYLINE
  5
1276
330
C95
100
AcDbEntity
  8
OPTION-RB-SJ-PRS
100
AcDbPolyline
 90
      102
 70
     0
 43
0.0
 10
2.740382640971954
 20
1.734867535372322
 10
2.740907978813153
 20
1.734763679775789
 10
2.741429035016949
 20
1.734677061547491
 10
2.741945803588491
 20
1.734607403227365
 10
2.742458278496538
 20
1.734554427360241
 10
2.742966453694127
 20
1.734517856511534
 10
2.743470323150035
 20
1.734497413226054
 10
2.743969880828151
 20
1.734492820012284
 10
2.744465120686403
 20
1.734503799471982
 10
2.744956036709291
 20
1.734530074129367
 10
2.745442622844969
 20
1.734571366513512
 10
2.745924873103444
 20
1.73462739920069
 10
2.746402781417139
 20
1.734697894740615
 10
2.74687634173421
 20
1.734782575662346
 10
2.747345548059787
 20
1.734881164505842
 10
2.747810394367511
 20
1.734993383852249
 10
2.748270874569196
 20
1.735118956235527
 10
2.748726982706315
 20
1.735257604190743
 10
2.74917871269556
 20
1.735409050288191
 10
2.749626058500811
 20
1.735573017036348
 10
2.750069014116352
 20
1.735749227032107
 10
2.750507573506064
 20
1.735937402783945
 10
2.751031266751468
 20
1.736180177645409
 10
2.751548530568607
 20
1.736439506297638
 10
2.752059354422886
 20
1.736714900240756
 10
2.752563727634309
 20
1.737005870994388
 10
2.753061639595601
 20
1.737311930068409
 10
2.753553079683715
 20
1.737632588993307
 10
2.754038037270762
 20
1.737967359263214
 10
2.754516501754323
 20
1.738315752424356
 10
2.754988462506493
 20
1.738677279970862
 10
2.755453908883631
 20
1.739051453417487
 10
2.755912830314799
 20
1.739437784269239
 10
2.756300641257072
 20
1.73977801599307
 10
2.756683153662304
 20
1.740126637795639
 10
2.757059864018338
 20
1.740483478528866
 10
2.757430268828739
 20
1.740848367024057
 10
2.757793864571596
 20
1.741221132060428
 10
2.758150147775965
 20
1.741601602521353
 10
2.758498614899337
 20
1.741989607170332
 10
2.758838762486486
 20
1.742384974870126
 10
2.759170087004648
 20
1.742787534456918
 10
2.759492084947644
 20
1.743197114689311
 10
2.759804252813074
 20
1.743613544491915
 10
2.760106087110467
 20
1.744036652602727
 10
2.760397084348301
 20
1.74446626788939
 10
2.760676740988917
 20
1.744902219151749
 10
2.760944553556486
 20
1.745344335236823
 10
2.761200018549725
 20
1.745792444939577
 10
2.761442632440728
 20
1.746246377132529
 10
2.761671891743923
 20
1.746705960590033
 10
2.761887292967764
 20
1.747171024179722
 10
2.762088332590336
 20
1.747641396680831
 10
2.762274507099477
 20
1.748116906945266
 10
2.762445313035112
 20
1.748597383799451
 10
2.762600246859581
 20
1.749082656043218
 10
2.762738805060727
 20
1.749572552528475
 10
2.762860484178467
 20
1.750066902081663
 10
2.762964780675159
 20
1.750565533502594
 10
2.763051191054366
 20
1.751068275622579
 10
2.763119211819671
 20
1.751574957272919
 10
2.763168339454026
 20
1.752085407269182
 10
2.763198070481625
 20
1.752599454458398
 10
2.763207656238234
 20
1.753021515691981
 10
2.763203983120656
 20
1.75344514266876
 10
2.763187052666015
 20
1.753869618192319
 10
2.763156866379998
 20
1.754294225107444
 10
2.763113425815484
 20
1.754718246197094
 10
2.763056732462401
 20
1.755140964326661
 10
2.762986787930596
 20
1.755561662289985
 10
2.762903593710012
 20
1.755979622952456
 10
2.762807151332903
 20
1.75639412908131
 10
2.762697462341288
 20
1.756804463516448
 10
2.762574528277196
 20
1.757209909097794
 10
2.762438350677776
 20
1.75760974862892
 10
2.762288931048686
 20
1.758003264954619
 10
2.762126270963423
 20
1.758389740873579
 10
2.761950371943398
 20
1.758768459209995
 10
2.761761235494286
 20
1.759138702808644
 10
2.761558863168955
 20
1.759499754452495
 10
2.761343256530042
 20
1.759850896997197
 10
2.761114417098961
 20
1.76019141326694
 10
2.760872346392234
 20
1.760520586049541
 10
2.760617045936158
 20
1.76083769820554
 10
2.760348517304218
 20
1.761142032533627
 10
2.76011700280378
 20
1.761383001799367
 10
2.759876485142865
 20
1.761614381536332
 10
2.759626965231456
 20
1.761835768969864
 10
2.759368443886243
 20
1.76204676131931
 10
2.759100921966266
 20
1.762246955705848
 10
2.758824400381505
 20
1.762435949354801
 10
2.758538879923164
 20
1.762613339433459
 10
2.758244361516991
 20
1.762778723146532
 10
2.757940845990519
 20
1.762931697656404
 10
2.757628334212531
 20
1.763071860156967
 10
2.757306827051802
 20
1.763198807842068
 10
2.756976325377105
 20
1.763312137905567
 10
2.756636830015985
 20
1.763411447509874
 10
2.756288341857833
 20
1.76349633386457
 10
2.755930861766556
 20
1.763566394127194
 10
2.755564390590301
 20
1.763621225475856
 10
2.755188929202712
 20
1.763660425140783
  0
LINE
  5
1277
330
C95
100
AcDbEntity
  8
OPTION-RB-SJ-PRS
100
AcDbLine
 10
2.722176711592155
 20
1.737309873146661
 30
0.0
 11
2.740382640971954
 21
1.734867535372322
 31
0.0
  0
LWPOLYLINE
  5
1278
330
C95
100
AcDbEntity
  8
OPTION-RB-SJ-PRS
100
AcDbPolyline
 90
       90
 70
     0
 43
0.0
 10
2.758070829656383
 20
1.70969892046057
 10
2.759263884719865
 20
1.709797615026023
 10
2.760443655230829
 20
1.709933978898466
 10
2.761610019024832
 20
1.710107320133732
 10
2.7627628539011
 20
1.710316946792512
 10
2.763902037690303
 20
1.710562166894303
 10
2.765027448207408
 20
1.710842288479182
 10
2.766138963277104
 20
1.711156619659939
 10
2.767236460725211
 20
1.711504468419714
 10
2.768319818387286
 20
1.711885142814327
 10
2.76938891402621
 20
1.712297950909362
 10
2.770443625534484
 20
1.712742200771505
 10
2.771483830685846
 20
1.713217200409377
 10
2.772509407315858
 20
1.713722257878804
 10
2.7737025183173
 20
1.71435700155497
 10
2.774874817656823
 20
1.715031622513673
 10
2.776026099157386
 20
1.715744976307296
 10
2.77715615658992
 20
1.716495918513692
 10
2.778264783766538
 20
1.717283304742202
 10
2.779351774535701
 20
1.71810599059727
 10
2.780416922668323
 20
1.718962831656754
 10
2.781460022012858
 20
1.719852683525107
 10
2.782480866340226
 20
1.720774401780203
 10
2.783479249494009
 20
1.72172684199013
 10
2.784454965234249
 20
1.72270885978973
 10
2.785407807440888
 20
1.723719310742208
 10
2.786337569869098
 20
1.724757050446046
 10
2.787244046367337
 20
1.725820934505706
 10
2.788127030706517
 20
1.726909818499037
 10
2.788860742335129
 20
1.727856815308258
 10
2.789575878538496
 20
1.728820453970947
 10
2.790271080954592
 20
1.729800045087647
 10
2.790944991257731
 20
1.730794899254012
 10
2.791596251060386
 20
1.731804327018504
 10
2.792223502052631
 20
1.732827638956174
 10
2.792825385867525
 20
1.73386414563122
 10
2.793400544163664
 20
1.734913157659907
 10
2.793947618610502
 20
1.735973985601563
 10
2.794465250825375
 20
1.737045940040981
 10
2.794952082493466
 20
1.73812833151688
 10
2.795406755273356
 20
1.739220470645519
 10
2.795827910782391
 20
1.740321668011712
 10
2.796214190705772
 20
1.741431234154171
 10
2.796564236697179
 20
1.742548479652804
 10
2.796876690378855
 20
1.743672715128774
 10
2.797150193435975
 20
1.744803251120795
 10
2.797383387501621
 20
1.74593939819304
 10
2.79757491423439
 20
1.7470804669618
 10
2.797723415303714
 20
1.748225767986379
 10
2.797827532326953
 20
1.749374611851597
 10
2.797885907009884
 20
1.750526309111882
 10
2.797897051978519
 20
1.75174919690126
 10
2.79785799105468
 20
1.752973499099918
 10
2.79777142119357
 20
1.754198199538923
 10
2.797640039261986
 20
1.755422282079668
 10
2.797466542256351
 20
1.756644730584672
 10
2.797253627054305
 20
1.75786452885839
 10
2.797003990563871
 20
1.759080660793697
 10
2.796720329724513
 20
1.760292110242249
 10
2.796405341470832
 20
1.761497861019356
 10
2.796061722705959
 20
1.762696896981558
 10
2.795692170333038
 20
1.763888201985381
 10
2.795241583271365
 20
1.765236282397496
 10
2.794759768399122
 20
1.766571033841999
 10
2.794245732023258
 20
1.767890508561134
 10
2.79369848050769
 20
1.769192758808002
 10
2.79311702013876
 20
1.7704758368091
 10
2.792500357244043
 20
1.771737794822411
 10
2.791847498130511
 20
1.772976685090172
 10
2.791157449141458
 20
1.774190559849746
 10
2.790429216542635
 20
1.775377471311899
 10
2.789845678442745
 20
1.776266107980876
 10
2.789238764477975
 20
1.777136950520886
 10
2.788608029722587
 20
1.777989126705628
 10
2.787953029182984
 20
1.778821764354895
 10
2.787273317881353
 20
1.77963399126787
 10
2.786568450896782
 20
1.780424935254607
 10
2.785837983194499
 20
1.781193724103427
 10
2.78508146987424
 20
1.781939485640097
 10
2.784298465937546
 20
1.782661347648077
 10
2.783488526442926
 20
1.783358437921672
 10
2.78265120636047
 20
1.784029884285557
 10
2.781786060785015
 20
1.78467481452916
 10
2.780892644738754
 20
1.785292356451662
 10
2.779970513243817
 20
1.785881637852251
 10
2.77901922134301
 20
1.786441786545853
 10
2.778038324037863
 20
1.786971930315908
 10
2.777027376412379
 20
1.787471197008797
 10
2.775985933463238
 20
1.787938714371644
 10
2.7749135502332
 20
1.788373610219349
  0
LINE
  5
1279
330
C95
100
AcDbEntity
  8
OPTION-RB-SJ-PRS
100
AcDbLine
 10
2.68731975314825
 20
1.683847674801378
 30
0.0
 11
2.705525682528054
 21
1.681405337027036
 31
0.0
  0
LWPOLYLINE
  5
127A
330
C95
100
AcDbEntity
  8
OPTION-RB-SJ-PRS
100
AcDbPolyline
 90
       81
 70
     0
 43
0.0
 10
2.714334274026623
 20
1.652864402153752
 10
2.715599349711799
 20
1.652863898531516
 10
2.716856549055584
 20
1.652898125203278
 10
2.718105691069198
 20
1.652966536970844
 10
2.719346594670573
 20
1.653068588630028
 10
2.720579078875793
 20
1.653203735018991
 10
2.721802962602797
 20
1.65337143093354
 10
2.7230180648628
 20
1.653571131175488
 10
2.724224204578601
 20
1.653802290576996
 10
2.725421200720219
 20
1.654064363908394
 10
2.726608872287998
 20
1.654356806028448
 10
2.727787038215604
 20
1.654679071712362
 10
2.728955517482796
 20
1.655030615803164
 10
2.730114129038959
 20
1.655410893055457
 10
2.731262691848125
 20
1.655819358332858
 10
2.732401024921505
 20
1.656255466437182
 10
2.733635641131263
 20
1.656764104484412
 10
2.73485753498013
 20
1.657304522080564
 10
2.736066468709315
 20
1.657876003200352
 10
2.737262204590371
 20
1.65847783190689
 10
2.738444504915473
 20
1.659109292279031
 10
2.739613131873739
 20
1.659769668316962
 10
2.740767847798557
 20
1.660458244131013
 10
2.741908414894784
 20
1.661174303700751
 10
2.743034595470321
 20
1.66191713108443
 10
2.744146151780991
 20
1.662686010365773
 10
2.745242846036537
 20
1.66348022556071
 10
2.746324440560589
 20
1.664299060706865
 10
2.747390697588357
 20
1.665141799872238
 10
2.748441379407144
 20
1.666007727099347
 10
2.74947624821094
 20
1.666896126424716
 10
2.750495066344003
 20
1.667806281901722
 10
2.75149759601606
 20
1.668737477546271
 10
2.752323401566438
 20
1.669532291335305
 10
2.753135949750385
 20
1.670341501549148
 10
2.75393355078309
 20
1.671165278506664
 10
2.754714514920975
 20
1.67200379255816
 10
2.755477152394947
 20
1.672857214001909
 10
2.756219773477158
 20
1.673725713167606
 10
2.756940688362187
 20
1.67460946035838
 10
2.75763820732706
 20
1.675508625940284
 10
2.758310640639047
 20
1.676423380206688
 10
2.758956298461247
 20
1.677353893501936
 10
2.759573491117896
 20
1.678300336130258
 10
2.760160528803569
 20
1.679262878394774
 10
2.760715721779546
 20
1.68024169068214
 10
2.761237380292494
 20
1.681236943270012
 10
2.761723814578225
 20
1.682248806492963
 10
2.762173334888245
 20
1.683277450664983
 10
2.762584251458382
 20
1.684323046120662
 10
2.762954874503811
 20
1.685385763178845
 10
2.763234004720101
 20
1.686291913724395
 10
2.763482941185408
 20
1.687208852433074
 10
2.76370113733621
 20
1.688135156563144
 10
2.763888046510835
 20
1.689069403330551
 10
2.764043122192975
 20
1.690010169931729
 10
2.764165817757302
 20
1.690956033577733
 10
2.764255586619694
 20
1.6919055715111
 10
2.764311882191156
 20
1.692857360938011
 10
2.764334157882696
 20
1.693809979064655
 10
2.764321867089597
 20
1.694762003117822
 10
2.764274463238591
 20
1.695712010283091
 10
2.764191399729835
 20
1.696658577823604
 10
2.764072129990068
 20
1.697600282924933
 10
2.763943225902874
 20
1.69838838330681
 10
2.763787939063811
 20
1.69917117834061
 10
2.763605943169558
 20
1.699947818734982
 10
2.763396911927684
 20
1.700717455141606
 10
2.763160519066352
 20
1.701479238227903
 10
2.762896438277383
 20
1.702232318666168
 10
2.762604343325279
 20
1.70297584711895
 10
2.762283907849812
 20
1.703708974284022
 10
2.761934805631193
 20
1.704430850803327
 10
2.761556710361252
 20
1.705140627349156
 10
2.761149295716092
 20
1.705837454614411
 10
2.760712235455329
 20
1.706520483225298
 10
2.760245203275674
 20
1.707188863890459
 10
2.759747872889553
 20
1.707841747297915
 10
2.759219918020257
 20
1.708478284078744
 10
2.758661012375348
 20
1.709097624884635
 10
2.758070829656383
 20
1.70969892046057
  0
LINE
  5
127B
330
C95
100
AcDbEntity
  8
OPTION-RB-SJ-PRS
100
AcDbLine
 10
2.687319600722129
 20
1.683847558466701
 30
0.0
 11
2.705773291957805
 21
1.712151009846977
 31
0.0
  0
LWPOLYLINE
  5
127C
330
C95
100
AcDbEntity
  8
OPTION-RB-SJ-PRS
100
AcDbPolyline
 90
      102
 70
     0
 43
0.0
 10
2.705525682528054
 20
1.681405337027036
 10
2.706085447526774
 20
1.681310125658108
 10
2.706639125674772
 20
1.681231692654571
 10
2.707186792512819
 20
1.681169850401684
 10
2.707728523622892
 20
1.681124411316198
 10
2.708264394493637
 20
1.68109518780887
 10
2.708794480738523
 20
1.681081992255214
 10
2.709318857851087
 20
1.681084637102332
 10
2.709837601424162
 20
1.681102934710012
 10
2.710350786967028
 20
1.681136697504748
 10
2.710858490056782
 20
1.681185737866926
 10
2.711360786202717
 20
1.681249868223043
 10
2.711857751002535
 20
1.681328900969231
 10
2.712349459981242
 20
1.681422648511373
 10
2.712835988715956
 20
1.681530923229852
 10
2.713317412700217
 20
1.681653537571784
 10
2.713793807526843
 20
1.681790303896938
 10
2.714265248705141
 20
1.681941034631823
 10
2.714731811832804
 20
1.682105542172553
 10
2.715193572414247
 20
1.68228363890929
 10
2.715650606031433
 20
1.682475137258767
 10
2.716170453947457
 20
1.682711686955962
 10
2.716684265121293
 20
1.682965427154315
 10
2.717192154460326
 20
1.683236072610234
 10
2.717694236893658
 20
1.683523337966264
 10
2.71819062731892
 20
1.683826937906137
 10
2.718681440597374
 20
1.684146587118481
 10
2.719166791663011
 20
1.684482000282163
 10
2.719646795408579
 20
1.684832892044586
 10
2.720121566757188
 20
1.685198977141568
 10
2.720591220617333
 20
1.685579970199907
 10
2.721055871855154
 20
1.685975585944558
 10
2.721424009574539
 20
1.686302418077866
 10
2.721788541423021
 20
1.686638132538717
 10
2.722148990157057
 20
1.686982434207082
 10
2.722504878548851
 20
1.687335027942309
 10
2.722855729359721
 20
1.687695618660721
 10
2.723201065346126
 20
1.688063911242273
 10
2.723540409316604
 20
1.688439610541448
 10
2.723873283996133
 20
1.688822421479424
 10
2.724199212193264
 20
1.689212048910689
 10
2.724517716648709
 20
1.689608197735814
 10
2.724828320170999
 20
1.690010572809277
 10
2.725130545464531
 20
1.690418879036525
 10
2.725423915342691
 20
1.690832821308393
 10
2.725707952577685
 20
1.691252104484225
 10
2.725982179910222
 20
1.691676433464604
 10
2.726246120133125
 20
1.692105513124611
 10
2.726499296023436
 20
1.692539048359951
 10
2.726741230317013
 20
1.692976744034852
 10
2.726971445806663
 20
1.693418305024402
 10
2.72718946523309
 20
1.693863436229178
 10
2.727394811409721
 20
1.694311842540009
 10
2.727587007088136
 20
1.694763228800506
 10
2.727765575013914
 20
1.69521729994759
 10
2.727930037975001
 20
1.695673760820011
 10
2.72807991874846
 20
1.696132316313462
 10
2.728214740111347
 20
1.696592671323647
 10
2.728334024799512
 20
1.697054530714802
 10
2.72843729559003
 20
1.697517599382609
 10
2.7285240752757
 20
1.697981582202168
 10
2.728593886597232
 20
1.698446184074062
 10
2.728646252363168
 20
1.69891110985275
 10
2.728680695293615
 20
1.699376064423092
 10
2.728696738186257
 20
1.699840752696506
 10
2.728693903813291
 20
1.700304879532358
 10
2.728671714915431
 20
1.70076814983122
 10
2.728629694301202
 20
1.701230268447562
 10
2.728567364711333
 20
1.701690940281976
 10
2.728484248918017
 20
1.702149870193806
 10
2.72839821801238
 20
1.70253329141552
 10
2.728297482967019
 20
1.702914642272893
 10
2.728182308615012
 20
1.703293286496852
 10
2.72805295976392
 20
1.703668587766251
 10
2.727909701221343
 20
1.704039909759935
 10
2.727752797851783
 20
1.704406616167626
 10
2.72758251446772
 20
1.704768070704511
 10
2.727399115871836
 20
1.705123637013106
 10
2.727202866892318
 20
1.70547267878799
 10
2.726994032377983
 20
1.705814559739486
 10
2.726772877131511
 20
1.706148643510107
 10
2.726539665970237
 20
1.706474293851385
 10
2.726294663769555
 20
1.706790874396085
 10
2.726038135284951
 20
1.707097748848535
 10
2.725770345360361
 20
1.707394280882712
 10
2.725491558844575
 20
1.70767983420895
 10
2.725227621318222
 20
1.707930441861303
 10
2.72495493791505
 20
1.708170881206494
 10
2.724673710227992
 20
1.708400667864601
 10
2.724384139902033
 20
1.708619317430222
 10
2.724086428525219
 20
1.708826345487094
 10
2.723780777701323
 20
1.709021267598354
 10
2.723467389023267
 20
1.709203599384076
 10
2.72314646411544
 20
1.709372856423128
 10
2.722818204565882
 20
1.709528554299233
 10
2.722482811983255
 20
1.709670208611885
 10
2.722140487971306
 20
1.709797334924203
 10
2.721791434159333
 20
1.70990944885139
 10
2.721435852119622
 20
1.7100060659978
 10
2.721073943471698
 20
1.710086701905949
 10
2.720705909808456
 20
1.710150872195918
 10
2.720331952717964
 20
1.710198092451444
  0
LINE
  5
127D
330
C95
100
AcDbEntity
  8
OPTION-RB-SJ-PRS
100
AcDbLine
 10
2.754647796918486
 20
1.647456315733957
 30
0.0
 11
2.788242287304301
 21
1.642949592063486
 31
0.0
  0
LINE
  5
127E
330
C95
100
AcDbEntity
  8
OPTION-RB-SJ-PRS
100
AcDbLine
 10
2.705773578753463
 20
1.712151108192888
 30
0.0
 11
2.720331952717964
 21
1.710198092451444
 31
0.0
  0
LINE
  5
127F
330
C95
100
AcDbEntity
  8
OPTION-RB-SJ-PRS
100
AcDbLine
 10
2.754647528132201
 20
1.647456351773322
 30
0.0
 11
2.816904303236865
 21
1.744437700117598
 31
0.0
  0
LINE
  5
1280
330
C95
100
AcDbEntity
  8
OPTION-RB-SJ-PRS
100
AcDbLine
 10
2.740630555238221
 20
1.765613440882236
 30
0.0
 11
2.755188929202712
 21
1.763660425140783
 31
0.0
  0
LINE
  5
1281
330
C95
100
AcDbEntity
  8
OPTION-RB-SJ-PRS
100
AcDbLine
 10
2.722176577227484
 20
1.737309891171773
 30
0.0
 11
2.740630268426822
 21
1.765613342556927
 31
0.0
  0
LINE
  5
1282
330
C95
100
AcDbEntity
  8
OPTION-RB-SJ-PRS
100
AcDbLine
 10
2.719824833676107
 20
1.795763798909008
 30
0.0
 11
2.7749135502332
 21
1.788373610219349
 31
0.0
  0
LINE
  5
1283
330
C95
100
AcDbEntity
  8
OPTION-RB-SJ-PRS
100
AcDbLine
 10
2.633707497086136
 20
1.663680538964839
 30
0.0
 11
2.71982456491043
 21
1.795763834964101
 31
0.0
  0
LINE
  5
1284
330
C95
100
AcDbEntity
  8
OPTION-RB-SJ-PRS
100
AcDbLine
 10
2.633707631487138
 20
1.663680520934854
 30
0.0
 11
2.714334274026623
 21
1.652864402153752
 31
0.0
  0
LINE
  5
1285
330
C95
100
AcDbEntity
  8
OPTION-RB-SJ-PRS
100
AcDbLine
 10
2.816904437601535
 20
1.744437682092486
 30
0.0
 11
2.850498927987346
 21
1.739930958422012
 31
0.0
  0
LINE
  5
1286
330
C95
100
AcDbEntity
  8
OPTION-RB-SJ-PRS
100
AcDbLine
 10
2.805711422316555
 20
1.640606095753278
 30
0.0
 11
2.836594837318824
 21
1.636463064684272
 31
0.0
  0
LINE
  5
1287
330
C95
100
AcDbEntity
  8
OPTION-RB-SJ-PRS
100
AcDbLine
 10
2.788242152919024
 20
1.64294961007286
 30
0.0
 11
2.850498775597566
 21
1.739930842082451
 31
0.0
  0
LINE
  5
1288
330
C95
100
AcDbEntity
  8
OPTION-RB-SJ-PRS
100
AcDbLine
 10
2.475830040245314
 20
1.817552026575923
 30
0.0
 11
2.491234203514795
 21
1.810013833175431
 31
0.0
  0
LINE
  5
1289
330
C95
100
AcDbEntity
  8
OPTION-RB-SJ-PRS
100
AcDbLine
 10
2.494561057903375
 20
1.824614987570575
 30
0.0
 11
2.501099687022128
 21
1.822369863217429
 31
0.0
  0
LINE
  5
128A
330
C95
100
AcDbEntity
  8
OPTION-RB-SJ-PRS
100
AcDbLine
 10
2.482991238832357
 20
1.809751532836471
 30
0.0
 11
2.47582992391063
 21
1.817552179002043
 31
0.0
  0
LINE
  5
128B
330
C95
100
AcDbEntity
  8
OPTION-RB-SJ-PRS
100
AcDbLine
 10
2.500198225952384
 20
1.815651117559119
 30
0.0
 11
2.49456107593336
 21
1.824615121971588
 31
0.0
  0
ARC
  5
128C
330
C95
100
AcDbEntity
  8
OPTION-RB-SJ-PRS
100
AcDbCircle
 10
2.600241228304417
 20
1.782434960659339
 30
0.0
 40
0.019252530312569
100
AcDbArc
 50
324.884917526065
 51
42.18012680566526
  0
LINE
  5
128D
330
C95
100
AcDbEntity
  8
OPTION-RB-SJ-PRS
100
AcDbLine
 10
2.563192055885473
 20
1.826351795182564
 30
0.0
 11
2.574384844056469
 21
1.818010324183284
 31
0.0
  0
LINE
  5
128E
330
C95
100
AcDbEntity
  8
OPTION-RB-SJ-PRS
100
AcDbLine
 10
2.572581921860019
 20
1.804572832855805
 30
0.0
 11
2.563191939514453
 21
1.826351947613559
 31
0.0
  0
ARC
  5
128F
330
C95
100
AcDbEntity
  8
OPTION-RB-SJ-PRS
100
AcDbCircle
 10
2.587876404961
 20
1.663655948897432
 30
0.0
 40
0.0473906655831672
100
AcDbArc
 50
26.29324862376515
 51
75.68724158406531
  0
ARC
  5
1290
330
C95
100
AcDbEntity
  8
OPTION-RB-SJ-PRS
100
AcDbCircle
 10
2.585494757561074
 20
1.692055501817967
 30
0.0
 40
0.0208135462775512
100
AcDbArc
 50
73.42585473396525
 51
139.6241228802651
  0
ARC
  5
1291
330
C95
100
AcDbEntity
  8
OPTION-RB-SJ-PRS
100
AcDbCircle
 10
2.612204728930999
 20
1.705296770799427
 30
0.0
 40
0.0172902815761372
100
AcDbArc
 50
337.263747176565
 51
83.11490308136525
  0
ARC
  5
1292
330
C95
100
AcDbEntity
  8
OPTION-RB-SJ-PRS
100
AcDbCircle
 10
2.60267775179307
 20
1.734338228264452
 30
0.0
 40
0.0104067731258109
100
AcDbArc
 50
144.8849175260654
 51
263.1149030813656
  0
ARC
  5
1293
330
C95
100
AcDbEntity
  8
OPTION-RB-SJ-PRS
100
AcDbCircle
 10
2.543668394620409
 20
1.700701074379213
 30
0.0
 40
0.0166508370116692
100
AcDbArc
 50
236.5633226578655
 51
319.6241228802656
  0
LINE
  5
1294
330
C95
100
AcDbEntity
  8
OPTION-RB-SJ-PRS
100
AcDbLine
 10
2.560389649728083
 20
1.795264595072123
 30
0.0
 11
2.572926101161875
 21
1.786743007517549
 31
0.0
  0
LINE
  5
1295
330
C95
100
AcDbEntity
  8
OPTION-RB-SJ-PRS
100
AcDbLine
 10
2.529564749920257
 20
1.789824036551942
 30
0.0
 11
2.568878287338586
 21
1.766766582229927
 31
0.0
  0
LINE
  5
1296
330
C95
100
AcDbEntity
  8
OPTION-RB-SJ-PRS
100
AcDbLine
 10
2.494331486634799
 20
1.817806107439742
 30
0.0
 11
2.500198225952384
 21
1.815651117559119
 31
0.0
  0
LINE
  5
1297
330
C95
100
AcDbEntity
  8
OPTION-RB-SJ-PRS
100
AcDbLine
 10
2.520567643173936
 20
1.743152305917383
 30
0.0
 11
2.541527444554175
 21
1.736236645898606
 31
0.0
  0
LINE
  5
1298
330
C95
100
AcDbEntity
  8
OPTION-RB-SJ-PRS
100
AcDbLine
 10
2.501394208694315
 20
1.74298864633262
 30
0.0
 11
2.530236284451611
 21
1.733647611056476
 31
0.0
  0
LINE
  5
1299
330
C95
100
AcDbEntity
  8
OPTION-RB-SJ-PRS
100
AcDbLine
 10
2.483023728946989
 20
1.738613244558393
 30
0.0
 11
2.514553363945323
 21
1.728911671387248
 31
0.0
  0
LINE
  5
129A
330
C95
100
AcDbEntity
  8
OPTION-RB-SJ-PRS
100
AcDbLine
 10
2.489267854444165
 20
1.815749471506792
 30
0.0
 11
2.497150263201608
 21
1.813324078203701
 31
0.0
  0
LINE
  5
129B
330
C95
100
AcDbEntity
  8
OPTION-RB-SJ-PRS
100
AcDbLine
 10
2.59143194434367
 20
1.712004274258853
 30
0.0
 11
2.599592078070773
 21
1.70957564170595
 31
0.0
  0
LINE
  5
129C
330
C95
100
AcDbEntity
  8
OPTION-RB-SJ-PRS
100
AcDbLine
 10
2.538397334111174
 20
1.74349650324923
 30
0.0
 11
2.552236751023405
 21
1.739587991841577
 31
0.0
  0
LINE
  5
129D
330
C95
100
AcDbEntity
  8
OPTION-RB-SJ-PRS
100
AcDbLine
 10
2.62857777100711
 20
1.691727951565423
 30
0.0
 11
2.64049151860795
 21
1.688761751422272
 31
0.0
  0
LINE
  5
129E
330
C95
100
AcDbEntity
  8
OPTION-RB-SJ-PRS
100
AcDbLine
 10
2.614276611663162
 20
1.722455306889671
 30
0.0
 11
2.601430202273533
 21
1.724006502965242
 31
0.0
  0
LINE
  5
129F
330
C95
100
AcDbEntity
  8
OPTION-RB-SJ-PRS
100
AcDbLine
 10
2.569638766691058
 20
1.705538500805412
 30
0.0
 11
2.556353187317395
 21
1.68991467519653
 31
0.0
  0
LINE
  5
12A0
330
C95
100
AcDbEntity
  8
OPTION-RB-SJ-PRS
100
AcDbLine
 10
2.552236616658738
 20
1.739588009866685
 30
0.0
 11
2.516389003354654
 21
1.783383931795751
 31
0.0
  0
LINE
  5
12A1
330
C95
100
AcDbEntity
  8
OPTION-RB-SJ-PRS
100
AcDbLine
 10
2.514553363945323
 20
1.728911671387248
 30
0.0
 11
2.501394208694315
 21
1.74298864633262
 31
0.0
  0
LINE
  5
12A2
330
C95
100
AcDbEntity
  8
OPTION-RB-SJ-PRS
100
AcDbLine
 10
2.530236284451611
 20
1.733647611056476
 30
0.0
 11
2.520567643173936
 21
1.743152305917383
 31
0.0
  0
LINE
  5
12A3
330
C95
100
AcDbEntity
  8
OPTION-RB-SJ-PRS
100
AcDbLine
 10
2.496363153163676
 20
1.725880049231103
 30
0.0
 11
2.483023863332265
 21
1.738613226549021
 31
0.0
  0
LINE
  5
12A4
330
C95
100
AcDbEntity
  8
OPTION-RB-SJ-PRS
100
AcDbLine
 10
2.56378182780434
 20
1.77976207789618
 30
0.0
 11
2.571123429721724
 21
1.7733053457497
 31
0.0
  0
LINE
  5
12A5
330
C95
100
AcDbEntity
  8
OPTION-RB-SJ-PRS
100
AcDbLine
 10
2.640491653008962
 20
1.68876173339228
 30
0.0
 11
2.628151447224473
 21
1.698614255336278
 31
0.0
  0
LINE
  5
12A6
330
C95
100
AcDbEntity
  8
OPTION-RB-SJ-PRS
100
AcDbLine
 10
2.63036396746736
 20
1.684648381205591
 30
0.0
 11
2.628577734952011
 21
1.691727682799752
 31
0.0
  0
LINE
  5
12A7
330
C95
100
AcDbEntity
  8
OPTION-RB-SJ-PRS
100
AcDbLine
 10
2.491234337895195
 20
1.81001381512971
 30
0.0
 11
2.489267854444165
 21
1.815749471506792
 31
0.0
  0
LINE
  5
12A8
330
C95
100
AcDbEntity
  8
OPTION-RB-SJ-PRS
100
AcDbLine
 10
2.568878323393685
 20
1.766766850995606
 30
0.0
 11
2.56378182780434
 21
1.77976207789618
 31
0.0
  0
LINE
  5
12A9
330
C95
100
AcDbEntity
  8
OPTION-RB-SJ-PRS
100
AcDbLine
 10
2.541527328219495
 20
1.736236798324731
 30
0.0
 11
2.538397334111174
 21
1.74349650324923
 31
0.0
  0
LINE
  5
12AA
330
C95
100
AcDbEntity
  8
OPTION-RB-SJ-PRS
100
AcDbLine
 10
2.572925966760863
 20
1.786743025547534
 30
0.0
 11
2.561208981114977
 21
1.811570371821741
 31
0.0
  0
LINE
  5
12AB
330
C95
100
AcDbEntity
  8
OPTION-RB-SJ-PRS
100
AcDbLine
 10
2.571123277290726
 20
1.773305229378675
 30
0.0
 11
2.560389515327071
 21
1.795264613102108
 31
0.0
  0
LINE
  5
12AC
330
C95
100
AcDbEntity
  8
OPTION-RB-SJ-PRS
100
AcDbLine
 10
2.497150128816335
 20
1.81332409621308
 30
0.0
 11
2.494331486634799
 21
1.817806107439742
 31
0.0
  0
LINE
  5
12AD
330
C95
100
AcDbEntity
  8
OPTION-RB-SJ-PRS
100
AcDbLine
 10
2.56120924988065
 20
1.811570335766647
 30
0.0
 11
2.572582056261027
 21
1.804572814825816
 31
0.0
  0
LINE
  5
12AE
330
C95
100
AcDbEntity
  8
OPTION-RB-SJ-PRS
100
AcDbLine
 10
2.615989765856385
 20
1.771360508622172
 30
0.0
 11
2.59416502879306
 21
1.740324418562676
 31
0.0
  0
LINE
  5
12AF
330
C95
100
AcDbEntity
  8
OPTION-RB-SJ-PRS
100
AcDbLine
 10
2.501099705052117
 20
1.822369997618438
 30
0.0
 11
2.490726462969212
 21
1.847016806161295
 31
0.0
  0
LINE
  5
12B0
330
C95
100
AcDbEntity
  8
OPTION-RB-SJ-PRS
100
AcDbLine
 10
2.490726328604551
 20
1.847016824186403
 30
0.0
 11
2.52956449918456
 21
1.78982420700805
 31
0.0
  0
LINE
  5
12B1
330
C95
100
AcDbEntity
  8
OPTION-RB-SJ-PRS
100
AcDbLine
 10
2.561422450724065
 20
1.853948445264578
 30
0.0
 11
2.614508076002812
 21
1.795362333958634
 31
0.0
  0
LINE
  5
12B2
330
C95
100
AcDbEntity
  8
OPTION-RB-SJ-PRS
100
AcDbLine
 10
2.574384727701183
 20
1.818010476593669
 30
0.0
 11
2.56142233438939
 21
1.853948597690698
 31
0.0
  0
LINE
  5
12B3
330
C95
100
AcDbEntity
  8
OPTION-RB-SJ-PRS
100
AcDbLine
 10
2.516389137739936
 20
1.783383913786377
 30
0.0
 11
2.448593928078917
 21
1.818469980671294
 31
0.0
  0
LINE
  5
12B4
330
C95
100
AcDbEntity
  8
OPTION-RB-SJ-PRS
100
AcDbLine
 10
2.448594062443583
 20
1.818469962646182
 30
0.0
 11
2.482991391242743
 21
1.809751649191761
 31
0.0
  0
LINE
  5
12B5
330
C95
100
AcDbEntity
  8
OPTION-RB-SJ-PRS
100
AcDbLine
 10
2.447365043212212
 20
1.794011642487194
 30
0.0
 11
2.480959533634374
 21
1.789504918811844
 31
0.0
  0
LINE
  5
12B6
330
C95
100
AcDbEntity
  8
OPTION-RB-SJ-PRS
100
AcDbLine
 10
2.456951243772556
 20
1.738006997680233
 30
0.0
 11
2.53449353288921
 21
1.68680602902208
 31
0.0
  0
LINE
  5
12B7
330
C95
100
AcDbEntity
  8
OPTION-RB-SJ-PRS
100
AcDbLine
 10
2.456951243772556
 20
1.738006997680233
 30
0.0
 11
2.496363287528343
 21
1.725880031205991
 31
0.0
  0
LINE
  5
12B8
330
C95
100
AcDbEntity
  8
OPTION-RB-SJ-PRS
100
AcDbLine
 10
2.418702740504592
 20
1.692523436102905
 30
0.0
 11
2.480959479533549
 21
1.789504515665769
 31
0.0
  0
LINE
  5
12B9
330
C95
100
AcDbEntity
  8
OPTION-RB-SJ-PRS
100
AcDbLine
 10
2.029006804324443
 20
1.744801547032632
 30
0.0
 11
2.066215793110514
 21
1.739809935950256
 31
0.0
  0
LINE
  5
12BA
330
C95
100
AcDbEntity
  8
OPTION-RB-SJ-PRS
100
AcDbLine
 10
2.029006804324443
 20
1.744801547032632
 30
0.0
 11
2.115124006513404
 21
1.87688482500678
 31
0.0
  0
LINE
  5
12BB
330
C95
100
AcDbEntity
  8
OPTION-RB-SJ-PRS
100
AcDbLine
 10
2.135929862440182
 20
1.846734448954898
 30
0.0
 11
2.150488236425286
 21
1.844781433229189
 31
0.0
  0
LINE
  5
12BC
330
C95
100
AcDbEntity
  8
OPTION-RB-SJ-PRS
100
AcDbLine
 10
2.115124006513404
 20
1.87688482500678
 30
0.0
 11
2.175594223601611
 21
1.868772704370917
 31
0.0
  0
LINE
  5
12BD
330
C95
100
AcDbEntity
  8
OPTION-RB-SJ-PRS
100
AcDbLine
 10
2.317919269310808
 20
1.706043607119203
 30
0.0
 11
2.380176044394864
 21
1.803024955447745
 31
0.0
  0
LINE
  5
12BE
330
C95
100
AcDbEntity
  8
OPTION-RB-SJ-PRS
100
AcDbLine
 10
2.297762727504247
 20
1.708747757674827
 30
0.0
 11
2.360019502588299
 21
1.805729106003366
 31
0.0
  0
LINE
  5
12BF
330
C95
100
AcDbEntity
  8
OPTION-RB-SJ-PRS
100
AcDbLine
 10
2.317919421736927
 20
1.70604372345388
 30
0.0
 11
2.351513912143351
 21
1.701536999799144
 31
0.0
  0
LINE
  5
12C0
330
C95
100
AcDbEntity
  8
OPTION-RB-SJ-PRS
100
AcDbLine
 10
2.145915881632345
 20
1.729117978236303
 30
0.0
 11
2.237063748022158
 21
1.822223293487016
 31
0.0
  0
LINE
  5
12C1
330
C95
100
AcDbEntity
  8
OPTION-RB-SJ-PRS
100
AcDbLine
 10
2.283424297165436
 20
1.816004131158488
 30
0.0
 11
2.256105792085279
 21
1.714335790193804
 31
0.0
  0
LINE
  5
12C2
330
C95
100
AcDbEntity
  8
OPTION-RB-SJ-PRS
100
AcDbLine
 10
2.182869704705091
 20
1.724160734608685
 30
0.0
 11
2.145915765277059
 21
1.729118130646686
 31
0.0
  0
LINE
  5
12C3
330
C95
100
AcDbEntity
  8
OPTION-RB-SJ-PRS
100
AcDbLine
 10
2.25610582814037
 20
1.714336058959474
 30
0.0
 11
2.222511337754562
 21
1.718842782629946
 31
0.0
  0
LINE
  5
12C4
330
C95
100
AcDbEntity
  8
OPTION-RB-SJ-PRS
100
AcDbLine
 10
2.227720510375034
 20
1.734559522399458
 30
0.0
 11
2.197074675579764
 21
1.738670681922559
 31
0.0
  0
LINE
  5
12C5
330
C95
100
AcDbEntity
  8
OPTION-RB-SJ-PRS
100
AcDbLine
 10
2.218381912306368
 20
1.760435495605158
 30
0.0
 11
2.235534587218339
 21
1.758134452613544
 31
0.0
  0
LINE
  5
12C6
330
C95
100
AcDbEntity
  8
OPTION-RB-SJ-PRS
100
AcDbLine
 10
2.182869821060382
 20
1.724160582198291
 30
0.0
 11
2.197074639524659
 21
1.738670413156884
 31
0.0
  0
LINE
  5
12C7
330
C95
100
AcDbEntity
  8
OPTION-RB-SJ-PRS
100
AcDbLine
 10
2.227720608705213
 20
1.734559235624408
 30
0.0
 11
2.222511319729449
 21
1.718842648265284
 31
0.0
  0
LINE
  5
12C8
330
C95
100
AcDbEntity
  8
OPTION-RB-SJ-PRS
100
AcDbLine
 10
2.132644614391145
 20
1.782880914792436
 30
0.0
 11
2.140575988206787
 21
1.729834465343834
 31
0.0
  0
LINE
  5
12C9
330
C95
100
AcDbEntity
  8
OPTION-RB-SJ-PRS
100
AcDbLine
 10
2.218381894276373
 20
1.760435361204149
 30
0.0
 11
2.245467441293791
 21
1.788102584321149
 31
0.0
  0
LINE
  5
12CA
330
C95
100
AcDbEntity
  8
OPTION-RB-SJ-PRS
100
AcDbLine
 10
2.245467575679064
 20
1.788102566311766
 30
0.0
 11
2.235534569172615
 21
1.758134318233149
 31
0.0
  0
LINE
  5
12CB
330
C95
100
AcDbEntity
  8
OPTION-RB-SJ-PRS
100
AcDbLine
 10
2.237063936467031
 20
1.82222367859224
 30
0.0
 11
2.283424198855865
 21
1.816004417949275
 31
0.0
  0
LINE
  5
12CC
330
C95
100
AcDbEntity
  8
OPTION-RB-SJ-PRS
100
AcDbLine
 10
2.115425711205505
 20
1.815286024326961
 30
0.0
 11
2.135231275842724
 21
1.812629094397901
 31
0.0
  0
LINE
  5
12CD
330
C95
100
AcDbEntity
  8
OPTION-RB-SJ-PRS
100
AcDbLine
 10
2.264168237097824
 20
1.713254481329564
 30
0.0
 11
2.32642485975576
 21
1.810235713323426
 31
0.0
  0
LINE
  5
12CE
330
C95
100
AcDbEntity
  8
OPTION-RB-SJ-PRS
100
AcDbLine
 10
2.264168237097824
 20
1.713254481329564
 30
0.0
 11
2.297762727504247
 21
1.708747757674827
 31
0.0
  0
LINE
  5
12CF
330
C95
100
AcDbEntity
  8
OPTION-RB-SJ-PRS
100
AcDbLine
 10
2.066215793110514
 20
1.739809935950256
 30
0.0
 11
2.097612238857563
 21
1.787964655679815
 31
0.0
  0
LINE
  5
12D0
330
C95
100
AcDbEntity
  8
OPTION-RB-SJ-PRS
100
AcDbLine
 10
2.097612238857563
 20
1.787964655679815
 30
0.0
 11
2.105602242421547
 21
1.734526217061611
 31
0.0
  0
LINE
  5
12D1
330
C95
100
AcDbEntity
  8
OPTION-RB-SJ-PRS
100
AcDbLine
 10
2.105602376786208
 20
1.7345261990365
 30
0.0
 11
2.140575988206787
 21
1.729834465343834
 31
0.0
  0
LWPOLYLINE
  5
12D2
330
C95
100
AcDbEntity
  8
OPTION-RB-SJ-PRS
100
AcDbPolyline
 90
       92
 70
     0
 43
0.0
 10
2.132644614391145
 20
1.782880914792438
 10
2.134452930006292
 20
1.782808336548508
 10
2.136265710167872
 20
1.782783884526955
 10
2.138081190302338
 20
1.782807887516821
 10
2.139897605784089
 20
1.782880674332608
 10
2.141713191962007
 20
1.783002573736765
 10
2.143526184246836
 20
1.783173914538912
 10
2.145334818008074
 20
1.783395025517228
 10
2.146934465934031
 20
1.783633141688894
 10
2.148528061046135
 20
1.783910926509141
 10
2.150114370834258
 20
1.7842286095491
 10
2.151692162771444
 20
1.784586420530158
 10
2.153260204352455
 20
1.784984589059786
 10
2.15481726304544
 20
1.785423344823038
 10
2.156362106288204
 20
1.785902917416513
 10
2.157893501590139
 20
1.786423536556735
 10
2.159410216425391
 20
1.786985431835444
 10
2.160911018225768
 20
1.787588832942543
 10
2.162394674522386
 20
1.788233969480653
 10
2.16385995276766
 20
1.788921071155402
 10
2.165305620404271
 20
1.789650367599766
 10
2.166654129679977
 20
1.790379198719821
 10
2.167983161784603
 20
1.791145296422736
 10
2.169291893385059
 20
1.791947959009337
 10
2.170579501143402
 20
1.792786484744111
 10
2.171845161705926
 20
1.793660171912137
 10
2.173088051755286
 20
1.794568318793619
 10
2.174307347932921
 20
1.795510223637323
 10
2.175502226905749
 20
1.796485184744054
 10
2.176671865356408
 20
1.797492500394031
 10
2.177815439910608
 20
1.798531468856608
 10
2.17893212725588
 20
1.799601388448333
 10
2.18002110404938
 20
1.800701557397355
 10
2.181081546921697
 20
1.801831274009358
 10
2.1821126325712
 20
1.802989836543951
 10
2.183113537649077
 20
1.80417654332257
 10
2.18408343881251
 20
1.805390692573339
 10
2.185021512728394
 20
1.806631582597094
 10
2.185926936043062
 20
1.807898511678907
 10
2.186798885418531
 20
1.809190778083265
 10
2.187636537537473
 20
1.810507680090384
 10
2.18843906904618
 20
1.811848515985347
 10
2.189205656611576
 20
1.813212584068973
 10
2.189935476890843
 20
1.814599182569401
 10
2.19062770655575
 20
1.816007609823796
 10
2.191210747655847
 20
1.817277240973578
 10
2.191762366250604
 20
1.818562287990178
 10
2.19228149490177
 20
1.81986147200418
 10
2.192767066123908
 20
1.821173514207999
 10
2.193218012453297
 20
1.822497135680133
 10
2.193633266440822
 20
1.823831057608116
 10
2.194011760627662
 20
1.825174001106787
 10
2.19435242753919
 20
1.826524687311617
 10
2.194654199705727
 20
1.82788183739439
 10
2.194916009684144
 20
1.82924417244935
 10
2.195136790020467
 20
1.830610413627687
 10
2.195315473244987
 20
1.831979282101202
 10
2.195450991878249
 20
1.833349498969002
 10
2.195542278471137
 20
1.834719785418625
 10
2.195588265580561
 20
1.836088862544301
 10
2.195587885716174
 20
1.8374554515021
 10
2.195540071439747
 20
1.838818273422611
 10
2.195443755260965
 20
1.840176049461878
 10
2.195297869762187
 20
1.84152750076623
 10
2.195101347427609
 20
1.842871348439657
 10
2.194853120844478
 20
1.84420631366481
 10
2.194552122517604
 20
1.845531117561409
 10
2.194228131496964
 20
1.846739230357539
 10
2.193859550104987
 20
1.847936170143039
 10
2.193447315923767
 20
1.849120438022407
 10
2.192992366462712
 20
1.850290535109903
 10
2.192495639360865
 20
1.85144496252088
 10
2.191958072111887
 20
1.852582221390218
 10
2.19138060235485
 20
1.85370081283328
 10
2.190764167599144
 20
1.854799237964305
 10
2.190109705426865
 20
1.855875997887815
 10
2.189418153424984
 20
1.856929593744649
 10
2.188690449123515
 20
1.857958526664796
 10
2.187927530140887
 20
1.858961297747893
 10
2.187130333970789
 20
1.8599364081288
 10
2.186299798231649
 20
1.860882358907146
 10
2.1854621898323
 20
1.861771700293171
 10
2.184594879984574
 20
1.862630752987601
 10
2.183698727470781
 20
1.863458144045192
 10
2.182774591025993
 20
1.864252500582554
 10
2.18182332946884
 20
1.865012449649598
 10
2.180845801534388
 20
1.86573661836292
 10
2.179842866025546
 20
1.866423633793035
 10
2.178815381708869
 20
1.867072123015335
 10
2.177764207335151
 20
1.867680713125811
 10
2.17669020171218
 20
1.868248031231327
 10
2.175594223601611
 20
1.868772704370921
  0
LWPOLYLINE
  5
12D3
330
C95
100
AcDbEntity
  8
OPTION-RB-SJ-PRS
100
AcDbPolyline
 90
       94
 70
     0
 43
0.0
 10
2.135231275842724
 20
1.812629094397901
 10
2.135978871385481
 20
1.812694540313423
 10
2.13672688797059
 20
1.812777944740198
 10
2.137474639730772
 20
1.812879343172864
 10
2.138221440835065
 20
1.812998771101198
 10
2.138966605406426
 20
1.813136263947151
 10
2.139709447634522
 20
1.813291857216236
 10
2.140449281652043
 20
1.8134655864031
 10
2.14118542160258
 20
1.813657486945417
 10
2.1419171816709
 20
1.813867594312372
 10
2.142643875989699
 20
1.814095943998599
 10
2.143364818686825
 20
1.814342571462407
 10
2.144002229343991
 20
1.814577916383186
 10
2.144634035969104
 20
1.814827845775744
 10
2.145259752390588
 20
1.815092384772655
 10
2.145878892416274
 20
1.815371558490775
 10
2.146490969884357
 20
1.815665392135357
 10
2.147095498634114
 20
1.815973910782031
 10
2.14769199248313
 20
1.81629713962033
 10
2.14827996526471
 20
1.816635103819177
 10
2.148858930797536
 20
1.816987828438459
 10
2.149428402924669
 20
1.81735533871979
 10
2.149987895449071
 20
1.817737659743664
 10
2.150536922219765
 20
1.818134816658399
 10
2.151074997033726
 20
1.81854683463779
 10
2.15160163379208
 20
1.818973738804664
 10
2.152116346234829
 20
1.819415554321961
 10
2.152618648226765
 20
1.819872306317383
 10
2.1530282434688
 20
1.820265197351964
 10
2.153428342475531
 20
1.820668381464597
 10
2.153818444054086
 20
1.821081716517224
 10
2.154198046855344
 20
1.821505060448239
 10
2.154566649665833
 20
1.821938271103848
 10
2.154923751183631
 20
1.822381206360604
 10
2.155268850111718
 20
1.822833724131419
 10
2.155601445205133
 20
1.823295682303718
 10
2.155921035177705
 20
1.823766938733451
 10
2.156227118753009
 20
1.824247351349268
 10
2.15651919464488
 20
1.824736778007102
 10
2.156796761628959
 20
1.825235076610135
 10
2.157059318382736
 20
1.825742105019183
 10
2.157306363645532
 20
1.826257721142272
 10
2.157537396115422
 20
1.826781782855978
 10
2.157751914568072
 20
1.827314148063455
 10
2.157949417701579
 20
1.827854674641254
 10
2.158129404234637
 20
1.82840322048169
 10
2.158291372901691
 20
1.82895964345644
 10
2.158434822457766
 20
1.829523801452926
 10
2.158559251548907
 20
1.830095552373205
 10
2.158664158982212
 20
1.830674754079207
 10
2.158730398418581
 20
1.831118658418604
 10
2.158785037125497
 20
1.831566103555979
 10
2.158827983603011
 20
1.832016429210884
 10
2.158859146376698
 20
1.832468975154911
 10
2.158878433894512
 20
1.832923081133077
 10
2.158885754682008
 20
1.833378086916986
 10
2.15888101725498
 20
1.833833332205561
 10
2.15886413005055
 20
1.834288156800769
 10
2.158835001641462
 20
1.834741900412381
 10
2.158793540459977
 20
1.835193902806021
 10
2.158739655026762
 20
1.835643503716963
 10
2.158673253846741
 20
1.836090042901058
 10
2.158594245409127
 20
1.836532860134806
 10
2.158502538177632
 20
1.836971295142608
 10
2.158398040709267
 20
1.837404687654836
 10
2.158280661456899
 20
1.837832377452861
 10
2.158150308941202
 20
1.838253704271944
 10
2.158006891646487
 20
1.838668007852221
 10
2.157850318061958
 20
1.839074627970176
 10
2.157680496708288
 20
1.839472904361056
 10
2.157497336049202
 20
1.839862176749295
 10
2.157300744594501
 20
1.840241784927083
 10
2.157090630859985
 20
1.84061106859334
 10
2.156866903298512
 20
1.840969367529434
 10
2.156629470435621
 20
1.841316021506972
 10
2.156378240787118
 20
1.841650370224859
 10
2.156113122805844
 20
1.841971753464467
 10
2.15583402502822
 20
1.842279510940438
 10
2.155581341170952
 20
1.84253414222447
 10
2.15531807633521
 20
1.842777664290744
 10
2.155044171395907
 20
1.843009650192814
 10
2.154759567185664
 20
1.843229673082395
 10
2.154464204522449
 20
1.843437306002189
 10
2.154158024249725
 20
1.843632122046966
 10
2.153840967190335
 20
1.843813694295751
 10
2.15351297420835
 20
1.843981595859061
 10
2.153173986101142
 20
1.844135399763852
 10
2.15282394372192
 20
1.844274679177583
 10
2.152462787924999
 20
1.844399007138068
 10
2.152090459496883
 20
1.844507956729217
 10
2.151706899301656
 20
1.844601101061534
 10
2.151312048177887
 20
1.844678013193454
 10
2.150905846932704
 20
1.844738266224617
 10
2.15048823642529
 20
1.844781433229189
  0
LINE
  5
12D4
330
C95
100
AcDbEntity
  8
OPTION-RB-SJ-PRS
100
AcDbLine
 10
2.115425594850223
 20
1.815286176737347
 30
0.0
 11
2.135929728075517
 21
1.846734466980008
 31
0.0
  0
LINE
  5
12D5
330
C95
100
AcDbEntity
  8
OPTION-RB-SJ-PRS
100
AcDbLine
 10
2.32642485975576
 20
1.810235713323426
 30
0.0
 11
2.360019350162183
 21
1.805728989668689
 31
0.0
  0
LINE
  5
12D6
330
C95
100
AcDbEntity
  8
OPTION-RB-SJ-PRS
100
AcDbLine
 10
2.385108250098169
 20
1.697030159757642
 30
0.0
 11
2.418702740504592
 21
1.692523436102905
 31
0.0
  0
LINE
  5
12D7
330
C95
100
AcDbEntity
  8
OPTION-RB-SJ-PRS
100
AcDbLine
 10
2.380176044394864
 20
1.803024955447745
 30
0.0
 11
2.413770534801287
 21
1.798518231793008
 31
0.0
  0
LINE
  5
12D8
330
C95
100
AcDbEntity
  8
OPTION-RB-SJ-PRS
100
AcDbLine
 10
2.38385521205687
 20
1.75191676837803
 30
0.0
 11
2.385108500859331
 21
1.697029989353628
 31
0.0
  0
LINE
  5
12D9
330
C95
100
AcDbEntity
  8
OPTION-RB-SJ-PRS
100
AcDbLine
 10
2.351513876056779
 20
1.701536731074694
 30
0.0
 11
2.383855059667091
 21
1.751916652038473
 31
0.0
  0
LINE
  5
12DA
330
C95
100
AcDbEntity
  8
OPTION-RB-SJ-PRS
100
AcDbLine
 10
2.413770534801287
 20
1.798518231793008
 30
0.0
 11
2.417449550052907
 21
1.747409928368003
 31
0.0
  0
LINE
  5
12DB
330
C95
100
AcDbEntity
  8
OPTION-RB-SJ-PRS
100
AcDbLine
 10
2.417449550052907
 20
1.747409928368003
 30
0.0
 11
2.44736512349667
 21
1.794011221331749
 31
0.0
  0
LINE
  5
12DC
330
C95
100
AcDbEntity
  8
OPTION-RB-SJ-PRS
100
AcDbLine
 10
1.467416375077969
 20
1.8937916888194
 30
0.0
 11
1.467416375077969
 21
1.984723159481837
 31
0.0
  0
LINE
  5
12DD
330
C95
100
AcDbEntity
  8
OPTION-RB-SJ-PRS
100
AcDbLine
 10
1.122552957737616
 20
1.8937916888194
 30
0.0
 11
1.122552957737616
 21
1.984723159481837
 31
0.0
  0
LINE
  5
12DE
330
C95
100
AcDbEntity
  8
OPTION-RB-SJ-PRS
100
AcDbLine
 10
1.467416375077969
 20
1.8937916888194
 30
0.0
 11
1.122552957737616
 21
1.8937916888194
 31
0.0
  0
LINE
  5
12DF
330
C95
100
AcDbEntity
  8
OPTION-RB-SJ-PRS
100
AcDbLine
 10
1.386635419674015
 20
1.684118984920124
 30
0.0
 11
1.475046569017396
 21
1.684142530916374
 31
0.0
  0
ARC
  5
12E0
330
C95
100
AcDbEntity
  8
OPTION-RB-SJ-PRS
100
AcDbCircle
 10
1.294984666407793
 20
1.8937916888194
 30
0.0
 40
0.1800263068972566
100
AcDbArc
 50
163.2982969753234
 51
16.51342197939964
  0
ARC
  5
12E1
330
C95
100
AcDbEntity
  8
OPTION-RB-SJ-PRS
100
AcDbCircle
 10
1.294984666407793
 20
1.8937916888194
 30
0.0
 40
0.2265501638550141
100
AcDbArc
 50
151.7581643612118
 51
28.24183563878837
  0
ARC
  5
12E2
330
C95
100
AcDbEntity
  8
OPTION-RB-SJ-PRS
100
AcDbCircle
 10
1.294984666407793
 20
1.8937916888194
 30
0.0
 40
0.2288285457164381
100
AcDbArc
 50
151.5569566351665
 51
28.44304336483373
  0
ARC
  5
12E3
330
C95
100
AcDbEntity
  8
OPTION-RB-SJ-PRS
100
AcDbCircle
 10
1.294984666407793
 20
1.8937916888194
 30
0.0
 40
0.1724317086701772
100
AcDbArc
 50
179.9999999999991
 51
359.9999999999996
  0
LWPOLYLINE
  5
12E4
330
C95
100
AcDbEntity
  8
OPTION-RB-SJ-PRS
100
AcDbPolyline
 90
       29
 70
     0
 43
0.0
 10
0.4305399025746775
 20
1.376629282050532
 10
0.4186332182049693
 20
1.378494005123775
 10
0.4070919571539036
 20
1.384197571241332
 10
0.3969278464749639
 20
1.393240287331102
 10
0.3882651848174234
 20
1.405511639137023
 10
0.3818620843744023
 20
1.41993648872788
 10
0.3777970398676003
 20
1.436338417495576
 10
0.376426706925135
 20
1.453280557078769
 10
0.3777158472722346
 20
1.470228910645119
 10
0.3817022558844547
 20
1.486650285956641
 10
0.3880361674044404
 20
1.501105492629316
 10
0.3966399321793077
 20
1.513418210217762
 10
0.4067605985542972
 20
1.522509523207363
 10
0.4182743988292068
 20
1.528268323111485
 10
0.4301720118134616
 20
1.530190074964717
 10
0.4420780665372631
 20
1.528325350359566
 10
0.4536193276117733
 20
1.522621784242068
 10
0.4637834382906492
 20
1.513579068175743
 10
0.4724467295473214
 20
1.501307717854728
 10
0.4788498296132488
 20
1.486883025669501
 10
0.4829142448980728
 20
1.470480937987823
 10
0.4842845774634382
 20
1.45353895581026
 10
0.4829954374934353
 20
1.436590444838276
 10
0.4790096581031933
 20
1.420169228440742
 10
0.4726757469603076
 20
1.405713864362437
 10
0.4640713525863055
 20
1.393401145289085
 10
0.4539506862113792
 20
1.384309832276033
 10
0.4424368859130253
 20
1.378551032371855
 10
0.4305399025746775
 20
1.376629282050532
  0
LWPOLYLINE
  5
12E5
330
C95
100
AcDbEntity
  8
OPTION-RB-SJ-PRS
100
AcDbPolyline
 90
       26
 70
     0
 43
0.0
 10
0.4301717537232113
 20
1.530190090148011
 10
0.4234623681641433
 20
1.530779457454857
 10
0.4168558929675028
 20
1.532570405495135
 10
0.4104565164464751
 20
1.535534689894318
 10
0.4043651608553885
 20
1.539625561989937
 10
0.3986778907328903
 20
1.54477850614669
 10
0.3934843979646401
 20
1.550912257112634
 10
0.3888665872350749
 20
1.557930081741857
 10
0.3848972844009504
 20
1.565721304483067
 10
0.381639087841942
 20
1.574163052768629
 10
0.3791433814222236
 20
1.583122194871822
 10
0.3774495240006053
 20
1.592457439368101
 10
0.3765842288372307
 20
1.602021563550786
 10
0.3765611421491435
 20
1.611663735070357
 10
0.3773806280282965
 20
1.621231890710132
 10
0.3790297626727184
 20
1.630575134583124
 10
0.3814825381622446
 20
1.63954611779397
 10
0.3847002726801028
 20
1.648003362187897
 10
0.3886322205157373
 20
1.655813491644253
 10
0.3932163723215822
 20
1.662853335467038
 10
0.3983804330899292
 20
1.669011870785689
 10
0.4040429623319506
 20
1.674191973615099
 10
0.4101146583099988
 20
1.678311950398046
 10
0.416499766545477
 20
1.681306826514625
 10
0.4230975897939951
 20
1.683129370814973
 10
0.4310304449953176
 20
1.683864484539584
  0
LINE
  5
12E6
330
C95
100
AcDbEntity
  8
OPTION-RB-SJ-PRS
100
AcDbLine
 10
0.4310304449953206
 20
1.683864484539584
 30
0.0
 11
1.203445607811656
 21
1.684070197107097
 31
0.0
  0
LINE
  5
12E7
330
C95
100
AcDbEntity
  8
OPTION-RB-SJ-PRS
100
AcDbLine
 10
0.4305399025746793
 20
1.376629282050534
 30
0.0
 11
1.456813414153878
 21
1.376968378619875
 31
0.0
  0
TEXT
  5
12E8
330
C95
100
AcDbEntity
  8
TEXT-RB-SJ-PRS-LEADERS
100
AcDbText
 10
5.14145639
 20
0.3419101574045582
 30
0.0
 40
0.125
  1
LATERAL PIPE
  7
ROMANS
100
AcDbText
  0
TEXT
  5
12E9
330
C95
100
AcDbEntity
  8
TEXT-RB-SJ-PRS-BUBBLES
100
AcDbText
 10
4.856781200177398
 20
4.317717177619826
 30
0.0
 40
0.125
  1
5
  7
ROMANS
 72
     4
 11
4.916305009701207
 21
4.380217177619826
 31
0.0
100
AcDbText
  0
CIRCLE
  5
12EA
330
C95
100
AcDbEntity
  8
TEXT-RB-SJ-PRS-BUBBLES
100
AcDbCircle
 10
4.916305009701207
 20
4.380217177619826
 30
0.0
 40
0.15625
  0
TEXT
  5
12EB
330
C95
100
AcDbEntity
  8
TEXT-RB-SJ-PRS-BUBBLES
100
AcDbText
 10
4.856781200177398
 20
5.344087678013838
 30
0.0
 40
0.125
  1
3
  7
ROMANS
 72
     4
 11
4.916305009701207
 21
5.406587678013838
 31
0.0
100
AcDbText
  0
TEXT
  5
12EC
330
C95
100
AcDbEntity
  8
TEXT-RB-SJ-PRS-BUBBLES
100
AcDbText
 10
4.853805009701207
 20
4.678601187839866
 30
0.0
 40
0.125
  1
4
  7
ROMANS
 72
     4
 11
4.916305009701207
 21
4.741101187839866
 31
0.0
100
AcDbText
  0
CIRCLE
  5
12ED
330
C95
100
AcDbEntity
  8
TEXT-RB-SJ-PRS-BUBBLES
100
AcDbCircle
 10
4.916305009701207
 20
4.741101187839866
 30
0.0
 40
0.15625
  0
CIRCLE
  5
12EE
330
C95
100
AcDbEntity
  8
TEXT-RB-SJ-PRS-BUBBLES
100
AcDbCircle
 10
4.916305009701207
 20
5.406587678013838
 30
0.0
 40
0.15625
  0
TEXT
  5
12EF
330
C95
100
AcDbEntity
  8
TEXT-RB-SJ-PRS-LEADERS
100
AcDbText
 10
5.14145639
 20
0.6919101574045597
 30
0.0
 40
0.125
  1
PVC SCH 40 TEE OR ELL
  7
ROMANS
100
AcDbText
  0
TEXT
  5
12F0
330
C95
100
AcDbEntity
  8
TEXT-RB-SJ-PRS-LEADERS
100
AcDbText
 10
5.14145639
 20
3.623996391074661
 30
0.0
 40
0.125
  1
  RAIN BIRD TSJ-075-PRS
  7
ROMANS
100
AcDbText
  0
TEXT
  5
12F1
330
C95
100
AcDbEntity
  8
TEXT-RB-SJ-PRS-LEADERS
100
AcDbText
 10
5.14145639
 20
3.798996391074658
 30
0.0
 40
0.125
  1
PRE-FABRICATED SWING JOINT:
  7
ROMANS
100
AcDbText
  0
LWPOLYLINE
  5
12F2
330
C95
100
AcDbEntity
  8
OPTION-RB-SJ-PRS
100
AcDbPolyline
 90
        4
 70
     0
 43
0.0
 10
4.229036324178668
 20
1.740916691039271
 10
4.230095662115168
 20
1.741470104072964
 10
4.231015731554528
 20
1.741639355390735
 10
4.231712204279356
 20
1.741408932435118
  0
ARC
  5
12F3
330
C95
100
AcDbEntity
  8
OPTION-RB-SJ-PRS
100
AcDbCircle
 10
4.200351797881223
 20
1.700106421137363
 30
0.0
 40
0.051859160502309
100
AcDbArc
 50
52.79111695833716
 51
112.7911169583372
  0
LWPOLYLINE
  5
12F4
330
C95
100
AcDbEntity
  8
OPTION-RB-SJ-PRS
100
AcDbPolyline
 90
       10
 70
     0
 43
0.0
 10
4.182732019690194
 20
1.746773578698912
 10
4.190090165846619
 20
1.749169464004075
 10
4.197204198692363
 20
1.750278032071146
 10
4.203812586626112
 20
1.750321065794417
 10
4.209725623574158
 20
1.749558538692594
 10
4.214872042685277
 20
1.748249489867757
 10
4.219298825265205
 20
1.746600286631735
 10
4.223085268958437
 20
1.744760157626957
 10
4.226307538177017
 20
1.742838765285175
 10
4.229036324178668
 20
1.740916691039271
  0
ARC
  5
12F5
330
C95
100
AcDbEntity
  8
OPTION-RB-SJ-PRS
100
AcDbCircle
 10
4.297729610052856
 20
1.684771458008746
 30
0.0
 40
0.0051859160502309
100
AcDbArc
 50
352.7911169583368
 51
52.79111695833716
  0
ARC
  5
12F6
330
C95
100
AcDbEntity
  8
OPTION-RB-SJ-PRS
100
AcDbCircle
 10
4.306383172836833
 20
1.670537626069376
 30
0.0
 40
0.005185917217062
100
AcDbArc
 50
172.7956303121367
 51
227.9412123793367
  0
LINE
  5
12F7
330
C95
100
AcDbEntity
  8
OPTION-RB-SJ-PRS
100
AcDbLine
 10
4.300119755186132
 20
1.687885178343134
 30
0.0
 11
4.298189770606324
 21
1.688409467753792
 31
0.0
  0
LINE
  5
12F8
330
C95
100
AcDbEntity
  8
OPTION-RB-SJ-PRS
100
AcDbLine
 10
4.279476366184608
 20
1.68687922483321
 30
0.0
 11
4.296478550123939
 21
1.674880631326765
 31
0.0
  0
LWPOLYLINE
  5
12F9
330
C95
100
AcDbEntity
  8
OPTION-RB-SJ-PRS
100
AcDbPolyline
 90
       10
 70
     0
 43
0.0
 10
4.296478550123943
 20
1.674880631326764
 10
4.297291225224343
 20
1.673657484503995
 10
4.298100458258753
 20
1.672556214017332
 10
4.298865012141927
 20
1.671641564989298
 10
4.299538801795804
 20
1.67096968304738
 10
4.300102940325309
 20
1.670552905773543
 10
4.300570179232497
 20
1.670382571645188
 10
4.300921809071033
 20
1.67046743497764
 10
4.301136846152456
 20
1.670766023864135
 10
4.301238706769234
 20
1.671187921882949
  0
LWPOLYLINE
  5
12FA
330
C95
100
AcDbEntity
  8
OPTION-RB-SJ-PRS
100
AcDbPolyline
 90
        4
 70
     0
 43
0.0
 10
4.298189770606324
 20
1.688409467753792
 10
4.299245217708303
 20
1.688961468803925
 10
4.300168318739794
 20
1.689132162188172
 10
4.300865650707011
 20
1.688901709149642
  0
LWPOLYLINE
  5
12FB
330
C95
100
AcDbEntity
  8
OPTION-RB-SJ-PRS
100
AcDbPolyline
 90
        4
 70
     0
 43
0.0
 10
4.296478551329565
 20
1.67488064085835
 10
4.295384852887195
 20
1.674342625528891
 10
4.294436359889507
 20
1.674194853882942
 10
4.293721708387
 20
1.674451134442354
  0
LWPOLYLINE
  5
12FC
330
C95
100
AcDbEntity
  8
OPTION-RB-SJ-PRS
100
AcDbPolyline
 90
        4
 70
     0
 43
0.0
 10
4.302874532802094
 20
1.684120692709655
 10
4.302659026494056
 20
1.685562361084454
 10
4.301691591830486
 20
1.686885051810832
 10
4.300119755186132
 20
1.687885178343136
  0
LINE
  5
12FD
330
C95
100
AcDbEntity
  8
OPTION-RB-SJ-PRS
100
AcDbLine
 10
4.296478550123939
 20
1.674880631326765
 30
0.0
 11
4.298189770606324
 21
1.688409467753792
 31
0.0
  0
LINE
  5
12FE
330
C95
100
AcDbEntity
  8
OPTION-RB-SJ-PRS
100
AcDbLine
 10
4.301238706769234
 20
1.671187921882951
 30
0.0
 11
4.302874532802093
 21
1.684120692709652
 31
0.0
  0
LINE
  5
12FF
330
C95
100
AcDbEntity
  8
OPTION-RB-SJ-PRS
100
AcDbLine
 10
4.297769443416386
 20
1.720395835681947
 30
0.0
 11
4.606092941076264
 21
1.721134496665022
 31
0.0
  0
ARC
  5
1300
330
C95
100
AcDbEntity
  8
OPTION-RB-SJ-PRS
100
AcDbCircle
 10
4.267130861468757
 20
1.360206198194021
 30
0.0
 40
0.0051859160761605
100
AcDbArc
 50
117.6414266247372
 51
172.7913370363373
  0
LINE
  5
1301
330
C95
100
AcDbEntity
  8
OPTION-RB-SJ-PRS
100
AcDbLine
 10
4.260350079665082
 20
1.347924176772765
 30
0.0
 11
4.261985905677446
 21
1.360856947583577
 31
0.0
  0
LWPOLYLINE
  5
1302
330
C95
100
AcDbEntity
  8
OPTION-RB-SJ-PRS
100
AcDbPolyline
 90
        3
 70
     0
 43
0.0
 10
4.260350079665082
 20
1.347924176772766
 10
4.259783841577901
 20
1.346583450271007
 10
4.258519081273915
 20
1.345543010972884
  0
LINE
  5
1303
330
C95
100
AcDbEntity
  8
OPTION-RB-SJ-PRS
100
AcDbLine
 10
4.298684079017323
 20
1.338990950894582
 30
0.0
 11
4.607008455233746
 21
1.338990950894582
 31
0.0
  0
ARC
  5
1304
330
C95
100
AcDbEntity
  8
OPTION-RB-SJ-PRS
100
AcDbCircle
 10
4.178713851802502
 20
1.529037740643842
 30
0.0
 40
0.1892859351073993
100
AcDbArc
 50
296.0217626079368
 51
49.56042180523715
  0
ARC
  5
1305
330
C95
100
AcDbEntity
  8
OPTION-RB-SJ-PRS
100
AcDbCircle
 10
4.178713851802502
 20
1.529037740643842
 30
0.0
 40
0.1918788938585431
100
AcDbArc
 50
295.5306107216368
 51
50.05156391983715
  0
ARC
  5
1306
330
C95
100
AcDbEntity
  8
OPTION-RB-SJ-PRS
100
AcDbCircle
 10
4.178713851802502
 20
1.529037740643842
 30
0.0
 40
0.1944718518836585
100
AcDbArc
 50
295.1108233003368
 51
50.4673926165372
  0
LINE
  5
1307
330
C95
100
AcDbEntity
  8
OPTION-RB-SJ-PRS
100
AcDbLine
 10
4.607008455233746
 20
1.338990950894582
 30
0.0
 11
4.606092941076264
 21
1.721134496665022
 31
0.0
  0
LWPOLYLINE
  5
1308
330
C95
100
AcDbEntity
  8
OPTION-RB-SJ-PRS
100
AcDbPolyline
 90
        6
 70
     0
 43
0.0
 10
4.256456216897028
 20
1.358465768728755
 10
4.236899719899113
 20
1.351045908752063
 10
4.218504474038633
 20
1.346195826499926
 10
4.200733297035911
 20
1.343316699701101
 10
4.182740228595184
 20
1.342126713297257
 10
4.164143307640012
 20
1.342686975746022
  0
LINE
  5
1309
330
C95
100
AcDbEntity
  8
OPTION-RB-SJ-PRS
100
AcDbLine
 10
4.254744996398757
 20
1.344936932322215
 30
0.0
 11
4.174695683914801
 21
1.311301902588765
 31
0.0
  0
LINE
  5
130A
330
C95
100
AcDbEntity
  8
OPTION-RB-SJ-PRS
100
AcDbLine
 10
4.257214039031421
 20
1.34379392564776
 30
0.0
 11
4.177164726547466
 21
1.31015889591431
 31
0.0
  0
LINE
  5
130B
330
C95
100
AcDbEntity
  8
OPTION-RB-SJ-PRS
100
AcDbLine
 10
4.256749051981442
 20
1.344964846572117
 30
0.0
 11
4.254744996398757
 21
1.344936932322215
 31
0.0
  0
LWPOLYLINE
  5
130C
330
C95
100
AcDbEntity
  8
OPTION-RB-SJ-PRS
100
AcDbPolyline
 90
        4
 70
     0
 43
0.0
 10
4.25645621687402
 20
1.358465768546852
 10
4.255530918441799
 20
1.359259174972435
 10
4.25464908389862
 20
1.359638470171389
 10
4.25389312038188
 20
1.359568209107615
  0
LWPOLYLINE
  5
130D
330
C95
100
AcDbEntity
  8
OPTION-RB-SJ-PRS
100
AcDbPolyline
 90
        4
 70
     0
 43
0.0
 10
4.254744996398757
 20
1.344936932322215
 10
4.255633177104538
 20
1.344137183722676
 10
4.256482127973177
 20
1.343744174502005
 10
4.257214039031421
 20
1.34379392564776
  0
LINE
  5
130E
330
C95
100
AcDbEntity
  8
OPTION-RB-SJ-PRS
100
AcDbLine
 10
4.254744996398757
 20
1.344936932322215
 30
0.0
 11
4.256456216897028
 21
1.358465768728755
 31
0.0
  0
ARC
  5
130F
330
C95
100
AcDbEntity
  8
OPTION-RB-SJ-PRS
100
AcDbCircle
 10
4.178713851802502
 20
1.529037740643842
 30
0.0
 40
0.2022507184134969
100
AcDbArc
 50
288.4492627736368
 51
57.71710095323705
  0
ARC
  5
1310
330
C95
100
AcDbEntity
  8
OPTION-RB-SJ-PRS
100
AcDbCircle
 10
4.178713851802502
 20
1.529037740643842
 30
0.0
 40
0.1853964987957545
100
AcDbArc
 50
262.7878588799369
 51
82.79111695833721
  0
ARC
  5
1311
330
C95
100
AcDbEntity
  8
OPTION-RB-SJ-PRS
100
AcDbCircle
 10
4.178713851802502
 20
1.529037740643842
 30
0.0
 40
0.2250687566318799
100
AcDbArc
 50
228.4309445955366
 51
117.2311848542371
  0
ARC
  5
1312
330
C95
100
AcDbEntity
  8
OPTION-RB-SJ-PRS
100
AcDbCircle
 10
4.178713851802502
 20
1.529037740643842
 30
0.0
 40
0.2289581936176939
100
AcDbArc
 50
226.9694111049367
 51
118.5622256057371
  0
ARC
  5
1313
330
C95
100
AcDbEntity
  8
OPTION-RB-SJ-PRS
100
AcDbCircle
 10
4.25520515695223
 20
1.348574942067261
 30
0.0
 40
0.0051859160502309
100
AcDbArc
 50
292.7911169583367
 51
352.7911169583368
  0
LINE
  5
1314
330
C95
100
AcDbEntity
  8
OPTION-RB-SJ-PRS
100
AcDbLine
 10
4.258519081273915
 20
1.345543010972884
 30
0.0
 11
4.256749051981442
 21
1.344964846572117
 31
0.0
  0
LWPOLYLINE
  5
1315
330
C95
100
AcDbEntity
  8
OPTION-RB-SJ-PRS
100
AcDbPolyline
 90
       10
 70
     0
 43
0.0
 10
4.261985905677446
 20
1.360856947583577
 10
4.261993927563567
 20
1.361278376972607
 10
4.261869858909047
 20
1.361619523339514
 10
4.261562800300396
 20
1.361799444537772
 10
4.261065080964769
 20
1.361760171194096
 10
4.260395560935487
 20
1.361492830961263
 10
4.25955052216242
 20
1.360992790594866
 10
4.258543555833574
 20
1.360264767611799
 10
4.257473735770526
 20
1.35938424083941
 10
4.256456216897028
 20
1.358465768728755
  0
LINE
  5
1316
330
C95
100
AcDbEntity
  8
OPTION-RB-SJ-PRS
100
AcDbLine
 10
4.229036324178668
 20
1.740916691039271
 30
0.0
 11
4.298189770606324
 21
1.688409467753792
 31
0.0
  0
LINE
  5
1317
330
C95
100
AcDbEntity
  8
OPTION-RB-SJ-PRS
100
AcDbLine
 10
4.231712204279356
 20
1.741408932435118
 30
0.0
 11
4.300865650707011
 21
1.688901709149644
 31
0.0
  0
LWPOLYLINE
  5
1318
330
C95
100
AcDbEntity
  8
OPTION-RB-SJ-PRS
100
AcDbPolyline
 90
        6
 70
     0
 43
0.0
 10
4.193184065882304
 20
1.715396415724053
 10
4.211779217924474
 20
1.713010219789647
 10
4.229744111092358
 20
1.7088946631945
 10
4.246646453909988
 20
1.703287569592689
 10
4.262981440337059
 20
1.696112518685279
 10
4.279476366184608
 20
1.68687922483321
  0
LINE
  5
1319
330
C95
100
AcDbEntity
  8
OPTION-RB-SJ-PRS
100
AcDbLine
 10
4.606175605860807
 20
1.68662949898897
 30
0.0
 11
5.325381850842427
 21
1.687105797556525
 31
0.0
  0
LINE
  5
131A
330
C95
100
AcDbEntity
  8
OPTION-RB-SJ-PRS
100
AcDbLine
 10
4.606911426909908
 20
1.379491414387353
 30
0.0
 11
5.326117632159183
 21
1.379984297581509
 31
0.0
  0
TEXT
  5
131B
330
C95
100
AcDbEntity
  8
TEXT-RB-SJ-PRS-BUBBLES
100
AcDbText
 10
4.714956151063255
 20
0.6511645299775699
 30
0.0
 40
0.125
  1
4
  7
ROMANS
 72
     4
 11
4.777456151063255
 21
0.7136645299775699
 31
0.0
100
AcDbText
  0
LEADER
  5
131C
330
C95
100
AcDbEntity
  8
TEXT-RB-SJ-PRS-BUBBLES
100
AcDbLeader
  3
STANDARD
 76
     2
 10
4.505161675606681
 20
1.342551270313252
 30
0.0
 10
4.706756328832423
 20
0.8530043937514681
 30
0.0
1001
ACAD
1000
DSTYLE
1002
{
1070
   340
1005
0
1070
   287
1070
     5
1002
}
  0
CIRCLE
  5
131D
330
C95
100
AcDbEntity
  8
TEXT-RB-SJ-PRS-BUBBLES
100
AcDbCircle
 10
4.777456151063255
 20
0.7136645299775699
 30
0.0
 40
0.15625
  0
LWPOLYLINE
  5
131E
330
C95
100
AcDbEntity
  8
OPTION-RB-SJ-PRS
100
AcDbPolyline
 90
       29
 70
     0
 43
0.0
 10
5.325749727706467
 20
1.533545031734361
 10
5.33755714902321
 20
1.535466567488936
 10
5.348983276120575
 20
1.541225157374918
 10
5.359027130048643
 20
1.550316286342357
 10
5.367566044993523
 20
1.562628848544437
 10
5.373851790974899
 20
1.577084097231844
 10
5.377807506475949
 20
1.593505241604311
 10
5.379086573050306
 20
1.610453571036583
 10
5.377726156474953
 20
1.62739573437675
 10
5.373691962862002
 20
1.643797737078419
 10
5.367337027580536
 20
1.658222702036728
 10
5.358739215752985
 20
1.670494209229018
 10
5.348651917521033
 20
1.679537109317506
 10
5.337198329647447
 20
1.685240885476644
 10
5.325381836945247
 20
1.687105824648546
 10
5.313574573010747
 20
1.685184289247573
 10
5.302148288531146
 20
1.679425699007988
 10
5.292104434579629
 20
1.670334570040494
 10
5.283565519658258
 20
1.658022007815026
 10
5.277279773676822
 20
1.643566759151068
 10
5.273324215581462
 20
1.627145615132255
 10
5.272044991955135
 20
1.610197127917193
 10
5.273405408176827
 20
1.593255121982712
 10
5.277439601789726
 20
1.576853119304488
 10
5.283794537071248
 20
1.562428154322733
 10
5.29239234887529
 20
1.550156647153836
 10
5.302479647130695
 20
1.541113747065399
 10
5.313933392386513
 20
1.535409971259865
 10
5.325749727706467
 20
1.533545031734361
  0
LWPOLYLINE
  5
131F
330
C95
100
AcDbEntity
  8
OPTION-RB-SJ-PRS
100
AcDbPolyline
 90
       26
 70
     0
 43
0.0
 10
5.326117632159183
 20
1.379984297581509
 10
5.332875286600906
 20
1.380605928376344
 10
5.339523467603465
 20
1.382428631253699
 10
5.345957329061718
 20
1.385423660954471
 10
5.352075404873666
 20
1.389543784017935
 10
5.357781209120725
 20
1.394724023438841
 10
5.362984757576814
 20
1.400882683532574
 10
5.367603986977634
 20
1.407922638282808
 10
5.37156604912251
 20
1.415732863141992
 10
5.374808459751957
 20
1.424190185830931
 10
5.377280084002656
 20
1.43316122901533
 10
5.378941942736723
 20
1.442504513570221
 10
5.379767827420804
 20
1.452072689932069
 10
5.379744713325038
 20
1.461714861878312
 10
5.378872964940017
 20
1.471278966169783
 10
5.377166330325014
 20
1.480614170771279
 10
5.374651724197612
 20
1.489573253552538
 10
5.371368803487957
 20
1.498014924060998
 10
5.367369341963284
 20
1.505806051738493
 10
5.362716413665618
 20
1.512823765532066
 10
5.357483398277544
 20
1.518957391615789
 10
5.351752823798411
 20
1.524110198782506
 10
5.345615065000767
 20
1.528200923955503
 10
5.339166918308803
 20
1.531165053838994
 10
5.33251007511563
 20
1.53295584215239
 10
5.325749518052333
 20
1.533545047033695
  0
LINE
  5
1320
330
C95
100
AcDbEntity
  8
OPTION-RB-SJ-PRS
100
AcDbLine
 10
2.915900947684855
 20
1.625824096171387
 30
0.0
 11
2.979053620621753
 21
1.722685259213828
 31
0.0
  0
LINE
  5
1321
330
C95
100
AcDbEntity
  8
OPTION-RB-SJ-PRS
100
AcDbLine
 10
2.915901216414193
 20
1.625824060121161
 30
0.0
 11
2.983090197222161
 21
1.616810612775332
 31
0.0
  0
LINE
  5
1322
330
C95
100
AcDbEntity
  8
OPTION-RB-SJ-PRS
100
AcDbLine
 10
2.969513472496913
 20
1.645991195973432
 30
0.0
 11
2.979976678078006
 21
1.64458754984814
 31
0.0
  0
LINE
  5
1323
330
C95
100
AcDbEntity
  8
OPTION-RB-SJ-PRS
100
AcDbLine
 10
2.96951320373124
 20
1.645991232028529
 30
0.0
 11
2.999859342204464
 21
1.692534901202793
 31
0.0
  0
LWPOLYLINE
  5
1324
330
C95
100
AcDbEntity
  8
OPTION-RB-SJ-PRS
100
AcDbPolyline
 90
       97
 70
     0
 43
0.0
 10
2.983090197222161
 20
1.616810612775332
 10
2.984286300092835
 20
1.616606932970063
 10
2.985472172113409
 20
1.616463082394163
 10
2.986647882769252
 20
1.616376881997322
 10
2.987813501607595
 20
1.616346152776436
 10
2.98896909816589
 20
1.6163687156557
 10
2.990114741954988
 20
1.616442391636884
 10
2.991250502507488
 20
1.616565001607853
 10
2.992376449354875
 20
1.616734366586102
 10
2.993492652039464
 20
1.616948307532168
 10
2.994599180062381
 20
1.617204645375145
 10
2.995696102950221
 20
1.617501201096177
 10
2.997331744960842
 20
1.61801946725692
 10
2.998945954172935
 20
1.618616716530524
 10
3.000538968796893
 20
1.619285483353256
 10
3.002111027047982
 20
1.620018302197736
 10
3.003662367152299
 20
1.620807707479628
 10
3.005193227283902
 20
1.621646233640089
 10
3.006703845673772
 20
1.62252641513112
 10
3.008194460516566
 20
1.623440786409612
 10
3.009665310054145
 20
1.624381881870612
 10
3.011709532943021
 20
1.625745710463395
 10
3.013716084481886
 20
1.627148692350821
 10
3.015686243703424
 20
1.628591565849183
 10
3.017621289790548
 20
1.630075069291625
 10
3.019522501812303
 20
1.631599940989564
 10
3.021391158858332
 20
1.63316691927016
 10
3.02322854004973
 20
1.634776742419352
 10
3.025035924481022
 20
1.636430148800635
 10
3.026814591309641
 20
1.63812787669508
 10
3.028565819573158
 20
1.639870664455322
 10
3.029852066552988
 20
1.641197741494537
 10
3.031121511444926
 20
1.642549814055011
 10
3.032371851554568
 20
1.643926493034673
 10
3.033600784186386
 20
1.645327389461098
 10
3.034806006614495
 20
1.64675211427343
 10
3.035985216133621
 20
1.64820027842656
 10
3.037136110038499
 20
1.649671492875374
 10
3.038256385649331
 20
1.651165368626821
 10
3.039343740255974
 20
1.652681516599462
 10
3.040395871121678
 20
1.654219547789378
 10
3.041410475572643
 20
1.655779073110253
 10
3.042385250892726
 20
1.657359703573919
 10
3.043317894392409
 20
1.658961050114645
 10
3.044206103334929
 20
1.660582723728539
 10
3.045047575067092
 20
1.662224335345002
 10
3.045840006831561
 20
1.663885495944405
 10
3.046581095938789
 20
1.665565816461016
 10
3.047268539708976
 20
1.667264907901802
 10
3.047900035436862
 20
1.668982381221645
 10
3.048473280375944
 20
1.670717847343966
 10
3.048985971862173
 20
1.672470917255119
 10
3.04943580717455
 20
1.674241201930589
 10
3.049820483612656
 20
1.676028312361604
 10
3.050137698461469
 20
1.677831859430377
 10
3.050332147521187
 20
1.679213093008381
 10
3.050484626332238
 20
1.680601623364524
 10
3.050593465518414
 20
1.681995477080225
 10
3.050656995584697
 20
1.683392680678811
 10
3.0506735471028
 20
1.68479126076721
 10
3.050641450645517
 20
1.686189243822668
 10
3.050559036763951
 20
1.687584656436352
 10
3.050424635999426
 20
1.68897552512674
 10
3.050236578939381
 20
1.690359876480118
 10
3.049993196161503
 20
1.691735737010097
 10
3.049692818139307
 20
1.693101133281243
 10
3.049333775512305
 20
1.694454091854367
 10
3.048914398806115
 20
1.695792639268543
 10
3.048433018603276
 20
1.69711480207373
 10
3.047986128951004
 20
1.69819695219386
 10
3.04749676226228
 20
1.699264847763964
 10
3.046966199803906
 20
1.700316850528785
 10
3.046395722842717
 20
1.701351322233054
 10
3.04578661262491
 20
1.702366624605748
 10
3.045140150380973
 20
1.703361119396489
 10
3.04445761739344
 20
1.704333168329386
 10
3.043740294881942
 20
1.705281133211012
 10
3.042989464160477
 20
1.706203375724245
 10
3.042206406407467
 20
1.707098257644187
 10
3.041392402926055
 20
1.707964140710697
 10
3.04054873492611
 20
1.708799386657635
 10
3.039676683710798
 20
1.709602357224855
 10
3.038777530494847
 20
1.710371414182579
 10
3.037852556545091
 20
1.71110491927553
 10
3.036903043102858
 20
1.711801234196358
 10
3.035930271460433
 20
1.712458720741873
 10
3.034935522827693
 20
1.71307574064595
 10
3.03392007845086
 20
1.713650655637581
 10
3.032885219617343
 20
1.714181827477216
 10
3.031832227557607
 20
1.714667617914485
 10
3.030762383533623
 20
1.715106388657747
 10
3.029642930864563
 20
1.715507851286862
 10
3.028508327298537
 20
1.715855782081953
 10
3.027359977547176
 20
1.716148384893997
 10
3.026199286327015
 20
1.716383863610322
 10
3.025027658390934
 20
1.716560422113381
 10
3.02384649843484
 20
1.716676264274759
  0
LWPOLYLINE
  5
1325
330
C95
100
AcDbEntity
  8
OPTION-RB-SJ-PRS
100
AcDbPolyline
 90
       95
 70
     0
 43
0.0
 10
2.979976678078008
 20
1.64458754984814
 10
2.980858081768168
 20
1.644545990455465
 10
2.981727693331565
 20
1.644533462880599
 10
2.982585763652544
 20
1.64454931485553
 10
2.983432543677254
 20
1.644592894159432
 10
2.984268284372465
 20
1.644663548587231
 10
2.985093236658855
 20
1.644760625866005
 10
2.985907651503202
 20
1.644883473790698
 10
2.986711779810429
 20
1.64503144010901
 10
2.987505872510981
 20
1.645203872620741
 10
2.988290180603099
 20
1.645400119079583
 10
2.989064954991722
 20
1.645619527233246
 10
2.989830446586656
 20
1.645861444865801
 10
2.990586906391031
 20
1.646125219767267
 10
2.991334585289166
 20
1.646410199669644
 10
2.992329566850655
 20
1.646827006884159
 10
2.993309646634038
 20
1.647279602941972
 10
2.994275440363074
 20
1.647766387517203
 10
2.995227563756596
 20
1.648285760247648
 10
2.996166632517741
 20
1.648836120791709
 10
2.997093262401714
 20
1.649415868782289
 10
2.998008069111616
 20
1.650023403877802
 10
2.998911668366345
 20
1.650657125716025
 10
2.999804675868983
 20
1.651315433955356
 10
3.000687707379638
 20
1.651996728265062
 10
3.001561378560202
 20
1.652699408272058
 10
3.002426305186487
 20
1.653421873625007
 10
3.003283102945886
 20
1.654162524002908
 10
3.004132387588724
 20
1.654919759002337
 10
3.00497477480726
 20
1.655691978338642
 10
3.005810880315491
 20
1.656477581613263
 10
3.006641319873482
 20
1.657274968495468
 10
3.007466709163754
 20
1.658082538627911
 10
3.008287663905166
 20
1.658898691648386
 10
3.008894276525616
 20
1.659509418867329
 10
3.009496859122894
 20
1.66012458378544
 10
3.010093486525912
 20
1.660744775634095
 10
3.010682233517503
 20
1.661370583576858
 10
3.011261174905962
 20
1.662002596829371
 10
3.011828385474123
 20
1.662641404555192
 10
3.012381939993954
 20
1.663287595974835
 10
3.012919913268884
 20
1.663941760267602
 10
3.013440380122956
 20
1.664604486628522
 10
3.013941415307535
 20
1.66527636426237
 10
3.014421093626047
 20
1.665957982348442
 10
3.014877489902549
 20
1.666649930081775
 10
3.01530867888839
 20
1.66735279666715
 10
3.015712735407596
 20
1.668067171299592
 10
3.016087734227278
 20
1.668793643163273
 10
3.016431750150871
 20
1.669532801437495
 10
3.016742857986677
 20
1.670285235337897
 10
3.017019132522401
 20
1.671051534064377
 10
3.017258648525132
 20
1.671832286801115
 10
3.017459480814034
 20
1.672628082706792
 10
3.01761970416596
 20
1.673439511038268
 10
3.017707198476738
 20
1.674019927918208
 10
3.017773783050282
 20
1.674607320006923
 10
3.017819606210316
 20
1.675200631398563
 10
3.017844816228535
 20
1.67579880621272
 10
3.017849561422702
 20
1.676400788636834
 10
3.017833990091091
 20
1.677005522712973
 10
3.017798250515118
 20
1.677611952633429
 10
3.01774249099795
 20
1.678219022476613
 10
3.01766685981612
 20
1.678825676398484
 10
3.017571505313998
 20
1.6794308585089
 10
3.017456575726917
 20
1.680033512932371
 10
3.017322219399229
 20
1.680632583778757
 10
3.017168584607498
 20
1.681227015204021
 10
3.016995819659751
 20
1.681815751322909
 10
3.016804072827644
 20
1.682397736255038
 10
3.01659349243982
 20
1.682971914130882
 10
3.016364226767958
 20
1.683537229070068
 10
3.016116424104332
 20
1.684092625207946
 10
3.015850232772708
 20
1.684637046638642
 10
3.015565801033888
 20
1.685169437538744
 10
3.015263277227374
 20
1.685688741981759
 10
3.014942809629715
 20
1.686193904123661
 10
3.014604546512584
 20
1.686683868084069
 10
3.014248636184001
 20
1.687157577977722
 10
3.013875226956864
 20
1.687613977955703
 10
3.013484467134325
 20
1.688052012096421
 10
3.013076504956581
 20
1.688470624560712
 10
3.01265148880433
 20
1.688868759453568
 10
3.01225916323303
 20
1.689204888531183
 10
3.011853561909376
 20
1.68952323133858
 10
3.011434789258373
 20
1.689823044445426
 10
3.011002949720728
 20
1.690103584400779
 10
3.010558147680187
 20
1.690364107742831
 10
3.010100487577499
 20
1.690603871020649
 10
3.009630073796403
 20
1.69082213077242
 10
3.009147010782502
 20
1.691018143583545
 10
3.008651402951031
 20
1.691191165951013
 10
3.008143354726954
 20
1.691340454444476
 10
3.007622970494059
 20
1.691465265602142
 10
3.00709035469304
 20
1.691564855973067
  0
LINE
  5
1326
330
C95
100
AcDbEntity
  8
OPTION-RB-SJ-PRS
100
AcDbLine
 10
2.999859476569131
 20
1.692534883177681
 30
0.0
 11
3.00709035469304
 21
1.691564855973067
 31
0.0
  0
LINE
  5
1327
330
C95
100
AcDbEntity
  8
OPTION-RB-SJ-PRS
100
AcDbLine
 10
2.979053889387428
 20
1.722685223158729
 30
0.0
 11
3.02384649843484
 21
1.716676264274759
 31
0.0
  0
LINE
  5
1328
330
C95
100
AcDbEntity
  8
OPTION-RB-SJ-PRS
100
AcDbLine
 10
3.930715433665026
 20
1.329754501690454
 30
0.0
 11
3.477300187300874
 21
1.387105587954709
 31
0.0
  0
LINE
  5
1329
330
C95
100
AcDbEntity
  8
OPTION-RB-SJ-PRS
100
AcDbLine
 10
4.179605399044904
 20
1.715798658693468
 30
0.0
 11
4.193184065882304
 21
1.715396415724053
 31
0.0
  0
LWPOLYLINE
  5
132A
330
C95
100
AcDbEntity
  8
OPTION-RB-SJ-PRS
100
AcDbPolyline
 90
        4
 70
     0
 43
0.0
 10
4.182732019690194
 20
1.746773578698912
 10
4.181843853232004
 20
1.747573316329705
 10
4.180994900551009
 20
1.747966333430777
 10
4.180262977021152
 20
1.747916585377972
  0
LINE
  5
132B
330
C95
100
AcDbEntity
  8
OPTION-RB-SJ-PRS
100
AcDbLine
 10
4.121358425580677
 20
1.723166137477968
 30
0.0
 11
4.180262977021156
 21
1.747916585377972
 31
0.0
  0
LINE
  5
132C
330
C95
100
AcDbEntity
  8
OPTION-RB-SJ-PRS
100
AcDbLine
 10
4.125347053296579
 20
1.722661628327856
 30
0.0
 11
4.182732019690194
 21
1.746773578698912
 31
0.0
  0
LINE
  5
132D
330
C95
100
AcDbEntity
  8
OPTION-RB-SJ-PRS
100
AcDbLine
 10
4.025689914026047
 20
1.739094505294421
 30
0.0
 11
3.993316578522625
 21
1.780843321561627
 31
0.0
  0
ARC
  5
132E
330
C95
100
AcDbEntity
  8
OPTION-RB-SJ-PRS
100
AcDbCircle
 10
4.035935339772338
 20
1.747039128273367
 30
0.0
 40
0.0129647901255772
100
AcDbArc
 50
217.7911169583366
 51
262.7911169583367
  0
ARC
  5
132F
330
C95
100
AcDbEntity
  8
OPTION-RB-SJ-PRS
100
AcDbCircle
 10
3.987169323074851
 20
1.776076547774262
 30
0.0
 40
0.0077788740753463
100
AcDbArc
 50
37.79111695833715
 51
82.79111695833721
  0
LINE
  5
1330
330
C95
100
AcDbEntity
  8
OPTION-RB-SJ-PRS
100
AcDbLine
 10
4.201978711122054
 20
1.712968727955886
 30
0.0
 11
4.034308426515613
 21
1.734176821475336
 31
0.0
  0
LINE
  5
1331
330
C95
100
AcDbEntity
  8
OPTION-RB-SJ-PRS
100
AcDbLine
 10
4.023911314356935
 20
1.741388196372098
 30
0.0
 11
4.092387744537932
 21
1.741388196372098
 31
0.0
  0
ARC
  5
1332
330
C95
100
AcDbEntity
  8
OPTION-RB-SJ-PRS
100
AcDbCircle
 10
4.157075905723781
 20
1.357969060150316
 30
0.0
 40
0.051859160502309
100
AcDbArc
 50
232.7911169583366
 51
292.7911169583367
  0
LWPOLYLINE
  5
1333
330
C95
100
AcDbEntity
  8
OPTION-RB-SJ-PRS
100
AcDbPolyline
 90
       10
 70
     0
 43
0.0
 10
4.174695683914801
 20
1.311301902588765
 10
4.171573675045349
 20
1.310119604969663
 10
4.167974513109289
 20
1.30906109804633
 10
4.163849566459614
 20
1.30822182733203
 10
4.159152096682889
 20
1.30772683212302
 10
4.153842220173805
 20
1.307740348749169
 10
4.147925707958847
 20
1.308473990718066
 10
4.141536066416602
 20
1.310160978353619
 10
4.134921777875984
 20
1.313005969861989
 10
4.128391379426339
 20
1.317158790248414
  0
LINE
  5
1334
330
C95
100
AcDbEntity
  8
OPTION-RB-SJ-PRS
100
AcDbLine
 10
4.128391379426339
 20
1.317158790248414
 30
0.0
 11
4.078817334662085
 21
1.35479965374015
 31
0.0
  0
LWPOLYLINE
  5
1335
330
C95
100
AcDbEntity
  8
OPTION-RB-SJ-PRS
100
AcDbPolyline
 90
        4
 70
     0
 43
0.0
 10
4.174695683914801
 20
1.311301902588765
 10
4.175583864420708
 20
1.310502154162363
 10
4.176432815311926
 20
1.31010914482795
 10
4.177164726547466
 20
1.31015889591431
  0
LWPOLYLINE
  5
1336
330
C95
100
AcDbEntity
  8
OPTION-RB-SJ-PRS
100
AcDbPolyline
 90
        4
 70
     0
 43
0.0
 10
4.128391379426339
 20
1.317158790248414
 10
4.127332041494437
 20
1.316605377251099
 10
4.126411972034587
 20
1.316436125917436
 10
4.125715499346139
 20
1.316666548868446
  0
LWPOLYLINE
  5
1337
330
C95
100
AcDbEntity
  8
OPTION-RB-SJ-PRS
100
AcDbPolyline
 90
        3
 70
     0
 43
0.0
 10
4.164143307640012
 20
1.342686975746022
 10
4.145558616987154
 20
1.345081343748396
 10
4.133171323468316
 20
1.34792458651241
  0
ARC
  5
1338
330
C95
100
AcDbEntity
  8
OPTION-RB-SJ-PRS
100
AcDbCircle
 10
3.986151794660763
 20
1.353452540084991
 30
0.0
 40
0.0129647901255772
100
AcDbArc
 50
82.79111695833732
 51
127.7911169583374
  0
ARC
  5
1339
330
C95
100
AcDbEntity
  8
OPTION-RB-SJ-PRS
100
AcDbCircle
 10
3.931691581627262
 20
1.33747188577563
 30
0.0
 40
0.0077788740753463
100
AcDbArc
 50
262.7911169583367
 51
307.7911169583375
  0
LINE
  5
133A
330
C95
100
AcDbEntity
  8
OPTION-RB-SJ-PRS
100
AcDbLine
 10
3.978207171681823
 20
1.36369796583128
 30
0.0
 11
3.936458355414623
 21
1.331324630327856
 31
0.0
  0
LINE
  5
133B
330
C95
100
AcDbEntity
  8
OPTION-RB-SJ-PRS
100
AcDbLine
 10
3.937428044492518
 20
1.338990950894582
 30
0.0
 11
4.051026451755831
 21
1.338990950894582
 31
0.0
  0
LINE
  5
133C
330
C95
100
AcDbEntity
  8
OPTION-RB-SJ-PRS
100
AcDbLine
 10
4.155448992487549
 20
1.345106753368173
 30
0.0
 11
3.9877787079016
 21
1.366314846903512
 31
0.0
  0
LINE
  5
133D
330
C95
100
AcDbEntity
  8
OPTION-RB-SJ-PRS
100
AcDbLine
 10
4.125715499346139
 20
1.316666548868446
 30
0.0
 11
4.074828706946169
 21
1.355304162890257
 31
0.0
  0
LINE
  5
133E
330
C95
100
AcDbEntity
  8
OPTION-RB-SJ-PRS
100
AcDbLine
 10
3.930715433665026
 20
1.329754501690454
 30
0.0
 11
3.988145471000699
 21
1.783793931864035
 31
0.0
  0
LINE
  5
133F
330
C95
100
AcDbEntity
  8
OPTION-RB-SJ-PRS
100
AcDbLine
 10
3.993316578522625
 20
1.780843321561627
 30
0.0
 11
3.936458355414623
 21
1.331324630327856
 31
0.0
  0
LINE
  5
1340
330
C95
100
AcDbEntity
  8
OPTION-RB-SJ-PRS
100
AcDbLine
 10
3.978207171681823
 20
1.36369796583128
 30
0.0
 11
4.025689914026047
 21
1.739094505294421
 31
0.0
  0
LINE
  5
1341
330
C95
100
AcDbEntity
  8
OPTION-RB-SJ-PRS
100
AcDbLine
 10
3.9877787079016
 20
1.366314846903512
 30
0.0
 11
4.034308426515613
 21
1.734176821475336
 31
0.0
  0
TEXT
  5
1342
330
C95
100
AcDbEntity
  8
TEXT-RB-SJ-PRS-BUBBLES
100
AcDbText
 10
2.913127367355759
 20
2.627085222911239
 30
0.0
 40
0.125
  1
3
  7
ROMANS
 72
     4
 11
2.972651176879568
 21
2.689585222911239
 31
0.0
100
AcDbText
  0
CIRCLE
  5
1343
330
C95
100
AcDbEntity
  8
TEXT-RB-SJ-PRS-BUBBLES
100
AcDbCircle
 10
2.972651176879568
 20
2.689585222911239
 30
0.0
 40
0.15625
  0
ARC
  5
1344
330
C95
100
AcDbEntity
  8
OPTION-RB-SJ-PRS
100
AcDbCircle
 10
3.534242150665676
 20
1.837286326093647
 30
0.0
 40
0.0038894370376732
100
AcDbArc
 50
82.79111695833732
 51
172.7911169583373
  0
ARC
  5
1345
330
C95
100
AcDbEntity
  8
OPTION-RB-SJ-PRS
100
AcDbCircle
 10
3.478202120455215
 20
1.838494014968993
 30
0.0
 40
0.0051859160502309
100
AcDbArc
 50
352.7911169583369
 51
82.79111695833732
  0
LINE
  5
1346
330
C95
100
AcDbEntity
  8
OPTION-RB-SJ-PRS
100
AcDbLine
 10
3.477981025572557
 20
1.836746048239459
 30
0.0
 11
3.427604217359526
 21
1.843118054246555
 31
0.0
  0
LINE
  5
1347
330
C95
100
AcDbEntity
  8
OPTION-RB-SJ-PRS
100
AcDbLine
 10
3.434625551220166
 20
1.849233115862182
 30
0.0
 11
3.478852885749704
 21
1.843638937681848
 31
0.0
  0
LWPOLYLINE
  5
1348
330
C95
100
AcDbEntity
  8
OPTION-RB-SJ-PRS
100
AcDbPolyline
 90
        4
 70
     0
 43
0.0
 10
3.42386278887022
 20
1.842760590756928
 10
3.4249583873023
 20
1.843309417294675
 10
3.426244832865474
 20
1.843432326852945
 10
3.427604217359526
 20
1.843118054246557
  0
LWPOLYLINE
  5
1349
330
C95
100
AcDbEntity
  8
OPTION-RB-SJ-PRS
100
AcDbPolyline
 90
        3
 70
     0
 43
0.0
 10
3.430853200761369
 20
1.848181127419478
 10
3.432977267824263
 20
1.849159445772019
 10
3.434679585654027
 20
1.84922618991798
  0
LINE
  5
134A
330
C95
100
AcDbEntity
  8
OPTION-RB-SJ-PRS
100
AcDbLine
 10
3.434676393343034
 20
1.849226684926049
 30
0.0
 11
3.434437381027619
 21
1.849017239253597
 31
0.0
  0
LINE
  5
134B
330
C95
100
AcDbEntity
  8
OPTION-RB-SJ-PRS
100
AcDbLine
 10
3.434437381027619
 20
1.849017239253597
 30
0.0
 11
3.427604217359526
 21
1.843118054246555
 31
0.0
  0
ARC
  5
134C
330
C95
100
AcDbEntity
  8
OPTION-RB-SJ-PRS
100
AcDbCircle
 10
3.484912756772498
 20
1.80889540940242
 30
0.0
 40
0.0051859160502309
100
AcDbArc
 50
172.7911310205367
 51
262.7911169583367
  0
LWPOLYLINE
  5
134D
330
C95
100
AcDbEntity
  8
OPTION-RB-SJ-PRS
100
AcDbPolyline
 90
        5
 70
     0
 43
0.0
 10
3.378521578542379
 20
1.801039226974796
 10
3.473944382503102
 20
1.788972608780958
 10
3.475620095837109
 20
1.788753199812073
 10
3.476731929641605
 20
1.788621667319953
 10
3.477114436006152
 20
1.788568522650698
  0
LINE
  5
134E
330
C95
100
AcDbEntity
  8
OPTION-RB-SJ-PRS
100
AcDbLine
 10
3.36341892996497
 20
1.78552009203612
 30
0.0
 11
3.469799635526701
 21
1.77206432699415
 31
0.0
  0
LINE
  5
134F
330
C95
100
AcDbEntity
  8
OPTION-RB-SJ-PRS
100
AcDbLine
 10
3.363952981698711
 20
1.789742282160465
 30
0.0
 11
3.470333687260444
 21
1.776286517118495
 31
0.0
  0
LINE
  5
1350
330
C95
100
AcDbEntity
  8
OPTION-RB-SJ-PRS
100
AcDbLine
 10
3.37908515781962
 20
1.805494860747052
 30
0.0
 11
3.47253309253416
 21
1.793674921722053
 31
0.0
  0
LINE
  5
1351
330
C95
100
AcDbEntity
  8
OPTION-RB-SJ-PRS
100
AcDbLine
 10
3.484261991457518
 20
1.803750486673677
 30
0.0
 11
3.525421373233127
 21
1.798544364308525
 31
0.0
  0
LWPOLYLINE
  5
1352
330
C95
100
AcDbEntity
  8
OPTION-RB-SJ-PRS
100
AcDbPolyline
 90
        4
 70
     0
 43
0.0
 10
3.476323115041918
 20
1.782312360961822
 10
3.476734327756862
 20
1.780026494055205
 10
3.478413624436186
 20
1.778176357579204
 10
3.480911416389741
 20
1.777260982833804
  0
LWPOLYLINE
  5
1353
330
C95
100
AcDbEntity
  8
OPTION-RB-SJ-PRS
100
AcDbPolyline
 90
        5
 70
     0
 43
0.0
 10
3.477114436006152
 20
1.788568522650698
 10
3.476938474526233
 20
1.790323156433438
 10
3.476006033749841
 20
1.791909736256877
 10
3.474459069302842
 20
1.79308671970693
 10
3.47253309253416
 20
1.793674921722053
  0
LINE
  5
1354
330
C95
100
AcDbEntity
  8
OPTION-RB-SJ-PRS
100
AcDbLine
 10
3.480911416410229
 20
1.77726098284969
 30
0.0
 11
3.484261991464208
 21
1.803750486580427
 31
0.0
  0
LWPOLYLINE
  5
1355
330
C95
100
AcDbEntity
  8
OPTION-RB-SJ-PRS
100
AcDbPolyline
 90
        7
 70
     0
 43
0.0
 10
3.470333687260444
 20
1.776286517118497
 10
3.471593660355646
 20
1.776338533995551
 10
3.472912389208028
 20
1.776845339547937
 10
3.474182110731717
 20
1.777832438518207
 10
3.475244030799339
 20
1.779210655068431
 10
3.475964998622369
 20
1.780769014026799
 10
3.476323229022748
 20
1.782313276992696
  0
LWPOLYLINE
  5
1356
330
C95
100
AcDbEntity
  8
OPTION-RB-SJ-PRS
100
AcDbPolyline
 90
        7
 70
     0
 43
0.0
 10
3.469799635526701
 20
1.772064326994152
 10
3.472293678866719
 20
1.771955199005115
 10
3.474847430540188
 20
1.772288051837482
 10
3.477239850820847
 20
1.773101371805839
 10
3.479168131030288
 20
1.774328599386829
 10
3.480398336022604
 20
1.775777592737239
 10
3.480911416410229
 20
1.77726098284969
  0
ARC
  5
1357
330
C95
100
AcDbEntity
  8
OPTION-RB-SJ-PRS
100
AcDbCircle
 10
3.387598894781605
 20
1.821202808918314
 30
0.0
 40
0.0051858747962687
100
AcDbArc
 50
262.7911169603368
 51
307.8089292404368
  0
LINE
  5
1358
330
C95
100
AcDbEntity
  8
OPTION-RB-SJ-PRS
100
AcDbLine
 10
3.378521578542379
 20
1.801039226974796
 30
0.0
 11
3.375343729350802
 21
1.805137397273314
 31
0.0
  0
LINE
  5
1359
330
C95
100
AcDbEntity
  8
OPTION-RB-SJ-PRS
100
AcDbLine
 10
3.363952981698711
 20
1.789742282160465
 30
0.0
 11
3.36341892996497
 21
1.78552009203612
 31
0.0
  0
LINE
  5
135A
330
C95
100
AcDbEntity
  8
OPTION-RB-SJ-PRS
100
AcDbLine
 10
3.378521578542379
 20
1.801039226974796
 30
0.0
 11
3.37908515781962
 21
1.805494860747052
 31
0.0
  0
LWPOLYLINE
  5
135B
330
C95
100
AcDbEntity
  8
OPTION-RB-SJ-PRS
100
AcDbPolyline
 90
        4
 70
     0
 43
0.0
 10
3.375343729350802
 20
1.805137397273314
 10
3.376439327782886
 20
1.80568622381106
 10
3.377725773325565
 20
1.805809133353441
 10
3.37908515781962
 20
1.805494860747052
  0
LINE
  5
135C
330
C95
100
AcDbEntity
  8
OPTION-RB-SJ-PRS
100
AcDbLine
 10
3.363952981698711
 20
1.789742282160465
 30
0.0
 11
3.378521578542379
 21
1.801039226974796
 31
0.0
  0
LWPOLYLINE
  5
135D
330
C95
100
AcDbEntity
  8
OPTION-RB-SJ-PRS
100
AcDbPolyline
 90
        4
 70
     0
 43
0.0
 10
3.360103674284546
 20
1.793319778951727
 10
3.359013802567327
 20
1.792781290791215
 10
3.357728812317651
 20
1.792676086350231
 10
3.356368780509743
 20
1.793013995585561
  0
LWPOLYLINE
  5
135E
330
C95
100
AcDbEntity
  8
OPTION-RB-SJ-PRS
100
AcDbPolyline
 90
        3
 70
     0
 43
0.0
 10
3.386958850285472
 20
1.816058058789722
 10
3.386375227959931
 20
1.815626215460363
 10
3.356368780300586
 20
1.79301399407809
  0
LWPOLYLINE
  5
135F
330
C95
100
AcDbEntity
  8
OPTION-RB-SJ-PRS
100
AcDbPolyline
 90
       10
 70
     0
 43
0.0
 10
3.356368780300586
 20
1.79301399407809
 10
3.355482951603992
 20
1.792204698870139
 10
3.354871333783155
 20
1.791252245807709
 10
3.354689744739145
 20
1.790136257637505
 10
3.355128204300077
 20
1.788961296892636
 10
3.35618621003638
 20
1.787885593241207
 10
3.357736198279354
 20
1.786986681530186
 10
3.359584383687575
 20
1.786301283785777
 10
3.361509493180728
 20
1.785827687853241
 10
3.36341892996497
 20
1.78552009203612
  0
LWPOLYLINE
  5
1360
330
C95
100
AcDbEntity
  8
OPTION-RB-SJ-PRS
100
AcDbPolyline
 90
       10
 70
     0
 43
0.0
 10
3.360103672425504
 20
1.793319781349155
 10
3.359179165097689
 20
1.792530182964131
 10
3.358442207424593
 20
1.791706702591921
 10
3.358015019904062
 20
1.790874708582216
 10
3.358071707445557
 20
1.790147599061007
 10
3.358664550408795
 20
1.789645724850587
 10
3.359701005561261
 20
1.789390503462647
 10
3.361030424347424
 20
1.789356946765864
 10
3.36247684768656
 20
1.789492783571945
 10
3.363952981698711
 20
1.789742282160465
  0
ARC
  5
1361
330
C95
100
AcDbEntity
  8
OPTION-RB-SJ-PRS
100
AcDbCircle
 10
3.423212452957997
 20
1.403748044989115
 30
0.0
 40
0.0051859160502309
100
AcDbArc
 50
262.7911169583367
 51
352.7911169583369
  0
ARC
  5
1362
330
C95
100
AcDbEntity
  8
OPTION-RB-SJ-PRS
100
AcDbCircle
 10
3.437081507528521
 20
1.430743589373112
 30
0.0
 40
0.0051859160502309
100
AcDbArc
 50
82.79111695833732
 51
172.7911029399374
  0
ARC
  5
1363
330
C95
100
AcDbEntity
  8
OPTION-RB-SJ-PRS
100
AcDbCircle
 10
3.477788261271737
 20
1.390964279989352
 30
0.0
 40
0.0038894370376732
100
AcDbArc
 50
172.7911169583365
 51
262.7911169583367
  0
LINE
  5
1364
330
C95
100
AcDbEntity
  8
OPTION-RB-SJ-PRS
100
AcDbLine
 10
3.437732272823012
 20
1.435888512085965
 30
0.0
 11
3.478891654598623
 21
1.430682389720813
 31
0.0
  0
LWPOLYLINE
  5
1365
330
C95
100
AcDbEntity
  8
OPTION-RB-SJ-PRS
100
AcDbPolyline
 90
        7
 70
     0
 43
0.0
 10
3.441082847890793
 20
1.46237801592584
 10
3.440959926032984
 20
1.463925606996972
 10
3.44014629990483
 20
1.465620830799738
 10
3.438601753941759
 20
1.46728819337756
 10
3.436483164416417
 20
1.468686054941737
 10
3.434071774586005
 20
1.469658174619332
 10
3.431614937886511
 20
1.47017773296396
  0
LWPOLYLINE
  5
1366
330
C95
100
AcDbEntity
  8
OPTION-RB-SJ-PRS
100
AcDbPolyline
 90
        7
 70
     0
 43
0.0
 10
3.435380882260481
 20
1.458624823630262
 10
3.435420012137278
 20
1.460195184496842
 10
3.435117519319577
 20
1.461870347668267
 10
3.434441014256741
 20
1.463469253848827
 10
3.433455844625951
 20
1.46475604421803
 10
3.432295037079107
 20
1.465588140165208
 10
3.431080886168663
 20
1.465955542819124
  0
LINE
  5
1367
330
C95
100
AcDbEntity
  8
OPTION-RB-SJ-PRS
100
AcDbLine
 10
3.43537987832742
 20
1.458617684634069
 30
0.0
 11
3.435379535621381
 21
1.458614843715205
 31
0.0
  0
LINE
  5
1368
330
C95
100
AcDbEntity
  8
OPTION-RB-SJ-PRS
100
AcDbLine
 10
3.431614937886511
 20
1.47017773296396
 30
0.0
 11
3.422561687663508
 21
1.398603122276257
 31
0.0
  0
LINE
  5
1369
330
C95
100
AcDbEntity
  8
OPTION-RB-SJ-PRS
100
AcDbLine
 10
3.435380882260481
 20
1.458624823630262
 30
0.0
 11
3.428357849194039
 21
1.403101023056527
 31
0.0
  0
LINE
  5
136A
330
C95
100
AcDbEntity
  8
OPTION-RB-SJ-PRS
100
AcDbLine
 10
3.437732272836814
 20
1.435888512195107
 30
0.0
 11
3.441082847890793
 21
1.46237801592584
 31
0.0
  0
LWPOLYLINE
  5
136B
330
C95
100
AcDbEntity
  8
OPTION-RB-SJ-PRS
100
AcDbPolyline
 90
        5
 70
     0
 43
0.0
 10
3.434589982869152
 20
1.452372006713816
 10
3.433980171807435
 20
1.450711951737821
 10
3.432664993947689
 20
1.449399805584458
 10
3.43087416107823
 20
1.448652347049217
 10
3.428881480879056
 20
1.448567138236058
  0
LWPOLYLINE
  5
136C
330
C95
100
AcDbEntity
  8
OPTION-RB-SJ-PRS
100
AcDbPolyline
 90
        4
 70
     0
 43
0.0
 10
3.429142049842043
 20
1.409300880139542
 10
3.428170971269725
 20
1.407160249325239
 10
3.426081514519347
 20
1.405767570788523
 10
3.423433547840666
 20
1.405496011718651
  0
LWPOLYLINE
  5
136D
330
C95
100
AcDbEntity
  8
OPTION-RB-SJ-PRS
100
AcDbPolyline
 90
        4
 70
     0
 43
0.0
 10
3.435380882260481
 20
1.458624823630262
 10
3.436348685379872
 20
1.460739609991875
 10
3.438435745096521
 20
1.462113378154604
 10
3.441082847890793
 20
1.46237801592584
  0
LWPOLYLINE
  5
136E
330
C95
100
AcDbEntity
  8
OPTION-RB-SJ-PRS
100
AcDbPolyline
 90
        3
 70
     0
 43
0.0
 10
3.378388410336143
 20
1.404190554225473
 10
3.376756323940247
 20
1.404679056805716
 10
3.374942743934221
 20
1.406155435906192
  0
LWPOLYLINE
  5
136F
330
C95
100
AcDbEntity
  8
OPTION-RB-SJ-PRS
100
AcDbPolyline
 90
        4
 70
     0
 43
0.0
 10
3.369522148606362
 20
1.413145802306428
 10
3.370446589728269
 20
1.412341467313399
 10
3.371661916675146
 20
1.411902116265069
 10
3.373056739627639
 20
1.411868017725747
  0
LINE
  5
1370
330
C95
100
AcDbEntity
  8
OPTION-RB-SJ-PRS
100
AcDbLine
 10
3.373056739627639
 20
1.411868017725747
 30
0.0
 11
3.3783765603042
 21
1.404207481225911
 31
0.0
  0
LINE
  5
1371
330
C95
100
AcDbEntity
  8
OPTION-RB-SJ-PRS
100
AcDbLine
 10
3.3783765603042
 20
1.404207481225911
 30
0.0
 11
3.378385182681439
 21
1.404190896485588
 31
0.0
  0
LINE
  5
1372
330
C95
100
AcDbEntity
  8
OPTION-RB-SJ-PRS
100
AcDbLine
 10
3.378334353170345
 20
1.404197300451992
 30
0.0
 11
3.422561687663508
 21
1.398603122276257
 31
0.0
  0
LINE
  5
1373
330
C95
100
AcDbEntity
  8
OPTION-RB-SJ-PRS
100
AcDbLine
 10
3.423433547840666
 20
1.405496011718651
 30
0.0
 11
3.373056739627639
 21
1.411868017725747
 31
0.0
  0
ARC
  5
1374
330
C95
100
AcDbEntity
  8
OPTION-RB-SJ-PRS
100
AcDbCircle
 10
3.339768026075374
 20
1.443053998134833
 30
0.0
 40
0.0051858747703391
100
AcDbArc
 50
37.77330382563711
 51
82.7911169566372
  0
LWPOLYLINE
  5
1375
330
C95
100
AcDbEntity
  8
OPTION-RB-SJ-PRS
100
AcDbPolyline
 90
       10
 70
     0
 43
0.0
 10
3.325234232324778
 20
1.48363349800593
 10
3.323280920477978
 20
1.483812527315552
 10
3.321264970557738
 20
1.483829173465438
 10
3.319277067636429
 20
1.48361181346275
 10
3.317551313236926
 20
1.483105807046764
 10
3.316289788098909
 20
1.482311899348839
 10
3.315613258758034
 20
1.481285895731029
 10
3.315533468139246
 20
1.480177953259247
 10
3.315890606727901
 20
1.479121945395793
 10
3.316540211817525
 20
1.478131027149639
  0
LWPOLYLINE
  5
1376
330
C95
100
AcDbEntity
  8
OPTION-RB-SJ-PRS
100
AcDbPolyline
 90
       10
 70
     0
 43
0.0
 10
3.32470018060693
 20
1.479411307861092
 10
3.323313440907616
 20
1.48002831009219
 10
3.321924515790637
 20
1.480524608541666
 10
3.32061335023611
 20
1.480818111662842
 10
3.319550133383325
 20
1.480812034035451
 10
3.318876687729259
 20
1.480452249613979
 10
3.31866774697422
 20
1.479755572543431
 10
3.31888502448557
 20
1.478853001671784
 10
3.319390570312831
 20
1.477886965870706
 10
3.320081339198587
 20
1.476904918751144
  0
LWPOLYLINE
  5
1377
330
C95
100
AcDbEntity
  8
OPTION-RB-SJ-PRS
100
AcDbPolyline
 90
        4
 70
     0
 43
0.0
 10
3.320081338891226
 20
1.476904918512805
 10
3.319159942437675
 20
1.477697966208633
 10
3.317941628840976
 20
1.478119937714573
 10
3.316540258505417
 20
1.478131396262107
  0
LWPOLYLINE
  5
1378
330
C95
100
AcDbEntity
  8
OPTION-RB-SJ-PRS
100
AcDbPolyline
 90
        4
 70
     0
 43
0.0
 10
3.331898955106854
 20
1.461664861846338
 10
3.332819209560559
 20
1.460862960442695
 10
3.334037329632772
 20
1.460421430651394
 10
3.335433546144026
 20
1.460387077245164
  0
LWPOLYLINE
  5
1379
330
C95
100
AcDbEntity
  8
OPTION-RB-SJ-PRS
100
AcDbPolyline
 90
        3
 70
     0
 43
0.0
 10
3.316540211817525
 20
1.478131027149639
 10
3.339971861816131
 20
1.448759082806041
 10
3.340429124904758
 20
1.448196085073795
  0
LINE
  5
137A
330
C95
100
AcDbEntity
  8
OPTION-RB-SJ-PRS
100
AcDbLine
 10
3.335997125405372
 20
1.464842711037912
 30
0.0
 11
3.32470018060693
 21
1.479411307861092
 31
0.0
  0
LINE
  5
137B
330
C95
100
AcDbEntity
  8
OPTION-RB-SJ-PRS
100
AcDbLine
 10
3.324700157760226
 20
1.4794113107509
 30
0.0
 11
3.325234258503344
 21
1.483633493696705
 31
0.0
  0
LINE
  5
137C
330
C95
100
AcDbEntity
  8
OPTION-RB-SJ-PRS
100
AcDbLine
 10
3.335997125405372
 20
1.464842711037912
 30
0.0
 11
3.335433546144022
 21
1.460387077245164
 31
0.0
  0
LINE
  5
137D
330
C95
100
AcDbEntity
  8
OPTION-RB-SJ-PRS
100
AcDbLine
 10
3.33220691558446
 20
1.461906538794063
 30
0.0
 11
3.331898955106854
 21
1.461664861846338
 31
0.0
  0
LINE
  5
137E
330
C95
100
AcDbEntity
  8
OPTION-RB-SJ-PRS
100
AcDbLine
 10
3.335997125405372
 20
1.464842711037912
 30
0.0
 11
3.33220691558446
 21
1.461906538794063
 31
0.0
  0
LINE
  5
137F
330
C95
100
AcDbEntity
  8
OPTION-RB-SJ-PRS
100
AcDbLine
 10
3.374929100319928
 20
1.406172970185637
 30
0.0
 11
3.320081339198587
 21
1.476904918751144
 31
0.0
  0
LINE
  5
1380
330
C95
100
AcDbEntity
  8
OPTION-RB-SJ-PRS
100
AcDbLine
 10
3.335433546144022
 20
1.460387077245164
 30
0.0
 11
3.373056739627639
 21
1.411868017725747
 31
0.0
  0
LWPOLYLINE
  5
1381
330
C95
100
AcDbEntity
  8
OPTION-RB-SJ-PRS
100
AcDbPolyline
 90
        3
 70
     0
 43
0.0
 10
3.335997125405372
 20
1.464842711037914
 10
3.434196634557514
 20
1.452423297024345
 10
3.434589982869152
 20
1.452372006713816
  0
LINE
  5
1382
330
C95
100
AcDbEntity
  8
OPTION-RB-SJ-PRS
100
AcDbLine
 10
3.428881480879056
 20
1.448567138236058
 30
0.0
 11
3.335433546144022
 21
1.460387077245164
 31
0.0
  0
LINE
  5
1383
330
C95
100
AcDbEntity
  8
OPTION-RB-SJ-PRS
100
AcDbLine
 10
3.431080886168658
 20
1.465955542819124
 30
0.0
 11
3.32470018060693
 21
1.479411307861092
 31
0.0
  0
LINE
  5
1384
330
C95
100
AcDbEntity
  8
OPTION-RB-SJ-PRS
100
AcDbLine
 10
3.431614937886511
 20
1.47017773296396
 30
0.0
 11
3.325234232324778
 21
1.48363349800593
 31
0.0
  0
LINE
  5
1385
330
C95
100
AcDbEntity
  8
OPTION-RB-SJ-PRS
100
AcDbLine
 10
3.473929569225813
 20
1.391452354017093
 30
0.0
 11
3.530383458631034
 21
1.837774400064517
 31
0.0
  0
LINE
  5
1386
330
C95
100
AcDbEntity
  8
OPTION-RB-SJ-PRS
100
AcDbLine
 10
3.477300187300874
 20
1.387105587954709
 30
0.0
 11
3.534730224636549
 21
1.841145018128291
 31
0.0
  0
LINE
  5
1387
330
C95
100
AcDbEntity
  8
OPTION-RB-SJ-PRS
100
AcDbLine
 10
3.478852885749704
 20
1.843638937681848
 30
0.0
 11
3.469799480869331
 21
1.772064352063641
 31
0.0
  0
LINE
  5
1388
330
C95
100
AcDbEntity
  8
OPTION-RB-SJ-PRS
100
AcDbLine
 10
3.483346569681264
 20
1.837839506307992
 30
0.0
 11
3.476323536594335
 21
1.78231570571837
 31
0.0
  0
LWPOLYLINE
  5
1389
330
C95
100
AcDbEntity
  8
OPTION-RB-SJ-PRS
100
AcDbPolyline
 90
        4
 70
     0
 43
0.0
 10
3.482562369028661
 20
1.831639649188598
 10
3.482154938484322
 20
1.833954513935144
 10
3.48047809497703
 20
1.835823647956305
 10
3.477981025558747
 20
1.836746048130319
  0
LINE
  5
138A
330
C95
100
AcDbEntity
  8
OPTION-RB-SJ-PRS
100
AcDbLine
 10
3.430835620991009
 20
1.848167542470501
 30
0.0
 11
3.360103672425504
 21
1.793319781349155
 31
0.0
  0
LINE
  5
138B
330
C95
100
AcDbEntity
  8
OPTION-RB-SJ-PRS
100
AcDbLine
 10
3.427604217359526
 20
1.843118054246555
 30
0.0
 11
3.37908515781962
 21
1.805494860747052
 31
0.0
  0
CIRCLE
  5
138C
330
C95
100
AcDbEntity
  8
OPTION-RB-SJ-PRS
100
AcDbCircle
 10
3.039324212925347
 20
1.607318544998597
 30
0.0
 40
0.0175521826205759
  0
INSERT
  5
138D
330
C95
100
AcDbEntity
  8
OPTION-RB-SJ-PRS
100
AcDbBlockReference
  2
*T4
 10
3.2411518582809
 20
3.946795291525652
 30
0.0
 41
-0.2592958025115453
 42
0.2592958025115442
 43
-0.2592958025115447
 50
52.640650847635
210
0.0
220
0.0
230
-1.0
  0
TEXT
  5
138E
330
C95
100
AcDbEntity
  8
TEXT-RB-SJ-PRS-BUBBLES
100
AcDbText
 10
2.922301355902367
 20
0.6511645299775699
 30
0.0
 40
0.125
  1
5
  7
ROMANS
 72
     4
 11
2.981825165426176
 21
0.7136645299775699
 31
0.0
100
AcDbText
  0
CIRCLE
  5
138F
330
C95
100
AcDbEntity
  8
TEXT-RB-SJ-PRS-BUBBLES
100
AcDbCircle
 10
2.981825165426176
 20
0.7136645299775699
 30
0.0
 40
0.15625
  0
LINE
  5
1390
330
C95
100
AcDbEntity
  8
OPTION-RB-SJ-PRS
100
AcDbLine
 10
1.404334435120678
 20
1.693086689109672
 30
0.0
 11
3.339908774077169
 21
1.448261902633839
 31
0.0
  0
LINE
  5
1391
330
C95
100
AcDbEntity
  8
OPTION-RB-SJ-PRS
100
AcDbLine
 10
1.509523482913541
 20
2.053529027358254
 30
0.0
 11
3.386438498657518
 21
1.816123876450999
 31
0.0
  0
LINE
  5
1392
330
C95
100
AcDbEntity
  8
OPTION-RB-SJ-PRS
100
AcDbLine
 10
1.456813414153878
 20
1.377332603243773
 30
0.0
 11
3.543260460645607
 21
1.3787624778433
 31
0.0
  0
LEADER
  5
1393
330
C95
100
AcDbEntity
  8
TEXT-RB-SJ-PRS-BUBBLES
100
AcDbLeader
  3
STANDARD
 76
     2
 10
2.628462436053759
 20
1.381618466864803
 30
0.0
 10
2.884058550293454
 20
0.835548702311347
 30
0.0
1001
ACAD
1000
DSTYLE
1002
{
1070
   340
1005
0
1070
   287
1070
     5
1002
}
  0
LEADER
  5
1394
330
C95
100
AcDbEntity
  8
TEXT-RB-SJ-PRS-BUBBLES
100
AcDbLeader
  3
STANDARD
 76
     2
 10
2.050808062770511
 20
1.989450226357516
 30
0.0
 10
2.864894566452864
 20
2.576436756685013
 30
0.0
1001
ACAD
1000
DSTYLE
1002
{
1070
   340
1005
0
1070
   287
1070
     5
1002
}
  0
LINE
  5
1395
330
C95
100
AcDbEntity
  8
OPTION-RB-SJ-PRS
100
AcDbLine
 10
3.988145471000699
 20
1.783793931864035
 30
0.0
 11
3.534730224636549
 21
1.841145018128291
 31
0.0
  0
TEXT
  5
13A5
330
C95
100
AcDbEntity
  8
INSTRUCT-OPTION
100
AcDbText
 10
9.754614991756955
 20
1.687984854444772
 30
0.0
 40
0.1250000018625
  1
  %%UAND EITHER%%U
  7
ROMANS
100
AcDbText
  0
TEXT
  5
13A6
330
C95
100
AcDbEntity
  8
INSTRUCT-OPTION
100
AcDbText
 10
9.987927946405289
 20
2.18567374028267
 30
0.0
 40
0.1250000018625
  1
%%URAIN BIRD SWING JOINT WITH PRS
  7
ROMANS
100
AcDbText
  0
TEXT
  5
13A7
330
C95
100
AcDbEntity
  8
INSTRUCT-OPTION
100
AcDbText
 10
10.00462092498361
 20
1.942272123190841
 30
0.0
 40
0.1250000018625
  1
  OPTION-RB-SJ-PRS
  7
ROMANS
100
AcDbText
  0
TEXT
  5
13A8
330
C95
100
AcDbEntity
  8
INSTRUCT-OPTION
100
AcDbText
 10
9.754614992998842
 20
1.276748023271341
 30
0.0
 40
0.125
  1
    %%uOR%%u TEXT-RB-SJ-PRS-BUBBLES
  7
ROMANS
100
AcDbText
  0
TEXT
  5
13A9
330
C95
100
AcDbEntity
  8
INSTRUCT-OPTION
100
AcDbText
 10
9.754614991756955
 20
1.444106553187287
 30
0.0
 40
0.1250000018625
  1
    TEXT-RB-SJ-PRS-LEADERS
  7
ROMANS
100
AcDbText
  0
ENDSEC
  0
SECTION
  2
OBJECTS
  0
DICTIONARY
  5
C83
330
0
100
AcDbDictionary
281
     1
  3
ACAD_GROUP
350
C84
  3
ACAD_LAYOUT
350
C90
  3
ACAD_MLINESTYLE
350
C8D
  3
ACAD_PLOTSETTINGS
350
C8F
  3
ACAD_PLOTSTYLENAME
350
C85
  3
AcadDim
350
D46
  3
AcDbVariableDictionary
350
CBE
  0
DICTIONARY
  5
CC7
330
C79
100
AcDbDictionary
280
     1
281
     1
  3
ACAD_LAYERFILTERS
360
CEB
  3
ACAD_LAYERSTATES
360
CC8
  0
DICTIONARY
  5
C84
102
{ACAD_REACTORS
330
C83
102
}
330
C83
100
AcDbDictionary
281
     1
  0
DICTIONARY
  5
C90
102
{ACAD_REACTORS
330
C83
102
}
330
C83
100
AcDbDictionary
281
     1
  3
Layout1
350
C94
  3
Model
350
C98
  0
DICTIONARY
  5
C8D
102
{ACAD_REACTORS
330
C83
102
}
330
C83
100
AcDbDictionary
281
     1
  3
Standard
350
C8E
  0
DICTIONARY
  5
C8F
102
{ACAD_REACTORS
330
C83
102
}
330
C83
100
AcDbDictionary
281
     1
  0
ACDBDICTIONARYWDFLT
  5
C85
102
{ACAD_REACTORS
330
C83
102
}
330
C83
100
AcDbDictionary
281
     1
  3
Normal
350
C86
100
AcDbDictionaryWithDefault
340
C86
  0
XRECORD
  5
D46
102
{ACAD_REACTORS
330
C83
102
}
330
C83
100
AcDbXrecord
280
     1
 90
   990106
  3

 60
     4
 61
     0
 62
     1
 63
     3
 64
     0
 65
     0
 66
     0
 67
     3
 68
     1
 69
     0
 70
     0
 71
     0
 72
     0
 40
0.0
170
     0
  0
DICTIONARY
  5
CBE
102
{ACAD_REACTORS
330
C83
102
}
330
C83
100
AcDbDictionary
281
     1
  3
DIMASSOC
350
CC1
  3
HIDETEXT
350
CC0
  3
SORTENTS
350
CBF
  0
DICTIONARY
  5
CEB
102
{ACAD_REACTORS
330
CC7
102
}
330
CC7
100
AcDbDictionary
280
     1
281
     1
  0
DICTIONARY
  5
CC8
102
{ACAD_REACTORS
330
CC7
102
}
330
CC7
100
AcDbDictionary
281
     1
  0
LAYOUT
  5
C94
102
{ACAD_REACTORS
330
C90
102
}
330
C90
100
AcDbPlotSettings
  1

  2
S:\AutoCAD 2002\Plotters\1055B&WDraftShaded.pc3
  4

  6

 40
0.0
 41
0.0
 42
0.0
 43
0.0
 44
0.0
 45
0.0
 46
0.0
 47
0.0
 48
0.0
 49
0.0
140
0.0
141
0.0
142
1.0
143
1.0
 70
   688
 72
     0
 73
     0
 74
     5
  7
TRexLJ5Shaded2.ctb
 75
    16
147
1.0
148
0.0
149
0.0
100
AcDbLayout
  1
Layout1
 70
     1
 71
     1
 10
0.0
 20
0.0
 11
12.0
 21
9.0
 12
0.0
 22
0.0
 32
0.0
 14
1.000000000000000E+20
 24
1.000000000000000E+20
 34
1.000000000000000E+20
 15
-1.000000000000000E+20
 25
-1.000000000000000E+20
 35
-1.000000000000000E+20
146
0.0
 13
0.0
 23
0.0
 33
0.0
 16
1.0
 26
0.0
 36
0.0
 17
0.0
 27
1.0
 37
0.0
 76
     0
330
C91
  0
LAYOUT
  5
C98
102
{ACAD_REACTORS
330
C90
102
}
330
C90
100
AcDbPlotSettings
  1

  2
8500ColorShaded.pc3
  4
11x17
  6

 40
3.174999952316284
 41
3.174999952316284
 42
3.17498779296875
 43
3.17498779296875
 44
279.3999938964843
 45
431.8000183105469
 46
1.778
 47
0.0
 48
180360.052434
 49
80033.77936199999
140
180369.157473
141
80037.61796
142
1.0
143
0.9845376289538931
 70
 28340
 72
     0
 73
     1
 74
     1
  7
8500ColorShaded.ctb
 75
     0
147
1.015705210843526
148
23.80044210311202
149
34.70514534141416
100
AcDbLayout
  1
Model
 70
     1
 71
     0
 10
0.0
 20
0.0
 11
12.0
 21
9.0
 12
0.0
 22
0.0
 32
0.0
 14
0.0
 24
0.0
 34
0.0
 15
0.0
 25
0.0
 35
0.0
146
0.0
 13
0.0
 23
0.0
 33
0.0
 16
1.0
 26
0.0
 36
0.0
 17
0.0
 27
1.0
 37
0.0
 76
     0
330
C95
  0
MLINESTYLE
  5
C8E
102
{ACAD_REACTORS
330
C8D
102
}
330
C8D
100
AcDbMlineStyle
  2
STANDARD
 70
     0
  3

 62
   256
 51
90.0
 52
90.0
 71
     2
 49
0.5
 62
   256
  6
BYLAYER
 49
-0.5
 62
   256
  6
BYLAYER
  0
ACDBPLACEHOLDER
  5
C86
102
{ACAD_REACTORS
330
C85
102
}
330
C85
  0
DICTIONARYVAR
  5
CC1
102
{ACAD_REACTORS
330
CBE
102
}
330
CBE
100
DictionaryVariables
280
     0
  1
1
  0
DICTIONARYVAR
  5
CC0
102
{ACAD_REACTORS
330
CBE
102
}
330
CBE
100
DictionaryVariables
280
     0
  1
1
  0
DICTIONARYVAR
  5
CBF
102
{ACAD_REACTORS
330
CBE
102
}
330
CBE
100
DictionaryVariables
280
     0
  1
1
  0
ENDSEC
  0
EOF
