  0
SECTION
  2
HEADER
  9
$ACADVER
  1
AC1015
  9
$ACADMAINTVER
 70
    13
  9
$DWGCODEPAGE
  3
ANSI_1252
  9
$INSBASE
 10
0.0
 20
0.0
 30
0.0
  9
$EXTMIN
 10
-0.633318107507898
 20
-0.5809720208215245
 30
0.0
  9
$EXTMAX
 10
15.85668189249209
 20
9.859027979178474
 30
0.03
  9
$LIMMIN
 10
0.0
 20
0.0
  9
$LIMMAX
 10
12.0
 20
9.0
  9
$ORTHOMODE
 70
     1
  9
$REGENMODE
 70
     1
  9
$FILLMODE
 70
     1
  9
$QTEXTMODE
 70
     0
  9
$MIRRTEXT
 70
     0
  9
$LTSCALE
 40
1.0
  9
$ATTMODE
 70
     1
  9
$TEXTSIZE
 40
0.1
  9
$TRACEWID
 40
0.05
  9
$TEXTSTYLE
  7
ROMANS
  9
$CLAYER
  8
0
  9
$CELTYPE
  6
BYLAYER
  9
$CECOLOR
 62
   256
  9
$CELTSCALE
 40
1.0
  9
$DISPSILH
 70
     0
  9
$DIMSCALE
 40
1.0
  9
$DIMASZ
 40
0.18
  9
$DIMEXO
 40
0.0625
  9
$DIMDLI
 40
0.38
  9
$DIMRND
 40
0.0
  9
$DIMDLE
 40
0.0
  9
$DIMEXE
 40
0.18
  9
$DIMTP
 40
0.0
  9
$DIMTM
 40
0.0
  9
$DIMTXT
 40
0.18
  9
$DIMCEN
 40
0.09
  9
$DIMTSZ
 40
0.0
  9
$DIMTOL
 70
     0
  9
$DIMLIM
 70
     0
  9
$DIMTIH
 70
     1
  9
$DIMTOH
 70
     1
  9
$DIMSE1
 70
     0
  9
$DIMSE2
 70
     0
  9
$DIMTAD
 70
     0
  9
$DIMZIN
 70
     0
  9
$DIMBLK
  1

  9
$DIMASO
 70
     1
  9
$DIMSHO
 70
     1
  9
$DIMPOST
  1

  9
$DIMAPOST
  1

  9
$DIMALT
 70
     0
  9
$DIMALTD
 70
     2
  9
$DIMALTF
 40
25.4
  9
$DIMLFAC
 40
1.0
  9
$DIMTOFL
 70
     0
  9
$DIMTVP
 40
0.0
  9
$DIMTIX
 70
     0
  9
$DIMSOXD
 70
     0
  9
$DIMSAH
 70
     0
  9
$DIMBLK1
  1

  9
$DIMBLK2
  1

  9
$DIMSTYLE
  2
STANDARD
  9
$DIMCLRD
 70
     0
  9
$DIMCLRE
 70
     0
  9
$DIMCLRT
 70
     0
  9
$DIMTFAC
 40
1.0
  9
$DIMGAP
 40
0.09
  9
$DIMJUST
 70
     0
  9
$DIMSD1
 70
     0
  9
$DIMSD2
 70
     0
  9
$DIMTOLJ
 70
     1
  9
$DIMTZIN
 70
     0
  9
$DIMALTZ
 70
     0
  9
$DIMALTTZ
 70
     0
  9
$DIMUPT
 70
     0
  9
$DIMDEC
 70
     4
  9
$DIMTDEC
 70
     4
  9
$DIMALTU
 70
     2
  9
$DIMALTTD
 70
     2
  9
$DIMTXSTY
  7
SIMPLEX
  9
$DIMAUNIT
 70
     0
  9
$DIMADEC
 70
     0
  9
$DIMALTRND
 40
0.0
  9
$DIMAZIN
 70
     0
  9
$DIMDSEP
 70
    46
  9
$DIMATFIT
 70
     3
  9
$DIMFRAC
 70
     0
  9
$DIMLDRBLK
  1

  9
$DIMLUNIT
 70
     2
  9
$DIMLWD
 70
    -2
  9
$DIMLWE
 70
    -2
  9
$DIMTMOVE
 70
     2
  9
$LUNITS
 70
     2
  9
$LUPREC
 70
     4
  9
$SKETCHINC
 40
0.1
  9
$FILLETRAD
 40
0.0
  9
$AUNITS
 70
     0
  9
$AUPREC
 70
     0
  9
$MENU
  1
ACAD
  9
$ELEVATION
 40
0.0
  9
$PELEVATION
 40
0.0
  9
$THICKNESS
 40
0.0
  9
$LIMCHECK
 70
     0
  9
$CHAMFERA
 40
0.0
  9
$CHAMFERB
 40
0.0
  9
$CHAMFERC
 40
0.0
  9
$CHAMFERD
 40
0.0
  9
$SKPOLY
 70
     0
  9
$TDCREATE
 40
2449637.657424189
  9
$TDUCREATE
 40
2449637.949090856
  9
$TDUPDATE
 40
2453045.461028021
  9
$TDUUPDATE
 40
2453045.752694687
  9
$TDINDWG
 40
0.8887749884
  9
$TDUSRTIMER
 40
0.8887749884
  9
$USRTIMER
 70
     1
  9
$ANGBASE
 50
0.0
  9
$ANGDIR
 70
     0
  9
$PDMODE
 70
     0
  9
$PDSIZE
 40
0.0
  9
$PLINEWID
 40
0.0
  9
$SPLFRAME
 70
     0
  9
$SPLINETYPE
 70
     6
  9
$SPLINESEGS
 70
     8
  9
$HANDSEED
  5
B86
  9
$SURFTAB1
 70
     6
  9
$SURFTAB2
 70
     6
  9
$SURFTYPE
 70
     6
  9
$SURFU
 70
     6
  9
$SURFV
 70
     6
  9
$UCSBASE
  2

  9
$UCSNAME
  2

  9
$UCSORG
 10
0.0
 20
0.0
 30
0.0
  9
$UCSXDIR
 10
1.0
 20
0.0
 30
0.0
  9
$UCSYDIR
 10
0.0
 20
1.0
 30
0.0
  9
$UCSORTHOREF
  2

  9
$UCSORTHOVIEW
 70
     0
  9
$UCSORGTOP
 10
0.0
 20
0.0
 30
0.0
  9
$UCSORGBOTTOM
 10
0.0
 20
0.0
 30
0.0
  9
$UCSORGLEFT
 10
0.0
 20
0.0
 30
0.0
  9
$UCSORGRIGHT
 10
0.0
 20
0.0
 30
0.0
  9
$UCSORGFRONT
 10
0.0
 20
0.0
 30
0.0
  9
$UCSORGBACK
 10
0.0
 20
0.0
 30
0.0
  9
$PUCSBASE
  2

  9
$PUCSNAME
  2

  9
$PUCSORG
 10
0.0
 20
0.0
 30
0.0
  9
$PUCSXDIR
 10
1.0
 20
0.0
 30
0.0
  9
$PUCSYDIR
 10
0.0
 20
1.0
 30
0.0
  9
$PUCSORTHOREF
  2

  9
$PUCSORTHOVIEW
 70
     0
  9
$PUCSORGTOP
 10
0.0
 20
0.0
 30
0.0
  9
$PUCSORGBOTTOM
 10
0.0
 20
0.0
 30
0.0
  9
$PUCSORGLEFT
 10
0.0
 20
0.0
 30
0.0
  9
$PUCSORGRIGHT
 10
0.0
 20
0.0
 30
0.0
  9
$PUCSORGFRONT
 10
0.0
 20
0.0
 30
0.0
  9
$PUCSORGBACK
 10
0.0
 20
0.0
 30
0.0
  9
$USERI1
 70
     0
  9
$USERI2
 70
     0
  9
$USERI3
 70
     0
  9
$USERI4
 70
     0
  9
$USERI5
 70
     0
  9
$USERR1
 40
0.0
  9
$USERR2
 40
0.0
  9
$USERR3
 40
0.0
  9
$USERR4
 40
0.0
  9
$USERR5
 40
0.0
  9
$WORLDVIEW
 70
     1
  9
$SHADEDGE
 70
     3
  9
$SHADEDIF
 70
    70
  9
$TILEMODE
 70
     1
  9
$MAXACTVP
 70
    16
  9
$PINSBASE
 10
0.0
 20
0.0
 30
0.0
  9
$PLIMCHECK
 70
     0
  9
$PEXTMIN
 10
1.000000000000000E+20
 20
1.000000000000000E+20
 30
1.000000000000000E+20
  9
$PEXTMAX
 10
-1.000000000000000E+20
 20
-1.000000000000000E+20
 30
-1.000000000000000E+20
  9
$PLIMMIN
 10
0.0
 20
0.0
  9
$PLIMMAX
 10
12.0
 20
9.0
  9
$UNITMODE
 70
     0
  9
$VISRETAIN
 70
     0
  9
$PLINEGEN
 70
     1
  9
$PSLTSCALE
 70
     1
  9
$TREEDEPTH
 70
  3020
  9
$CMLSTYLE
  2
STANDARD
  9
$CMLJUST
 70
     0
  9
$CMLSCALE
 40
1.0
  9
$PROXYGRAPHICS
 70
     1
  9
$MEASUREMENT
 70
     0
  9
$CELWEIGHT
370
    -1
  9
$ENDCAPS
280
     0
  9
$JOINSTYLE
280
     0
  9
$LWDISPLAY
290
     0
  9
$INSUNITS
 70
     0
  9
$HYPERLINKBASE
  1

  9
$STYLESHEET
  1
8500ColorShaded.ctb
  9
$XEDIT
290
     1
  9
$CEPSNTYPE
380
     0
  9
$PSTYLEMODE
290
     1
  9
$FINGERPRINTGUID
  2
{23D4582D-F302-486E-832C-FA2ED620F163}
  9
$VERSIONGUID
  2
{5B66DDF8-B590-4226-9165-D302DBBBDECD}
  9
$EXTNAMES
290
     1
  9
$PSVPSCALE
 40
0.0
  9
$OLESTARTUP
290
     0
  0
ENDSEC
  0
SECTION
  2
CLASSES
  0
CLASS
  1
DICTIONARYVAR
  2
AcDbDictionaryVar
  3
AutoCAD 2000
 90
        0
280
     0
281
     0
  0
CLASS
  1
LWPOLYLINE
  2
AcDbPolyline
  3
AutoCAD 2000
 90
    32768
280
     0
281
     1
  0
CLASS
  1
HATCH
  2
AcDbHatch
  3
AutoCAD 2000
 90
    32768
280
     0
281
     1
  0
CLASS
  1
XRECORD
  2
AcDbXrecord
  3
AutoCAD 2000
 90
    32768
280
     0
281
     0
  0
CLASS
  1
ACDBDICTIONARYWDFLT
  2
AcDbDictionaryWithDefault
  3
AutoCAD 2000
 90
        0
280
     0
281
     0
  0
CLASS
  1
ACDBPLACEHOLDER
  2
AcDbPlaceHolder
  3
AutoCAD 2000
 90
        0
280
     0
281
     0
  0
CLASS
  1
LAYOUT
  2
AcDbLayout
  3
AutoCAD 2000
 90
        0
280
     0
281
     0
  0
CLASS
  1
PLOTSETTINGS
  2
AcDbPlotSettings
  3
AutoCAD 2000
 90
        0
280
     0
281
     0
  0
ENDSEC
  0
SECTION
  2
TABLES
  0
TABLE
  2
VPORT
  5
8
330
0
100
AcDbSymbolTable
 70
     3
  0
VPORT
  5
B85
330
8
100
AcDbSymbolTableRecord
100
AcDbViewportTableRecord
  2
*Active
 70
     0
 10
0.0
 20
0.0
 11
1.0
 21
1.0
 12
7.611868726999237
 22
4.639045760757216
 13
0.0
 23
0.0
 14
0.14
 24
0.14
 15
0.14
 25
0.14
 16
0.0
 26
0.0
 36
1.0
 17
0.0
 27
0.0
 37
0.0
 40
10.53742588936064
 41
1.639044943820224
 42
50.0
 43
0.0
 44
0.0
 50
0.0
 51
0.0
 71
     0
 72
  5000
 73
     1
 74
     1
 75
     0
 76
     0
 77
     0
 78
     0
281
     0
 65
     1
110
0.0
120
0.0
130
0.0
111
1.0
121
0.0
131
0.0
112
0.0
122
1.0
132
0.0
 79
     0
146
0.0
  0
ENDTAB
  0
TABLE
  2
LTYPE
  5
5
330
0
100
AcDbSymbolTable
 70
     1
  0
LTYPE
  5
11
330
5
100
AcDbSymbolTableRecord
100
AcDbLinetypeTableRecord
  2
BYBLOCK
 70
     0
  3

 72
    65
 73
     0
 40
0.0
  0
LTYPE
  5
12
330
5
100
AcDbSymbolTableRecord
100
AcDbLinetypeTableRecord
  2
BYLAYER
 70
     0
  3

 72
    65
 73
     0
 40
0.0
  0
LTYPE
  5
13
330
5
100
AcDbSymbolTableRecord
100
AcDbLinetypeTableRecord
  2
CONTINUOUS
 70
     0
  3
Solid line
 72
    65
 73
     0
 40
0.0
  0
ENDTAB
  0
TABLE
  2
LAYER
  5
2
102
{ACAD_XDICTIONARY
360
98E
102
}
330
0
100
AcDbSymbolTable
 70
    10
  0
LAYER
  5
E
330
2
100
AcDbSymbolTableRecord
100
AcDbLayerTableRecord
  2
0
 70
     0
 62
     7
  6
CONTINUOUS
370
    -3
390
5FB
1001
RAK
1000
{T22-RBSA
1070
     0
1070
     7
1000
CONTINUOUS
1000
T22-RBSA}
  0
LAYER
  5
22
330
2
100
AcDbSymbolTableRecord
100
AcDbLayerTableRecord
  2
TEXT_BUBBLES
 70
     0
 62
    -6
  6
CONTINUOUS
370
    -3
390
5FB
1001
RAK
1000
{T22-RBSA
1070
     0
1070
     6
1000
CONTINUOUS
1000
T22-RBSA}
  0
LAYER
  5
23
330
2
100
AcDbSymbolTableRecord
100
AcDbLayerTableRecord
  2
IMAGE
 70
     0
 62
     7
  6
CONTINUOUS
370
    -3
390
5FB
1001
RAK
1000
{T22-RBSA
1070
     0
1070
     7
1000
CONTINUOUS
1000
T22-RBSA}
  0
LAYER
  5
26
330
2
100
AcDbSymbolTableRecord
100
AcDbLayerTableRecord
  2
TEXT_LEADERS
 70
     0
 62
     5
  6
CONTINUOUS
370
    -3
390
5FB
1001
RAK
1000
{T22-RBSA
1070
     0
1070
    -5
1000
CONTINUOUS
1000
T22-RBSA}
  0
LAYER
  5
27
330
2
100
AcDbSymbolTableRecord
100
AcDbLayerTableRecord
  2
INSTRUCT-OPTION
 70
     0
 62
     7
  6
CONTINUOUS
370
    -3
390
5FB
1001
RAK
1000
{T22-RBSA
1070
     0
1070
    -7
1000
CONTINUOUS
1000
T22-RBSA}
  0
LAYER
  5
28
330
2
100
AcDbSymbolTableRecord
100
AcDbLayerTableRecord
  2
INSTRUCT-CALLOUT
 70
     0
 62
     4
  6
CONTINUOUS
370
    -3
390
5FB
1001
RAK
1000
{T22-RBSA
1070
     0
1070
    -4
1000
CONTINUOUS
1000
T22-RBSA}
  0
LAYER
  5
38A
330
2
100
AcDbSymbolTableRecord
100
AcDbLayerTableRecord
  2
OPTION-3500-S-SAM
 70
     0
 62
    -1
  6
CONTINUOUS
370
    -3
390
5FB
1001
RAK
1000
{T22-RBSA
1070
     0
1070
    -1
1000
CONTINUOUS
1000
T22-RBSA}
  0
LAYER
  5
38E
330
2
100
AcDbSymbolTableRecord
100
AcDbLayerTableRecord
  2
OPTION-3500-S
 70
     0
 62
    -1
  6
CONTINUOUS
370
    -3
390
5FB
1001
RAK
1000
{T22-RBSA
1070
     0
1070
    -1
1000
CONTINUOUS
1000
T22-RBSA}
  0
LAYER
  5
38F
330
2
100
AcDbSymbolTableRecord
100
AcDbLayerTableRecord
  2
OPTION-3500-S-SAM-NP
 70
     0
 62
     1
  6
CONTINUOUS
370
    -3
390
5FB
1001
RAK
1000
{T22-RBSA
1070
     0
1070
    -1
1000
CONTINUOUS
1000
T22-RBSA}
  0
LAYER
  5
B29
330
2
100
AcDbSymbolTableRecord
100
AcDbLayerTableRecord
  2
TITLE
 70
     0
 62
     4
  6
CONTINUOUS
370
    -3
390
5FB
  0
ENDTAB
  0
TABLE
  2
STYLE
  5
3
330
0
100
AcDbSymbolTable
 70
     6
  0
STYLE
  5
F
330
3
100
AcDbSymbolTableRecord
100
AcDbTextStyleTableRecord
  2
STANDARD
 70
     0
 40
0.0
 41
1.0
 50
0.0
 71
     0
 42
0.2
  3
txt
  4

  0
STYLE
  5
1E
330
3
100
AcDbSymbolTableRecord
100
AcDbTextStyleTableRecord
  2
ROMANS
 70
     0
 40
0.0
 41
1.0
 50
0.0
 71
     0
 42
0.1
  3
ROMANS.SHX
  4

  0
STYLE
  5
1F
330
3
100
AcDbSymbolTableRecord
100
AcDbTextStyleTableRecord
  2
SIMPLEX
 70
     0
 40
0.0
 41
1.0
 50
0.0
 71
     0
 42
0.1
  3
SIMPLEX
  4

  0
STYLE
  5
B2A
330
3
100
AcDbSymbolTableRecord
100
AcDbTextStyleTableRecord
  2
L100
 70
     0
 40
0.1
 41
1.0
 50
0.0
 71
     0
 42
0.1
  3
romans.shx
  4

  0
STYLE
  5
B2B
330
3
100
AcDbSymbolTableRecord
100
AcDbTextStyleTableRecord
  2
L200
 70
     0
 40
0.2
 41
1.0
 50
0.0
 71
     0
 42
0.081
  3
ARIAL.TTF
  4

1001
ACAD
1000
Arial
1071
       34
  0
STYLE
  5
B2C
330
3
100
AcDbSymbolTableRecord
100
AcDbTextStyleTableRecord
  2
L80
 70
     0
 40
0.08
 41
1.0
 50
0.0
 71
     0
 42
0.08
  3
ROMANS
  4

  0
ENDTAB
  0
TABLE
  2
VIEW
  5
6
330
0
100
AcDbSymbolTable
 70
     0
  0
ENDTAB
  0
TABLE
  2
UCS
  5
7
330
0
100
AcDbSymbolTable
 70
     0
  0
ENDTAB
  0
TABLE
  2
APPID
  5
9
330
0
100
AcDbSymbolTable
 70
     3
  0
APPID
  5
10
330
9
100
AcDbSymbolTableRecord
100
AcDbRegAppTableRecord
  2
ACAD
 70
     0
  0
APPID
  5
54F
330
9
100
AcDbSymbolTableRecord
100
AcDbRegAppTableRecord
  2
RAK
 70
     0
  0
APPID
  5
B2D
330
9
100
AcDbSymbolTableRecord
100
AcDbRegAppTableRecord
  2
DCO15
 70
     0
  0
ENDTAB
  0
TABLE
  2
DIMSTYLE
  5
A
330
0
100
AcDbSymbolTable
 70
     1
100
AcDbDimStyleTable
 71
     0
  0
DIMSTYLE
105
381
102
{ACAD_REACTORS
330
B17
330
B16
330
B15
330
B13
330
B12
330
B11
330
B10
102
}
330
A
100
AcDbSymbolTableRecord
100
AcDbDimStyleTableRecord
  2
STANDARD
 70
     0
340
F
  0
ENDTAB
  0
TABLE
  2
BLOCK_RECORD
  5
1
330
0
100
AcDbSymbolTable
 70
     1
  0
BLOCK_RECORD
  5
17
330
1
100
AcDbSymbolTableRecord
100
AcDbBlockTableRecord
  2
*MODEL_SPACE
340
5FE
  0
BLOCK_RECORD
  5
14
330
1
100
AcDbSymbolTableRecord
100
AcDbBlockTableRecord
  2
*PAPER_SPACE
340
5FF
  0
BLOCK_RECORD
  5
B2E
330
1
100
AcDbSymbolTableRecord
100
AcDbBlockTableRecord
  2
titleblock
340
0
102
{BLKREFS
331
B3D
102
}
  0
ENDTAB
  0
ENDSEC
  0
SECTION
  2
BLOCKS
  0
BLOCK
  5
2E
330
17
100
AcDbEntity
  8
0
100
AcDbBlockBegin
  2
*MODEL_SPACE
 70
     0
 10
0.0
 20
0.0
 30
0.0
  3
*MODEL_SPACE
  1

  0
ENDBLK
  5
2F
330
17
100
AcDbEntity
  8
0
100
AcDbBlockEnd
  0
BLOCK
  5
2C
330
14
100
AcDbEntity
 67
     1
  8
0
100
AcDbBlockBegin
  2
*PAPER_SPACE
 70
     0
 10
0.0
 20
0.0
 30
0.0
  3
*PAPER_SPACE
  1

  0
ENDBLK
  5
2D
330
14
100
AcDbEntity
 67
     1
  8
0
100
AcDbBlockEnd
  0
BLOCK
  5
B3A
330
B2E
100
AcDbEntity
  8
0
100
AcDbBlockBegin
  2
titleblock
 70
     2
 10
0.0
 20
0.0
 30
0.0
  3
titleblock
  1

  0
LWPOLYLINE
  5
B2F
330
B2E
100
AcDbEntity
  8
IMAGE
100
AcDbPolyline
 90
        4
 70
     1
 43
0.0
 10
0.0
 20
0.0
 10
16.48999999999999
 20
0.0000000000000001
 10
16.48999999999999
 20
10.44
 10
0.0
 20
10.44
  0
ATTDEF
  5
B30
330
B2E
100
AcDbEntity
  8
TITLE
100
AcDbText
 10
0.5055556038023421
 20
0.7842270964783673
 30
0.0
 40
0.2
  1
D
  7
L200
 72
     4
 11
0.6064423705144839
 21
0.8842270964783672
 31
0.0
100
AcDbAttributeDefinition
  3
#
  2
D
 70
     0
  0
ATTDEF
  5
B31
330
B2E
100
AcDbEntity
  8
TITLE
100
AcDbText
 10
1.231442370514484
 20
1.34371230274675
 30
0.0
 40
0.2
  1

  7
L200
100
AcDbAttributeDefinition
  3
DETAIL TITLE TOP LINE
  2
TITLE1
 70
     0
  0
ATTDEF
  5
B32
330
B2E
100
AcDbEntity
  8
TITLE
100
AcDbText
 10
1.231442370514484
 20
0.9842270964783674
 30
0.0
 40
0.2
  1
TITLE
  7
L200
100
AcDbAttributeDefinition
  3
DETAIL TITLE TOP 2ND LINE
  2
TITLE2
 70
     0
  0
ATTDEF
  5
B33
330
B2E
100
AcDbEntity
  8
TITLE
100
AcDbText
 10
2.713645751168312
 20
0.5927927664583189
 30
0.0
 40
0.2
  1
TITLE2
  7
L200
100
AcDbAttributeDefinition
  3
DETAIL TITLE BOTTOM 1
  2
TITLE3
 70
     0
  0
ATTDEF
  5
B34
330
B2E
100
AcDbEntity
  8
TITLE
100
AcDbText
 10
2.713645751168312
 20
0.2692560808167741
 30
0.0
 40
0.2
  1

  7
L200
100
AcDbAttributeDefinition
  3
DETAIL TITLE BOTTOM 2
  2
TITLE4
 70
     0
  0
ATTDEF
  5
B35
330
B2E
100
AcDbEntity
  8
TITLE
 62
     7
100
AcDbText
 10
8.177214829966379
 20
0.9696027915446398
 30
0.0
 40
0.08
  1
-
  7
L80
 72
     2
 11
8.261024353775903
 21
0.9696027915446398
 31
0.0
100
AcDbAttributeDefinition
  3
REVISION DATE
  2
REVISED
 70
     0
  0
ATTDEF
  5
B36
330
B2E
100
AcDbEntity
  8
TITLE
 62
     7
100
AcDbText
 10
0.2639423705144838
 20
0.0847116480207214
 30
0.0
 40
0.08
  1
-
  7
L80
100
AcDbAttributeDefinition
  3
DWG-NAME
  2
DWG-NAME
 70
     0
  0
LWPOLYLINE
  5
B37
330
B2E
100
AcDbEntity
  8
TITLE
 62
     3
100
AcDbPolyline
 90
        2
 70
     1
 43
0.03
 10
0.6064423705144839
 20
0.5417270964783675
 42
0.9999999999999998
 10
0.6064423705144839
 20
1.226727096478367
 42
0.9999999999999998
  0
ATTDEF
  5
B38
330
B2E
100
AcDbEntity
  8
TITLE
 62
     7
100
AcDbText
 10
1.231442370514484
 20
0.7005637793954894
 30
0.0
 40
0.1
  1
N.T.S.
  7
L100
100
AcDbAttributeDefinition
  3
SCALE
  2
SCALE
 70
     0
  0
LWPOLYLINE
  5
B39
330
B2E
100
AcDbEntity
  8
TITLE
 62
     3
100
AcDbPolyline
 90
        2
 70
     0
 43
0.04
 39
0.03
 10
0.9489423705144833
 20
0.8842270964783672
 10
8.261024353775903
 20
0.8842270964783672
  0
ENDBLK
  5
B3B
330
B2E
100
AcDbEntity
  8
0
100
AcDbBlockEnd
  0
ENDSEC
  0
SECTION
  2
ENTITIES
  0
LWPOLYLINE
  5
133
330
17
100
AcDbEntity
  8
IMAGE
100
AcDbPolyline
 90
        2
 70
     0
 43
0.0
 10
1.987525777467761
 20
2.517871056785894
 10
1.939012116373872
 20
2.288726022470771
  0
LINE
  5
137
330
17
100
AcDbEntity
  8
IMAGE
100
AcDbLine
 10
2.022613762385525
 20
2.530484379117233
 30
0.0
 11
1.965811364390531
 21
2.262189075397435
 31
0.0
  0
LINE
  5
138
330
17
100
AcDbEntity
  8
IMAGE
100
AcDbLine
 10
3.609585783508087
 20
2.193655627176209
 30
0.0
 11
3.552783385513093
 21
1.925360323456412
 31
0.0
  0
LWPOLYLINE
  5
139
330
17
100
AcDbEntity
  8
IMAGE
100
AcDbPolyline
 90
        2
 70
     0
 43
0.0
 10
3.637186739509263
 20
2.167539839123666
 10
3.588673078415375
 20
1.938394804808543
  0
LWPOLYLINE
  5
142
330
17
100
AcDbEntity
  8
IMAGE
100
AcDbPolyline
 90
        2
 70
     0
 43
0.0
 10
1.412138328557216
 20
2.788703750048455
 10
1.646362627177174
 20
2.788703750048455
  0
LINE
  5
146
330
17
100
AcDbEntity
  8
IMAGE
100
AcDbLine
 10
1.394099349894006
 20
2.822485853253079
 30
0.0
 11
1.668341728851161
 21
2.822485853253079
 31
0.0
  0
LWPOLYLINE
  5
147
330
17
100
AcDbEntity
  8
IMAGE
100
AcDbPolyline
 90
        4
 70
     0
 43
0.0
 10
0.5028960487013058
 20
2.118939262244484
 42
0.6332430429610296
 10
0.5028960487013058
 20
1.955417401744128
 42
-0.6332430429610812
 10
0.5028960487013058
 20
1.791895541243773
 42
-0.6134111328532366
 10
0.5028960487013085
 20
1.955417401744127
 42
-0.6134111328532366
  0
LWPOLYLINE
  5
14D
330
17
100
AcDbEntity
  8
IMAGE
100
AcDbPolyline
 90
        4
 70
     0
 43
0.0
 10
5.114284034108845
 20
2.121296052953042
 42
-0.6332430429610296
 10
5.114284034108845
 20
1.957774192452687
 42
0.6332430429610812
 10
5.114284034108845
 20
1.794252331952332
 42
0.6134111328532366
 10
5.114284034108843
 20
1.957774192452686
 42
0.6134111328532366
  0
ARC
  5
153
330
17
100
AcDbEntity
  8
IMAGE
100
AcDbCircle
 10
1.530110266100007
 20
2.499818602418166
 30
0.0
 40
0.1616993430891158
100
AcDbArc
 50
179.379115872957
 51
0.2371380430744057
  0
LINE
  5
154
330
17
100
AcDbEntity
  8
IMAGE
100
AcDbLine
 10
3.615614415189284
 20
1.911769040382986
 30
0.0
 11
1.901641578082997
 21
2.27464444631107
 31
0.0
  0
LINE
  5
155
330
17
100
AcDbEntity
  8
IMAGE
100
AcDbLine
 10
3.672956266515251
 20
2.179949566340019
 30
0.0
 11
1.958983429408964
 21
2.542824972268102
 31
0.0
  0
LINE
  5
156
330
17
100
AcDbEntity
  8
IMAGE
100
AcDbLine
 10
1.369754741839551
 20
2.757082348339285
 30
0.0
 11
1.69129636059151
 21
2.757082348339285
 31
0.0
  0
LINE
  5
157
330
17
100
AcDbEntity
  8
IMAGE
100
AcDbLine
 10
1.369754741839551
 20
2.757082348339285
 30
0.0
 11
1.368410923010891
 21
2.499818602418166
 31
0.0
  0
LINE
  5
158
330
17
100
AcDbEntity
  8
IMAGE
100
AcDbLine
 10
1.691296360591512
 20
2.757082348339285
 30
0.0
 11
1.691809609189122
 21
2.499818602418166
 31
0.0
  0
LINE
  5
159
330
17
100
AcDbEntity
  8
IMAGE
100
AcDbLine
 10
4.495348847546798
 20
2.161596218033047
 30
0.0
 11
4.495348847546797
 21
1.755460048181807
 31
0.0
  0
LINE
  5
15A
330
17
100
AcDbEntity
  8
IMAGE
100
AcDbLine
 10
3.67581118799984
 20
2.195100476148756
 30
0.0
 11
4.071252446484844
 21
2.111159953968049
 31
0.0
  0
LINE
  5
15B
330
17
100
AcDbEntity
  8
IMAGE
100
AcDbLine
 10
3.611821353720939
 20
1.895828181725159
 30
0.0
 11
4.007137481091347
 21
1.811302437279187
 31
0.0
  0
LINE
  5
15C
330
17
100
AcDbEntity
  8
IMAGE
100
AcDbLine
 10
4.071252446484844
 20
2.111159953968049
 30
0.0
 11
4.090140011084206
 21
2.075509032708097
 31
0.0
  0
LINE
  5
15D
330
17
100
AcDbEntity
  8
IMAGE
100
AcDbLine
 10
4.007137481091347
 20
1.811302437279187
 30
0.0
 11
4.040950408679337
 21
1.832023169505381
 31
0.0
  0
LINE
  5
15E
330
17
100
AcDbEntity
  8
IMAGE
100
AcDbLine
 10
4.040950408679337
 20
1.832023169505379
 30
0.0
 11
4.090140011084206
 21
2.075509032708097
 31
0.0
  0
ARC
  5
15F
330
17
100
AcDbEntity
  8
IMAGE
100
AcDbCircle
 10
4.035619969304421
 20
1.959811670514783
 30
0.0
 40
0.1278996269508259
100
AcDbArc
 50
272.3885930691139
 51
64.76879059918148
  0
LINE
  5
160
330
17
100
AcDbEntity
  8
IMAGE
100
AcDbLine
 10
1.898405983840504
 20
2.259266898960653
 30
0.0
 11
1.521626392370539
 21
2.338341974257933
 31
0.0
  0
LINE
  5
161
330
17
100
AcDbEntity
  8
IMAGE
100
AcDbLine
 10
1.961419527682693
 20
2.558746277871878
 30
0.0
 11
1.691588446299545
 21
2.615938784993951
 31
0.0
  0
LINE
  5
162
330
17
100
AcDbEntity
  8
IMAGE
100
AcDbLine
 10
1.961419527682693
 20
2.558746277871878
 30
0.0
 11
1.898405983840504
 21
2.259266898960655
 31
0.0
  0
LINE
  5
163
330
17
100
AcDbEntity
  8
IMAGE
100
AcDbLine
 10
3.67581118799984
 20
2.195100476148756
 30
0.0
 11
3.611821353720939
 21
1.89582818172516
 31
0.0
  0
LINE
  5
164
330
17
100
AcDbEntity
  8
IMAGE
100
AcDbLine
 10
4.495348847546798
 20
1.755460048181807
 30
0.0
 11
3.573885146968404
 21
1.755460048181807
 31
0.0
  0
LINE
  5
165
330
17
100
AcDbEntity
  8
IMAGE
100
AcDbLine
 10
3.573885146968402
 20
1.920603792496268
 30
0.0
 11
3.573885146968404
 21
1.755460048181809
 31
0.0
  0
LINE
  5
166
330
17
100
AcDbEntity
  8
IMAGE
100
AcDbLine
 10
4.071252446484847
 20
2.111159953968049
 30
0.0
 11
4.007137481091347
 21
1.811302437279187
 31
0.0
  0
LINE
  5
167
330
17
100
AcDbEntity
  8
IMAGE
100
AcDbLine
 10
5.114284034108845
 20
2.121296052953042
 30
0.0
 11
4.495348847546798
 21
2.121296052953042
 31
0.0
  0
LINE
  5
168
330
17
100
AcDbEntity
  8
IMAGE
100
AcDbLine
 10
5.114284034108845
 20
1.794252331952332
 30
0.0
 11
4.495348847546797
 21
1.794252331952332
 31
0.0
  0
LINE
  5
169
330
17
100
AcDbEntity
  8
IMAGE
100
AcDbLine
 10
3.573885146968404
 20
1.791895541243772
 30
0.0
 11
0.5028960487013058
 21
1.791895541243773
 31
0.0
  0
LINE
  5
16A
330
17
100
AcDbEntity
  8
IMAGE
100
AcDbLine
 10
2.637085346734685
 20
2.118939262244484
 30
0.0
 11
0.5028960487013058
 21
2.118939262244484
 31
0.0
  0
LINE
  5
16B
330
17
100
AcDbEntity
  8
IMAGE
100
AcDbLine
 10
3.833648733558107
 20
2.161596218033047
 30
0.0
 11
4.495348847546798
 21
2.161596218033048
 31
0.0
  0
LINE
  5
16C
330
17
100
AcDbEntity
  8
IMAGE
100
AcDbLine
 10
1.394089708459234
 20
4.656506533940108
 30
0.0
 11
1.394094055459062
 21
3.854216887183454
 31
0.0
  0
LINE
  5
16D
330
17
100
AcDbEntity
  8
IMAGE
100
AcDbLine
 10
1.668327739336221
 20
4.656506533940108
 30
0.0
 11
1.6683160226368
 21
3.854216887183454
 31
0.0
  0
LINE
  5
16E
330
17
100
AcDbEntity
  8
IMAGE
100
AcDbLine
 10
1.394091808272837
 20
4.268961380869543
 30
0.0
 11
0.3335884054450106
 21
4.268961380869543
 31
0.0
  0
LINE
  5
181
330
17
100
AcDbEntity
  8
IMAGE
100
AcDbLine
 10
3.375959175092281
 20
4.268961380869543
 30
0.0
 11
1.668322079597136
 21
4.268961380869543
 31
0.0
  0
TEXT
  5
182
330
17
100
AcDbEntity
  8
TEXT_LEADERS
100
AcDbText
 10
5.179999999999999
 20
2.434226908795962
 30
0.0
 40
0.125
  1
PVC SCH 40 STREET ELL
  7
ROMANS
100
AcDbText
  0
TEXT
  5
187
330
17
100
AcDbEntity
  8
TEXT_LEADERS
100
AcDbText
 10
5.179999999999999
 20
0.9318585663780801
 30
0.0
 40
0.125
  1
PVC LATERAL PIPE
  7
ROMANS
100
AcDbText
  0
TEXT
  5
188
330
17
100
AcDbEntity
  8
TEXT_LEADERS
100
AcDbText
 10
5.179999999999999
 20
3.484226908795962
 30
0.0
 40
0.125
  1
PVC SCH 40 STREET ELL
  7
ROMANS
100
AcDbText
  0
TEXT
  5
189
330
17
100
AcDbEntity
  8
TEXT_LEADERS
100
AcDbText
 10
5.179999999999999
 20
3.834226908795962
 30
0.0
 40
0.125
  1
PVC SCH 40 ELL
  7
ROMANS
100
AcDbText
  0
TEXT
  5
18B
330
17
100
AcDbEntity
  8
TEXT_LEADERS
100
AcDbText
 10
5.179999999999999
 20
6.255430503516768
 30
0.0
 40
0.125
  1
ROTOR SPRINKLER:
  7
ROMANS
100
AcDbText
  0
TEXT
  5
18C
330
17
100
AcDbEntity
  8
TEXT_LEADERS
100
AcDbText
 10
5.179999999999999
 20
6.080430503516767
 30
0.0
 40
0.125
  1
  RAIN BIRD
  7
ROMANS
100
AcDbText
  0
TEXT
  5
18D
330
17
100
AcDbEntity
  8
TEXT_BUBBLES
100
AcDbText
 10
5.179999999999999
 20
5.202744570472955
 30
0.0
 40
0.125
  1
FINISH GRADE
  7
ROMANS
100
AcDbText
  0
LWPOLYLINE
  5
19C
330
17
100
AcDbEntity
  8
TEXT_LEADERS
100
AcDbPolyline
 90
        2
 70
     0
 43
0.0
 10
4.784697326828971
 20
2.367120053953105
 10
5.12162048492213
 20
2.367120053953105
  0
LWPOLYLINE
  5
1A0
330
17
100
AcDbEntity
  8
TEXT_LEADERS
100
AcDbPolyline
 90
        2
 70
     0
 43
0.0
 10
4.784697326828971
 20
2.778968473361073
 10
5.12162048492213
 20
2.778968473361073
  0
LWPOLYLINE
  5
1A4
330
17
100
AcDbEntity
  8
TEXT_LEADERS
100
AcDbPolyline
 90
        2
 70
     0
 43
0.0
 10
4.784697326828971
 20
3.368091098155916
 10
5.12162048492213
 20
3.368091098155916
  0
LWPOLYLINE
  5
1A8
330
17
100
AcDbEntity
  8
TEXT_LEADERS
100
AcDbPolyline
 90
        2
 70
     0
 43
0.0
 10
4.784697326828971
 20
3.565520596157504
 10
5.12162048492213
 20
3.565520596157504
  0
LWPOLYLINE
  5
1AC
330
17
100
AcDbEntity
  8
TEXT_LEADERS
100
AcDbPolyline
 90
        2
 70
     0
 43
0.0
 10
4.784697326828971
 20
4.222671687166028
 10
5.12162048492213
 20
4.222671687166028
  0
LWPOLYLINE
  5
1B4
330
17
100
AcDbEntity
  8
TEXT_LEADERS
100
AcDbPolyline
 90
        2
 70
     0
 43
0.0
 10
4.784697326828971
 20
5.270847216642742
 10
5.12162048492213
 20
5.270847216642742
  0
TEXT
  5
1BD
330
17
100
AcDbEntity
  8
TEXT_BUBBLES
100
AcDbText
 10
5.179999999999999
 20
6.077744570472955
 30
0.0
 40
0.125
  1
  RAIN BIRD
  7
ROMANS
100
AcDbText
  0
TEXT
  5
1C0
330
17
100
AcDbEntity
  8
TEXT_BUBBLES
100
AcDbText
 10
5.179999999999999
 20
4.152744570472955
 30
0.0
 40
0.125
  1
PVC SCH 40 ELL
  7
ROMANS
100
AcDbText
  0
TEXT
  5
1C1
330
17
100
AcDbEntity
  8
TEXT_BUBBLES
100
AcDbText
 10
5.179999999999999
 20
3.802744570472955
 30
0.0
 40
0.125
  1
PVC SCH 40 STREET ELL
  7
ROMANS
100
AcDbText
  0
TEXT
  5
1C3
330
17
100
AcDbEntity
  8
TEXT_BUBBLES
100
AcDbText
 10
5.179999999999999
 20
2.927744570472955
 30
0.0
 40
0.125
  1

  7
ROMANS
100
AcDbText
  0
TEXT
  5
1C4
330
17
100
AcDbEntity
  8
TEXT_BUBBLES
100
AcDbText
 10
5.179999999999999
 20
2.577744570472955
 30
0.0
 40
0.125
  1

  7
ROMANS
100
AcDbText
  0
TEXT
  5
1C5
330
17
100
AcDbEntity
  8
TEXT_LEADERS
100
AcDbText
 10
5.179999999999999
 20
1.456858566378079
 30
0.0
 40
0.125
  1
PVC SCH 40 TEE OR ELL
  7
ROMANS
100
AcDbText
  0
CIRCLE
  5
1D4
330
17
100
AcDbEntity
  8
TEXT_BUBBLES
100
AcDbCircle
 10
4.42884241688742
 20
1.444483346453511
 30
0.0
 40
0.1562500000000004
  0
TEXT
  5
1D5
330
17
100
AcDbEntity
  8
TEXT_BUBBLES
100
AcDbText
 10
4.36931860736361
 20
1.381983346453511
 30
0.0
 40
0.1250000000000003
  1
8
  7
ROMANS
 72
     4
 11
4.42884241688742
 21
1.444483346453511
 31
0.0
100
AcDbText
  0
CIRCLE
  5
1D6
330
17
100
AcDbEntity
  8
TEXT_BUBBLES
100
AcDbCircle
 10
4.951060686257799
 20
5.266263131202037
 30
0.0
 40
0.1562500000000004
  0
TEXT
  5
1D7
330
17
100
AcDbEntity
  8
TEXT_BUBBLES
100
AcDbText
 10
4.891536876733989
 20
5.203763131202037
 30
0.0
 40
0.1250000000000003
  1
3
  7
ROMANS
 72
     4
 11
4.951060686257799
 21
5.266263131202037
 31
0.0
100
AcDbText
  0
TEXT
  5
1D8
330
17
100
AcDbEntity
  8
TEXT_BUBBLES
100
AcDbText
 10
3.912533044435473
 20
3.656060888115755
 30
0.0
 40
0.1250000000000003
  1
4
  7
ROMANS
 72
     4
 11
3.975033044435473
 21
3.718560888115755
 31
0.0
100
AcDbText
  0
CIRCLE
  5
1D9
330
17
100
AcDbEntity
  8
TEXT_BUBBLES
100
AcDbCircle
 10
3.975033044435473
 20
3.718560888115755
 30
0.0
 40
0.1562500000000004
  0
TEXT
  5
1DA
330
17
100
AcDbEntity
  8
TEXT_BUBBLES
100
AcDbText
 10
3.91555547978893
 20
3.296777437430064
 30
0.0
 40
0.1250000000000003
  1
5
  7
ROMANS
 72
     4
 11
3.97507928931274
 21
3.359277437430064
 31
0.0
100
AcDbText
  0
CIRCLE
  5
1DB
330
17
100
AcDbEntity
  8
TEXT_BUBBLES
100
AcDbCircle
 10
3.97507928931274
 20
3.359277437430064
 30
0.0
 40
0.1562500000000004
  0
CIRCLE
  5
1DC
330
17
100
AcDbEntity
  8
TEXT_BUBBLES
100
AcDbCircle
 10
3.975061362771057
 20
3.01579434279523
 30
0.0
 40
0.1562500000000004
  0
TEXT
  5
1DD
330
17
100
AcDbEntity
  8
TEXT_BUBBLES
100
AcDbText
 10
3.912561362771057
 20
2.95329434279523
 30
0.0
 40
0.1250000000000003
  1
6
  7
ROMANS
 72
     4
 11
3.975061362771057
 21
3.01579434279523
 31
0.0
100
AcDbText
  0
TEXT
  5
1DE
330
17
100
AcDbEntity
  8
TEXT_BUBBLES
100
AcDbText
 10
3.915462554861906
 20
2.548097732221273
 30
0.0
 40
0.1250000000000003
  1
7
  7
ROMANS
 72
     4
 11
3.974986364385716
 21
2.610597732221273
 31
0.0
100
AcDbText
  0
CIRCLE
  5
1DF
330
17
100
AcDbEntity
  8
TEXT_BUBBLES
100
AcDbCircle
 10
3.974986364385716
 20
2.610597732221273
 30
0.0
 40
0.1562500000000004
  0
TEXT
  5
1E0
330
17
100
AcDbEntity
  8
TEXT_BUBBLES
100
AcDbText
 10
3.436784068531703
 20
1.381849991399633
 30
0.0
 40
0.1250000000000003
  1
9
  7
ROMANS
 72
     4
 11
3.493331687579322
 21
1.444349991399633
 31
0.0
100
AcDbText
  0
CIRCLE
  5
1E1
330
17
100
AcDbEntity
  8
TEXT_BUBBLES
100
AcDbCircle
 10
3.493331687579322
 20
1.444349991399633
 30
0.0
 40
0.1562500000000004
  0
TEXT
  5
1E2
330
17
100
AcDbEntity
  8
TEXT_BUBBLES
100
AcDbText
 10
4.976881382072504
 20
1.38135731740757
 30
0.0
 40
0.1250000000000003
  1
6
  7
ROMANS
 72
     4
 11
5.039381382072504
 21
1.443857317407571
 31
0.0
100
AcDbText
  0
CIRCLE
  5
1E3
330
17
100
AcDbEntity
  8
TEXT_BUBBLES
100
AcDbCircle
 10
5.039381382072504
 20
1.443857317407571
 30
0.0
 40
0.1562500000000004
  0
TEXT
  5
1E5
330
17
100
AcDbEntity
  8
TEXT_BUBBLES
100
AcDbText
 10
5.179999999999999
 20
4.852744570472955
 30
0.0
 40
0.125
  1
UV RADIATION RESISTANT
  7
ROMANS
100
AcDbText
  0
TEXT
  5
1E6
330
17
100
AcDbEntity
  8
TEXT_BUBBLES
100
AcDbText
 10
5.179999999999999
 20
4.677744570472954
 30
0.0
 40
0.125
  1
  PVC SCH 80 NIPPLE
  7
ROMANS
100
AcDbText
  0
TEXT
  5
1E7
330
17
100
AcDbEntity
  8
TEXT_BUBBLES
100
AcDbText
 10
4.90046544816256
 20
6.245049028202935
 30
0.0
 40
0.1250000000000003
  1
1
  7
ROMANS
 72
     4
 11
4.951060686257799
 21
6.307549028202935
 31
0.0
100
AcDbText
  0
CIRCLE
  5
1E8
330
17
100
AcDbEntity
  8
TEXT_BUBBLES
100
AcDbCircle
 10
4.951060686257799
 20
6.307549028202935
 30
0.0
 40
0.1562500000000004
  0
CIRCLE
  5
1E9
330
17
100
AcDbEntity
  8
TEXT_BUBBLES
100
AcDbCircle
 10
4.951060686257799
 20
4.924871753972348
 30
0.0
 40
0.1562500000000004
  0
TEXT
  5
1EA
330
17
100
AcDbEntity
  8
TEXT_BUBBLES
100
AcDbText
 10
4.888560686257799
 20
4.862371753972348
 30
0.0
 40
0.1250000000000003
  1
4
  7
ROMANS
 72
     4
 11
4.951060686257799
 21
4.924871753972348
 31
0.0
100
AcDbText
  0
TEXT
  5
1EB
330
17
100
AcDbEntity
  8
TEXT_BUBBLES
100
AcDbText
 10
4.891536876733989
 20
4.158708563528284
 30
0.0
 40
0.1250000000000003
  1
5
  7
ROMANS
 72
     4
 11
4.951060686257799
 21
4.221208563528284
 31
0.0
100
AcDbText
  0
CIRCLE
  5
1EC
330
17
100
AcDbEntity
  8
TEXT_BUBBLES
100
AcDbCircle
 10
4.951060686257799
 20
4.221208563528284
 30
0.0
 40
0.1562500000000004
  0
CIRCLE
  5
1ED
330
17
100
AcDbEntity
  8
TEXT_BUBBLES
100
AcDbCircle
 10
4.951060686257799
 20
3.861692456057864
 30
0.0
 40
0.1562500000000004
  0
TEXT
  5
1EE
330
17
100
AcDbEntity
  8
TEXT_BUBBLES
100
AcDbText
 10
4.888560686257799
 20
3.799192456057864
 30
0.0
 40
0.1250000000000003
  1
6
  7
ROMANS
 72
     4
 11
4.951060686257799
 21
3.861692456057864
 31
0.0
100
AcDbText
  0
TEXT
  5
1EF
330
17
100
AcDbEntity
  8
TEXT_BUBBLES
100
AcDbText
 10
4.891536876733989
 20
2.758527157469775
 30
0.0
 40
0.1250000000000003
  1
8
  7
ROMANS
 72
     4
 11
4.951060686257799
 21
2.821027157469775
 31
0.0
100
AcDbText
  0
CIRCLE
  5
1F0
330
17
100
AcDbEntity
  8
TEXT_BUBBLES
100
AcDbCircle
 10
4.951060686257799
 20
2.821027157469775
 30
0.0
 40
0.1562500000000004
  0
CIRCLE
  5
1F1
330
17
100
AcDbEntity
  8
TEXT_BUBBLES
100
AcDbCircle
 10
4.951060686257799
 20
2.46670565501439
 30
0.0
 40
0.1562500000000004
  0
TEXT
  5
1F2
330
17
100
AcDbEntity
  8
TEXT_BUBBLES
100
AcDbText
 10
4.894513067210179
 20
2.40420565501439
 30
0.0
 40
0.1250000000000003
  1
9
  7
ROMANS
 72
     4
 11
4.951060686257799
 21
2.46670565501439
 31
0.0
100
AcDbText
  0
TEXT
  5
1F3
330
17
100
AcDbEntity
  8
TEXT_BUBBLES
100
AcDbText
 10
3.91131664114205
 20
4.3613784210066
 30
0.0
 40
0.1250000000000003
  1
3
  7
ROMANS
 72
     4
 11
3.97084045066586
 21
4.4238784210066
 31
0.0
100
AcDbText
  0
CIRCLE
  5
1F4
330
17
100
AcDbEntity
  8
TEXT_BUBBLES
100
AcDbCircle
 10
3.97084045066586
 20
4.4238784210066
 30
0.0
 40
0.1562500000000004
  0
LINE
  5
234
330
17
100
AcDbEntity
  8
IMAGE
100
AcDbLine
 10
1.699537401685186
 20
6.078941044875766
 30
0.0
 11
1.699512280167287
 21
5.372813770857487
 31
0.0
  0
LINE
  5
235
330
17
100
AcDbEntity
  8
IMAGE
100
AcDbLine
 10
1.362932145184413
 20
6.078950087953357
 30
0.0
 11
1.362941461866457
 21
5.372822813009876
 31
0.0
  0
LWPOLYLINE
  5
258
330
17
100
AcDbEntity
  8
IMAGE
100
AcDbPolyline
 90
        2
 70
     0
 43
0.0
 10
1.320292137410718
 20
6.629311461592753
 10
1.742125611560533
 20
6.629299567977227
  0
LWPOLYLINE
  5
25C
330
17
100
AcDbEntity
  8
IMAGE
100
AcDbPolyline
 90
        2
 70
     0
 43
0.0
 10
1.320292987115077
 20
6.659448112697542
 10
1.742126461264891
 20
6.659436219082015
  0
LWPOLYLINE
  5
260
330
17
100
AcDbEntity
  8
IMAGE
100
AcDbPolyline
 90
        2
 70
     0
 43
0.0
 10
1.342224025623945
 20
6.617309214367754
 10
1.720192023938588
 20
6.617298557541473
  0
LWPOLYLINE
  5
264
330
17
100
AcDbEntity
  8
IMAGE
100
AcDbPolyline
 90
        2
 70
     0
 43
0.0
 10
1.342224025623945
 20
6.617309214367754
 10
1.342224875328304
 20
6.629310843198132
  0
LWPOLYLINE
  5
268
330
17
100
AcDbEntity
  8
IMAGE
100
AcDbPolyline
 90
        2
 70
     0
 43
0.0
 10
1.720192023938588
 20
6.617298557541473
 10
1.720192873642947
 20
6.629300186371854
  0
LWPOLYLINE
  5
26C
330
17
100
AcDbEntity
  8
IMAGE
100
AcDbPolyline
 90
        2
 70
     0
 43
0.0
 10
1.742125611560533
 20
6.629299567977227
 10
1.742126461264891
 20
6.659436219082015
  0
LWPOLYLINE
  5
270
330
17
100
AcDbEntity
  8
IMAGE
100
AcDbPolyline
 90
        2
 70
     0
 43
0.0
 10
1.320292137410718
 20
6.629311461592753
 10
1.320292987115077
 20
6.659448112697542
  0
ARC
  5
278
330
17
100
AcDbEntity
  8
IMAGE
100
AcDbCircle
 10
1.51221570936594
 20
6.420429202973584
 30
0.0
 40
0.059321452594265
100
AcDbArc
 50
180.0
 51
257.2246266635813
  0
LWPOLYLINE
  5
27B
330
17
100
AcDbEntity
  8
IMAGE
100
AcDbPolyline
 90
        2
 70
     0
 43
0.0
 10
1.362930418330856
 20
6.253128149090731
 10
1.699481916385887
 20
6.253119107457388
  0
LWPOLYLINE
  5
27F
330
17
100
AcDbEntity
  8
IMAGE
100
AcDbPolyline
 90
        2
 70
     0
 43
0.0
 10
1.362930583198339
 20
6.259264916225519
 10
1.69948208125337
 20
6.259255874592177
  0
TEXT
  5
283
330
17
100
AcDbEntity
  8
TEXT_BUBBLES
100
AcDbText
 10
5.179999999999999
 20
5.552744570472954
 30
0.0
 40
0.125
  1
PLANT MATERIAL
  7
ROMANS
100
AcDbText
  0
CIRCLE
  5
284
330
17
100
AcDbEntity
  8
TEXT_BUBBLES
100
AcDbCircle
 10
4.951060686257799
 20
5.622117182660011
 30
0.0
 40
0.1562500000000004
  0
TEXT
  5
285
330
17
100
AcDbEntity
  8
TEXT_BUBBLES
100
AcDbText
 10
4.891536876733989
 20
5.559617182660011
 30
0.0
 40
0.1250000000000003
  1
2
  7
ROMANS
 72
     4
 11
4.951060686257799
 21
5.622117182660011
 31
0.0
100
AcDbText
  0
CIRCLE
  5
288
330
17
100
AcDbEntity
  8
TEXT_BUBBLES
100
AcDbCircle
 10
3.975047773628923
 20
6.129026629611928
 30
0.0
 40
0.1562500000000004
  0
TEXT
  5
289
330
17
100
AcDbEntity
  8
TEXT_BUBBLES
100
AcDbText
 10
3.924452535533685
 20
6.066526629611928
 30
0.0
 40
0.1250000000000003
  1
1
  7
ROMANS
 72
     4
 11
3.975047773628923
 21
6.129026629611928
 31
0.0
100
AcDbText
  0
TEXT
  5
28A
330
17
100
AcDbEntity
  8
TEXT_BUBBLES
100
AcDbText
 10
3.915509234911664
 20
4.923899834511638
 30
0.0
 40
0.1250000000000003
  1
2
  7
ROMANS
 72
     4
 11
3.975033044435473
 21
4.986399834511638
 31
0.0
100
AcDbText
  0
CIRCLE
  5
28B
330
17
100
AcDbEntity
  8
TEXT_BUBBLES
100
AcDbCircle
 10
3.975033044435473
 20
4.986399834511638
 30
0.0
 40
0.1562500000000004
  0
ARC
  5
290
330
17
100
AcDbEntity
  8
IMAGE
100
AcDbCircle
 10
1.059379971723963
 20
4.711129642901473
 30
0.0
 40
0.1566980695398203
100
AcDbArc
 50
116.0563205359582
 51
205.2549940243739
  0
ARC
  5
291
330
17
100
AcDbEntity
  8
IMAGE
100
AcDbCircle
 10
0.8488291018498426
 20
4.785046493152783
 30
0.0
 40
0.1566980695398203
100
AcDbArc
 50
296.0563205359582
 51
25.2549940243739
  0
ARC
  5
292
330
17
100
AcDbEntity
  8
IMAGE
100
AcDbCircle
 10
0.6533976884457639
 20
5.062249168476415
 30
0.0
 40
0.1566980695398203
100
AcDbArc
 50
116.0563205359582
 51
205.2549940243739
  0
ARC
  5
293
330
17
100
AcDbEntity
  8
IMAGE
100
AcDbCircle
 10
0.4428468185716426
 20
5.136166018727727
 30
0.0
 40
0.1566980695398203
100
AcDbArc
 50
296.0563205359582
 51
25.2549940243739
  0
ARC
  5
294
330
17
100
AcDbEntity
  8
IMAGE
100
AcDbCircle
 10
0.9203950459170117
 20
5.047619188244126
 30
0.0
 40
0.1566980695398203
100
AcDbArc
 50
116.0563205359582
 51
205.2549940243739
  0
ARC
  5
295
330
17
100
AcDbEntity
  8
IMAGE
100
AcDbCircle
 10
0.7098441760428922
 20
5.121536038495437
 30
0.0
 40
0.1566980695398203
100
AcDbArc
 50
296.0563205359582
 51
25.2549940243739
  0
ARC
  5
296
330
17
100
AcDbEntity
  8
IMAGE
100
AcDbCircle
 10
0.861875077156192
 20
4.853771950166292
 30
0.0
 40
0.1566980695398203
100
AcDbArc
 50
116.0563205359582
 51
205.2549940243739
  0
ARC
  5
297
330
17
100
AcDbEntity
  8
IMAGE
100
AcDbCircle
 10
0.6513242072820708
 20
4.927688800417604
 30
0.0
 40
0.1566980695398203
100
AcDbArc
 50
296.0563205359582
 51
25.2549940243739
  0
ARC
  5
298
330
17
100
AcDbEntity
  8
IMAGE
100
AcDbCircle
 10
1.183734905340709
 20
4.641637236798098
 30
0.0
 40
0.1566980695398203
100
AcDbArc
 50
116.0563205359582
 51
205.2549940243739
  0
ARC
  5
299
330
17
100
AcDbEntity
  8
IMAGE
100
AcDbCircle
 10
0.9731840354665896
 20
4.715554087049409
 30
0.0
 40
0.1566980695398203
100
AcDbArc
 50
296.0563205359582
 51
25.2549940243739
  0
ARC
  5
29A
330
17
100
AcDbEntity
  8
IMAGE
100
AcDbCircle
 10
0.7667801279198548
 20
4.546542365288217
 30
0.0
 40
0.1566980695398203
100
AcDbArc
 50
116.0563205359582
 51
205.2549940243739
  0
ARC
  5
29B
330
17
100
AcDbEntity
  8
IMAGE
100
AcDbCircle
 10
0.5562292580457352
 20
4.620459215539528
 30
0.0
 40
0.1566980695398203
100
AcDbArc
 50
296.0563205359582
 51
25.2549940243739
  0
ARC
  5
29C
330
17
100
AcDbEntity
  8
IMAGE
100
AcDbCircle
 10
0.788725116205164
 20
4.39292757284918
 30
0.0
 40
0.1566980695398203
100
AcDbArc
 50
116.0563205359582
 51
205.2549940243739
  0
ARC
  5
29D
330
17
100
AcDbEntity
  8
IMAGE
100
AcDbCircle
 10
0.5781742463310425
 20
4.46684442310049
 30
0.0
 40
0.1566980695398203
100
AcDbArc
 50
296.0563205359582
 51
25.2549940243739
  0
ARC
  5
29E
330
17
100
AcDbEntity
  8
IMAGE
100
AcDbCircle
 10
0.9569700263925257
 20
4.553857355404363
 30
0.0
 40
0.1566980695398203
100
AcDbArc
 50
116.0563205359582
 51
205.2549940243739
  0
ARC
  5
29F
330
17
100
AcDbEntity
  8
IMAGE
100
AcDbCircle
 10
0.7464191565184045
 20
4.627774205655673
 30
0.0
 40
0.1566980695398203
100
AcDbArc
 50
296.0563205359582
 51
25.2549940243739
  0
ARC
  5
2A0
330
17
100
AcDbEntity
  8
IMAGE
100
AcDbCircle
 10
1.22176219098852
 20
4.418129713647703
 30
0.0
 40
0.1566980695398203
100
AcDbArc
 50
143.5307656099477
 51
232.7294390983634
  0
ARC
  5
2A1
330
17
100
AcDbEntity
  8
IMAGE
100
AcDbCircle
 10
1.000856187981115
 20
4.386571713218075
 30
0.0
 40
0.1566980695398203
100
AcDbArc
 50
323.5307656099477
 51
52.72943909836341
  0
ARC
  5
2A2
330
17
100
AcDbEntity
  8
IMAGE
100
AcDbCircle
 10
1.130032870923971
 20
5.104684068462161
 30
0.0
 40
0.1566980695398203
100
AcDbArc
 50
143.5307656099477
 51
232.7294390983634
  0
ARC
  5
2A3
330
17
100
AcDbEntity
  8
IMAGE
100
AcDbCircle
 10
0.9091268679165715
 20
5.073126068032535
 30
0.0
 40
0.1566980695398203
100
AcDbArc
 50
323.5307656099477
 51
52.72943909836341
  0
ARC
  5
2A4
330
17
100
AcDbEntity
  8
IMAGE
100
AcDbCircle
 10
0.544009815081938
 20
4.946248448120364
 30
0.0
 40
0.1566980695398203
100
AcDbArc
 50
143.5307656099477
 51
232.7294390983634
  0
ARC
  5
2A5
330
17
100
AcDbEntity
  8
IMAGE
100
AcDbCircle
 10
0.323103812074534
 20
4.914690447690737
 30
0.0
 40
0.1566980695398203
100
AcDbArc
 50
323.5307656099477
 51
52.72943909836341
  0
ARC
  5
2A6
330
17
100
AcDbEntity
  8
IMAGE
100
AcDbCircle
 10
0.561613772897693
 20
4.409327734739825
 30
0.0
 40
0.1566980695398203
100
AcDbArc
 50
143.5307656099477
 51
232.7294390983634
  0
ARC
  5
2A7
330
17
100
AcDbEntity
  8
IMAGE
100
AcDbCircle
 10
0.340707769890289
 20
4.377769734310198
 30
0.0
 40
0.1566980695398203
100
AcDbArc
 50
323.5307656099477
 51
52.72943909836341
  0
ARC
  5
2A8
330
17
100
AcDbEntity
  8
IMAGE
100
AcDbCircle
 10
0.6408315830685906
 20
4.761406891054932
 30
0.0
 40
0.1566980695398203
100
AcDbArc
 50
143.5307656099477
 51
232.7294390983634
  0
ARC
  5
2A9
330
17
100
AcDbEntity
  8
IMAGE
100
AcDbCircle
 10
0.4199255800611884
 20
4.729848890625305
 30
0.0
 40
0.1566980695398203
100
AcDbArc
 50
323.5307656099477
 51
52.72943909836341
  0
ARC
  5
2AA
330
17
100
AcDbEntity
  8
IMAGE
100
AcDbCircle
 10
0.7816632455946343
 20
4.88463459576522
 30
0.0
 40
0.1566980695398203
100
AcDbArc
 50
143.5307656099477
 51
232.7294390983634
  0
ARC
  5
2AB
330
17
100
AcDbEntity
  8
IMAGE
100
AcDbCircle
 10
0.5607572425872319
 20
4.853076595335592
 30
0.0
 40
0.1566980695398203
100
AcDbArc
 50
323.5307656099477
 51
52.72943909836341
  0
ARC
  5
2AC
330
17
100
AcDbEntity
  8
IMAGE
100
AcDbCircle
 10
1.098534486278231
 20
5.016664279383387
 30
0.0
 40
0.1566980695398203
100
AcDbArc
 50
143.5307656099477
 51
232.7294390983634
  0
ARC
  5
2AD
330
17
100
AcDbEntity
  8
IMAGE
100
AcDbCircle
 10
0.8776284832708274
 20
4.985106278953756
 30
0.0
 40
0.1566980695398203
100
AcDbArc
 50
323.5307656099477
 51
52.72943909836341
  0
ARC
  5
2AE
330
17
100
AcDbEntity
  8
IMAGE
100
AcDbCircle
 10
1.054524591738842
 20
4.928644490304607
 30
0.0
 40
0.1566980695398203
100
AcDbArc
 50
143.5307656099477
 51
232.7294390983634
  0
ARC
  5
2AF
330
17
100
AcDbEntity
  8
IMAGE
100
AcDbCircle
 10
0.8336185887314382
 20
4.897086489874981
 30
0.0
 40
0.1566980695398203
100
AcDbArc
 50
323.5307656099477
 51
52.72943909836341
  0
ARC
  5
2B0
330
17
100
AcDbEntity
  8
IMAGE
100
AcDbCircle
 10
0.9841087604758202
 20
4.77020886996281
 30
0.0
 40
0.1566980695398203
100
AcDbArc
 50
143.5307656099477
 51
232.7294390983634
  0
ARC
  5
2B1
330
17
100
AcDbEntity
  8
IMAGE
100
AcDbCircle
 10
0.7632027574684182
 20
4.738650869533183
 30
0.0
 40
0.1566980695398203
100
AcDbArc
 50
323.5307656099477
 51
52.72943909836341
  0
ARC
  5
2B2
330
17
100
AcDbEntity
  8
IMAGE
100
AcDbCircle
 10
0.8608810557655335
 20
4.550159397265868
 30
0.0
 40
0.1566980695398203
100
AcDbArc
 50
143.5307656099477
 51
232.7294390983634
  0
ARC
  5
2B3
330
17
100
AcDbEntity
  8
IMAGE
100
AcDbCircle
 10
0.6399750527581313
 20
4.51860139683624
 30
0.0
 40
0.1566980695398203
100
AcDbArc
 50
323.5307656099477
 51
52.72943909836341
  0
ARC
  5
2B4
330
17
100
AcDbEntity
  8
IMAGE
100
AcDbCircle
 10
0.6760394987001024
 20
4.409327734739825
 30
0.0
 40
0.1566980695398203
100
AcDbArc
 50
143.5307656099477
 51
232.7294390983634
  0
ARC
  5
2B5
330
17
100
AcDbEntity
  8
IMAGE
100
AcDbCircle
 10
0.4551334956926984
 20
4.377769734310198
 30
0.0
 40
0.1566980695398203
100
AcDbArc
 50
323.5307656099477
 51
52.72943909836341
  0
ARC
  5
2B6
330
17
100
AcDbEntity
  8
IMAGE
100
AcDbCircle
 10
0.9665048026600652
 20
4.39172377692407
 30
0.0
 40
0.1566980695398203
100
AcDbArc
 50
143.5307656099477
 51
232.7294390983634
  0
ARC
  5
2B7
330
17
100
AcDbEntity
  8
IMAGE
100
AcDbCircle
 10
0.7455987996526631
 20
4.360165776494442
 30
0.0
 40
0.1566980695398203
100
AcDbArc
 50
323.5307656099477
 51
52.72943909836341
  0
ARC
  5
2B8
330
17
100
AcDbEntity
  8
IMAGE
100
AcDbCircle
 10
1.124940423001863
 20
4.444535650371336
 30
0.0
 40
0.1566980695398203
100
AcDbArc
 50
143.5307656099477
 51
232.7294390983634
  0
ARC
  5
2B9
330
17
100
AcDbEntity
  8
IMAGE
100
AcDbCircle
 10
0.9040344199944618
 20
4.412977649941708
 30
0.0
 40
0.1566980695398203
100
AcDbArc
 50
323.5307656099477
 51
52.72943909836341
  0
ARC
  5
2BA
330
17
100
AcDbEntity
  8
IMAGE
100
AcDbCircle
 10
1.265772085527905
 20
4.761406891054932
 30
0.0
 40
0.1566980695398203
100
AcDbArc
 50
143.5307656099477
 51
232.7294390983634
  0
ARC
  5
2BB
330
17
100
AcDbEntity
  8
IMAGE
100
AcDbCircle
 10
1.044866082520505
 20
4.729848890625305
 30
0.0
 40
0.1566980695398203
100
AcDbArc
 50
323.5307656099477
 51
52.72943909836341
  0
ARC
  5
2BC
330
17
100
AcDbEntity
  8
IMAGE
100
AcDbCircle
 10
1.001712718291577
 20
5.043070216107019
 30
0.0
 40
0.1566980695398203
100
AcDbArc
 50
143.5307656099477
 51
232.7294390983634
  0
ARC
  5
2BD
330
17
100
AcDbEntity
  8
IMAGE
100
AcDbCircle
 10
0.7808067152841732
 20
5.011512215677391
 30
0.0
 40
0.1566980695398203
100
AcDbArc
 50
323.5307656099477
 51
52.72943909836341
  0
ARC
  5
2BE
330
17
100
AcDbEntity
  8
IMAGE
100
AcDbCircle
 10
0.544009815081938
 20
5.131090005185796
 30
0.0
 40
0.1566980695398203
100
AcDbArc
 50
143.5307656099477
 51
232.7294390983634
  0
ARC
  5
2BF
330
17
100
AcDbEntity
  8
IMAGE
100
AcDbCircle
 10
0.323103812074534
 20
5.099532004756167
 30
0.0
 40
0.1566980695398203
100
AcDbArc
 50
323.5307656099477
 51
52.72943909836341
  0
ARC
  5
2C0
330
17
100
AcDbEntity
  8
IMAGE
100
AcDbCircle
 10
1.259073456239614
 20
4.601430672241764
 30
0.0
 40
0.1566980695398203
100
AcDbArc
 50
159.7199718669747
 51
248.9186453553905
  0
ARC
  5
2C1
330
17
100
AcDbEntity
  8
IMAGE
100
AcDbCircle
 10
1.055725902033531
 20
4.509533219860169
 30
0.0
 40
0.1566980695398203
100
AcDbArc
 50
339.7199718669747
 51
68.91864535539045
  0
ARC
  5
2C2
330
17
100
AcDbEntity
  8
IMAGE
100
AcDbCircle
 10
1.109439814805693
 20
4.830282123846584
 30
0.0
 40
0.1566980695398203
100
AcDbArc
 50
159.7199718669747
 51
248.9186453553905
  0
ARC
  5
2C3
330
17
100
AcDbEntity
  8
IMAGE
100
AcDbCircle
 10
0.9060922605996106
 20
4.73838467146499
 30
0.0
 40
0.1566980695398203
100
AcDbArc
 50
339.7199718669747
 51
68.91864535539045
  0
ARC
  5
2C4
330
17
100
AcDbEntity
  8
IMAGE
100
AcDbCircle
 10
0.748558679582709
 20
4.777470250399318
 30
0.0
 40
0.1566980695398203
100
AcDbArc
 50
159.7199718669747
 51
248.9186453553905
  0
ARC
  5
2C5
330
17
100
AcDbEntity
  8
IMAGE
100
AcDbCircle
 10
0.5452111253766258
 20
4.685572798017723
 30
0.0
 40
0.1566980695398203
100
AcDbArc
 50
339.7199718669747
 51
68.91864535539045
  0
ARC
  5
2C6
330
17
100
AcDbEntity
  8
IMAGE
100
AcDbCircle
 10
0.6869448272275647
 20
4.627836608965396
 30
0.0
 40
0.1566980695398203
100
AcDbArc
 50
159.7199718669747
 51
248.9186453553905
  0
ARC
  5
2C7
330
17
100
AcDbEntity
  8
IMAGE
100
AcDbCircle
 10
0.4835972730214814
 20
4.535939156583802
 30
0.0
 40
0.1566980695398203
100
AcDbArc
 50
339.7199718669747
 51
68.91864535539045
  0
ARC
  5
2C8
330
17
100
AcDbEntity
  8
IMAGE
100
AcDbCircle
 10
0.5548218035347744
 20
4.748988527059385
 30
0.0
 40
0.1566980695398203
100
AcDbArc
 50
159.7199718669747
 51
248.9186453553905
  0
ARC
  5
2C9
330
17
100
AcDbEntity
  8
IMAGE
100
AcDbCircle
 10
0.3514742493286929
 20
4.657091074677791
 30
0.0
 40
0.1566980695398203
100
AcDbArc
 50
339.7199718669747
 51
68.91864535539045
  0
ARC
  5
2CA
330
17
100
AcDbEntity
  8
IMAGE
100
AcDbCircle
 10
0.748558679582709
 20
5.041529617635648
 30
0.0
 40
0.1566980695398203
100
AcDbArc
 50
159.7199718669747
 51
248.9186453553905
  0
ARC
  5
2CB
330
17
100
AcDbEntity
  8
IMAGE
100
AcDbCircle
 10
0.5452111253766258
 20
4.949632165254053
 30
0.0
 40
0.1566980695398203
100
AcDbArc
 50
339.7199718669747
 51
68.91864535539045
  0
ARC
  5
2CC
330
17
100
AcDbEntity
  8
IMAGE
100
AcDbCircle
 10
0.9069942999245077
 20
4.988717744188383
 30
0.0
 40
0.1566980695398203
100
AcDbArc
 50
159.7199718669747
 51
248.9186453553905
  0
ARC
  5
2CD
330
17
100
AcDbEntity
  8
IMAGE
100
AcDbCircle
 10
0.7036467457184244
 20
4.896820291806788
 30
0.0
 40
0.1566980695398203
100
AcDbArc
 50
339.7199718669747
 51
68.91864535539045
  0
ARC
  5
2CE
330
17
100
AcDbEntity
  8
IMAGE
100
AcDbCircle
 10
1.206261582792347
 20
5.023925659819894
 30
0.0
 40
0.1566980695398203
100
AcDbArc
 50
159.7199718669747
 51
248.9186453553905
  0
ARC
  5
2CF
330
17
100
AcDbEntity
  8
IMAGE
100
AcDbCircle
 10
1.002914028586264
 20
4.932028207438299
 30
0.0
 40
0.1566980695398203
100
AcDbArc
 50
339.7199718669747
 51
68.91864535539045
  0
ARC
  5
2D0
330
17
100
AcDbEntity
  8
IMAGE
100
AcDbCircle
 10
1.039023983542672
 20
4.566222756610253
 30
0.0
 40
0.1566980695398203
100
AcDbArc
 50
159.7199718669747
 51
248.9186453553905
  0
ARC
  5
2D1
330
17
100
AcDbEntity
  8
IMAGE
100
AcDbCircle
 10
0.8356764293365888
 20
4.474325304228658
 30
0.0
 40
0.1566980695398203
100
AcDbArc
 50
339.7199718669747
 51
68.91864535539045
  0
ARC
  5
2D2
330
17
100
AcDbEntity
  8
IMAGE
100
AcDbCircle
 10
1.091835856989938
 20
4.636638587873274
 30
0.0
 40
0.1566980695398203
100
AcDbArc
 50
159.7199718669747
 51
248.9186453553905
  0
ARC
  5
2D3
330
17
100
AcDbEntity
  8
IMAGE
100
AcDbCircle
 10
0.8884883027838554
 20
4.54474113549168
 30
0.0
 40
0.1566980695398203
100
AcDbArc
 50
339.7199718669747
 51
68.91864535539045
  0
ARC
  5
2D4
330
17
100
AcDbEntity
  8
IMAGE
100
AcDbCircle
 10
0.6341329537802979
 20
4.979915765280504
 30
0.0
 40
0.1566980695398203
100
AcDbArc
 50
159.7199718669747
 51
248.9186453553905
  0
ARC
  5
2D5
330
17
100
AcDbEntity
  8
IMAGE
100
AcDbCircle
 10
0.4307853995742164
 20
4.888018312898909
 30
0.0
 40
0.1566980695398203
100
AcDbArc
 50
339.7199718669747
 51
68.91864535539045
  0
ARC
  5
2D6
330
17
100
AcDbEntity
  8
IMAGE
100
AcDbCircle
 10
0.6950874455082992
 20
4.45480335341738
 30
0.0
 40
0.1566980695398203
100
AcDbArc
 50
278.5307656099478
 51
7.729439098363569
  0
ARC
  5
2D7
330
17
100
AcDbEntity
  8
IMAGE
100
AcDbCircle
 10
0.873606454344129
 20
4.320914096790508
 30
0.0
 40
0.1566980695398203
100
AcDbArc
 50
98.53076560994793
 51
187.7294390983635
  0
ARC
  5
2D8
330
17
100
AcDbEntity
  8
IMAGE
100
AcDbCircle
 10
0.3518102681010693
 20
4.578031058127669
 30
0.0
 40
0.1566980695398203
100
AcDbArc
 50
278.5307656099478
 51
7.729439098363569
  0
ARC
  5
2D9
330
17
100
AcDbEntity
  8
IMAGE
100
AcDbCircle
 10
0.5303292769368993
 20
4.444141801500796
 30
0.0
 40
0.1566980695398203
100
AcDbArc
 50
98.53076560994793
 51
187.7294390983635
  0
ARC
  5
2DA
330
17
100
AcDbEntity
  8
IMAGE
100
AcDbCircle
 10
1.020760665099774
 20
5.000526045705798
 30
0.0
 40
0.1566980695398203
100
AcDbArc
 50
278.5307656099478
 51
7.729439098363569
  0
ARC
  5
2DB
330
17
100
AcDbEntity
  8
IMAGE
100
AcDbCircle
 10
1.199279673935603
 20
4.866636789078926
 30
0.0
 40
0.1566980695398203
100
AcDbArc
 50
98.53076560994793
 51
187.7294390983635
  0
ARC
  5
2DC
330
17
100
AcDbEntity
  8
IMAGE
100
AcDbCircle
 10
0.6772408089947901
 20
4.676770819109846
 30
0.0
 40
0.1566980695398203
100
AcDbArc
 50
339.7199718669747
 51
68.91864535539045
  0
ARC
  5
2DD
330
17
100
AcDbEntity
  8
IMAGE
100
AcDbCircle
 10
0.8805883632008733
 20
4.76866827149144
 30
0.0
 40
0.1566980695398203
100
AcDbArc
 50
159.7199718669747
 51
248.9186453553905
  0
ARC
  5
2DE
330
17
100
AcDbEntity
  8
IMAGE
100
AcDbCircle
 10
0.5894636986137673
 20
5.132555729323963
 30
0.0
 40
0.1566980695398203
100
AcDbArc
 50
278.5307656099478
 51
7.729439098363569
  0
ARC
  5
2DF
330
17
100
AcDbEntity
  8
IMAGE
100
AcDbCircle
 10
0.7679827074495954
 20
4.998666472697091
 30
0.0
 40
0.1566980695398203
100
AcDbArc
 50
98.53076560994793
 51
187.7294390983635
  0
ARC
  5
2E0
330
17
100
AcDbEntity
  8
IMAGE
100
AcDbCircle
 10
3.202213275883788
 20
4.717959900721861
 30
0.0
 40
0.1566980695398203
100
AcDbArc
 50
116.0563205359582
 51
205.2549940243739
  0
ARC
  5
2E1
330
17
100
AcDbEntity
  8
IMAGE
100
AcDbCircle
 10
2.991662406009664
 20
4.791876750973171
 30
0.0
 40
0.1566980695398203
100
AcDbArc
 50
296.0563205359582
 51
25.2549940243739
  0
ARC
  5
2E2
330
17
100
AcDbEntity
  8
IMAGE
100
AcDbCircle
 10
2.525576137086788
 20
4.659439979792704
 30
0.0
 40
0.1566980695398203
100
AcDbArc
 50
116.0563205359582
 51
205.2549940243739
  0
ARC
  5
2E3
330
17
100
AcDbEntity
  8
IMAGE
100
AcDbCircle
 10
2.315025267212665
 20
4.733356830044014
 30
0.0
 40
0.1566980695398203
100
AcDbArc
 50
296.0563205359582
 51
25.2549940243739
  0
ARC
  5
2E4
330
17
100
AcDbEntity
  8
IMAGE
100
AcDbCircle
 10
3.062951853030912
 20
5.074900722235288
 30
0.0
 40
0.1566980695398203
100
AcDbArc
 50
116.0563205359582
 51
205.2549940243739
  0
ARC
  5
2E5
330
17
100
AcDbEntity
  8
IMAGE
100
AcDbCircle
 10
2.852400983156792
 20
5.1488175724866
 30
0.0
 40
0.1566980695398203
100
AcDbArc
 50
296.0563205359582
 51
25.2549940243739
  0
ARC
  5
2E6
330
17
100
AcDbEntity
  8
IMAGE
100
AcDbCircle
 10
3.004431884270092
 20
4.881053484157455
 30
0.0
 40
0.1566980695398203
100
AcDbArc
 50
116.0563205359582
 51
205.2549940243739
  0
ARC
  5
2E7
330
17
100
AcDbEntity
  8
IMAGE
100
AcDbCircle
 10
2.793881014395969
 20
4.954970334408766
 30
0.0
 40
0.1566980695398203
100
AcDbArc
 50
296.0563205359582
 51
25.2549940243739
  0
ARC
  5
2E8
330
17
100
AcDbEntity
  8
IMAGE
100
AcDbCircle
 10
3.326568209500535
 20
4.648467494618486
 30
0.0
 40
0.1566980695398203
100
AcDbArc
 50
116.0563205359582
 51
205.2549940243739
  0
ARC
  5
2E9
330
17
100
AcDbEntity
  8
IMAGE
100
AcDbCircle
 10
3.116017339626416
 20
4.722384344869797
 30
0.0
 40
0.1566980695398203
100
AcDbArc
 50
296.0563205359582
 51
25.2549940243739
  0
ARC
  5
2EA
330
17
100
AcDbEntity
  8
IMAGE
100
AcDbCircle
 10
2.561811664927289
 20
4.86629525975406
 30
0.0
 40
0.1566980695398203
100
AcDbArc
 50
116.0563205359582
 51
205.2549940243739
  0
ARC
  5
2EB
330
17
100
AcDbEntity
  8
IMAGE
100
AcDbCircle
 10
2.351260795053166
 20
4.94021211000537
 30
0.0
 40
0.1566980695398203
100
AcDbArc
 50
296.0563205359582
 51
25.2549940243739
  0
ARC
  5
2EC
330
17
100
AcDbEntity
  8
IMAGE
100
AcDbCircle
 10
2.909613432079678
 20
4.553372623108606
 30
0.0
 40
0.1566980695398203
100
AcDbArc
 50
116.0563205359582
 51
205.2549940243739
  0
ARC
  5
2ED
330
17
100
AcDbEntity
  8
IMAGE
100
AcDbCircle
 10
2.699062562205559
 20
4.627289473359917
 30
0.0
 40
0.1566980695398203
100
AcDbArc
 50
296.0563205359582
 51
25.2549940243739
  0
ARC
  5
2EE
330
17
100
AcDbEntity
  8
IMAGE
100
AcDbCircle
 10
2.931558420364988
 20
4.399757830669568
 30
0.0
 40
0.1566980695398203
100
AcDbArc
 50
116.0563205359582
 51
205.2549940243739
  0
ARC
  5
2EF
330
17
100
AcDbEntity
  8
IMAGE
100
AcDbCircle
 10
2.721007550490868
 20
4.473674680920879
 30
0.0
 40
0.1566980695398203
100
AcDbArc
 50
296.0563205359582
 51
25.2549940243739
  0
ARC
  5
2F0
330
17
100
AcDbEntity
  8
IMAGE
100
AcDbCircle
 10
3.09980333055235
 20
4.560687613224751
 30
0.0
 40
0.1566980695398203
100
AcDbArc
 50
116.0563205359582
 51
205.2549940243739
  0
ARC
  5
2F1
330
17
100
AcDbEntity
  8
IMAGE
100
AcDbCircle
 10
2.88925246067823
 20
4.634604463476061
 30
0.0
 40
0.1566980695398203
100
AcDbArc
 50
296.0563205359582
 51
25.2549940243739
  0
ARC
  5
2F2
330
17
100
AcDbEntity
  8
IMAGE
100
AcDbCircle
 10
3.364595495148342
 20
4.424959971468091
 30
0.0
 40
0.1566980695398203
100
AcDbArc
 50
143.5307656099477
 51
232.7294390983634
  0
ARC
  5
2F3
330
17
100
AcDbEntity
  8
IMAGE
100
AcDbCircle
 10
3.143689492140941
 20
4.393401971038463
 30
0.0
 40
0.1566980695398203
100
AcDbArc
 50
323.5307656099477
 51
52.72943909836341
  0
ARC
  5
2F4
330
17
100
AcDbEntity
  8
IMAGE
100
AcDbCircle
 10
3.323844550543805
 20
4.900645417691769
 30
0.0
 40
0.1566980695398203
100
AcDbArc
 50
143.5307656099477
 51
232.7294390983634
  0
ARC
  5
2F5
330
17
100
AcDbEntity
  8
IMAGE
100
AcDbCircle
 10
3.1029385475364
 20
4.869087417262143
 30
0.0
 40
0.1566980695398203
100
AcDbArc
 50
323.5307656099477
 51
52.72943909836341
  0
ARC
  5
2F6
330
17
100
AcDbEntity
  8
IMAGE
100
AcDbCircle
 10
2.671873674416544
 20
4.94048428241777
 30
0.0
 40
0.1566980695398203
100
AcDbArc
 50
143.5307656099477
 51
232.7294390983634
  0
ARC
  5
2F7
330
17
100
AcDbEntity
  8
IMAGE
100
AcDbCircle
 10
2.45096767140914
 20
4.908926281988143
 30
0.0
 40
0.1566980695398203
100
AcDbArc
 50
323.5307656099477
 51
52.72943909836341
  0
ARC
  5
2F8
330
17
100
AcDbEntity
  8
IMAGE
100
AcDbCircle
 10
2.598823330162983
 20
4.556989655086256
 30
0.0
 40
0.1566980695398203
100
AcDbArc
 50
143.5307656099477
 51
232.7294390983634
  0
ARC
  5
2F9
330
17
100
AcDbEntity
  8
IMAGE
100
AcDbCircle
 10
2.377917327155579
 20
4.525431654656628
 30
0.0
 40
0.1566980695398203
100
AcDbArc
 50
323.5307656099477
 51
52.72943909836341
  0
ARC
  5
2FA
330
17
100
AcDbEntity
  8
IMAGE
100
AcDbCircle
 10
2.554813435623597
 20
4.433761950375968
 30
0.0
 40
0.1566980695398203
100
AcDbArc
 50
143.5307656099477
 51
232.7294390983634
  0
ARC
  5
2FB
330
17
100
AcDbEntity
  8
IMAGE
100
AcDbCircle
 10
2.333907432616193
 20
4.402203949946341
 30
0.0
 40
0.1566980695398203
100
AcDbArc
 50
323.5307656099477
 51
52.72943909836341
  0
ARC
  5
2FC
330
17
100
AcDbEntity
  8
IMAGE
100
AcDbCircle
 10
2.704447077057517
 20
4.416157992560213
 30
0.0
 40
0.1566980695398203
100
AcDbArc
 50
143.5307656099477
 51
232.7294390983634
  0
ARC
  5
2FD
330
17
100
AcDbEntity
  8
IMAGE
100
AcDbCircle
 10
2.483541074050113
 20
4.384599992130586
 30
0.0
 40
0.1566980695398203
100
AcDbArc
 50
323.5307656099477
 51
52.72943909836341
  0
ARC
  5
2FE
330
17
100
AcDbEntity
  8
IMAGE
100
AcDbCircle
 10
2.783664887228416
 20
4.768237148875321
 30
0.0
 40
0.1566980695398203
100
AcDbArc
 50
143.5307656099477
 51
232.7294390983634
  0
ARC
  5
2FF
330
17
100
AcDbEntity
  8
IMAGE
100
AcDbCircle
 10
2.562758884221012
 20
4.736679148445693
 30
0.0
 40
0.1566980695398203
100
AcDbArc
 50
323.5307656099477
 51
52.72943909836341
  0
ARC
  5
300
330
17
100
AcDbEntity
  8
IMAGE
100
AcDbCircle
 10
2.924220052708536
 20
4.911916129756384
 30
0.0
 40
0.1566980695398203
100
AcDbArc
 50
143.5307656099477
 51
232.7294390983634
  0
ARC
  5
301
330
17
100
AcDbEntity
  8
IMAGE
100
AcDbCircle
 10
2.703314049701131
 20
4.880358129326754
 30
0.0
 40
0.1566980695398203
100
AcDbArc
 50
323.5307656099477
 51
52.72943909836341
  0
ARC
  5
302
330
17
100
AcDbEntity
  8
IMAGE
100
AcDbCircle
 10
3.241091293392133
 20
5.043945813374549
 30
0.0
 40
0.1566980695398203
100
AcDbArc
 50
143.5307656099477
 51
232.7294390983634
  0
ARC
  5
303
330
17
100
AcDbEntity
  8
IMAGE
100
AcDbCircle
 10
3.020185290384729
 20
5.012387812944919
 30
0.0
 40
0.1566980695398203
100
AcDbArc
 50
323.5307656099477
 51
52.72943909836341
  0
ARC
  5
304
330
17
100
AcDbEntity
  8
IMAGE
100
AcDbCircle
 10
3.197081398852744
 20
4.955926024295771
 30
0.0
 40
0.1566980695398203
100
AcDbArc
 50
143.5307656099477
 51
232.7294390983634
  0
ARC
  5
305
330
17
100
AcDbEntity
  8
IMAGE
100
AcDbCircle
 10
2.97617539584534
 20
4.924368023866144
 30
0.0
 40
0.1566980695398203
100
AcDbArc
 50
323.5307656099477
 51
52.72943909836341
  0
ARC
  5
306
330
17
100
AcDbEntity
  8
IMAGE
100
AcDbCircle
 10
3.126942064635644
 20
4.777039127783198
 30
0.0
 40
0.1566980695398203
100
AcDbArc
 50
143.5307656099477
 51
232.7294390983634
  0
ARC
  5
307
330
17
100
AcDbEntity
  8
IMAGE
100
AcDbCircle
 10
2.906036061628244
 20
4.745481127353571
 30
0.0
 40
0.1566980695398203
100
AcDbArc
 50
323.5307656099477
 51
52.72943909836341
  0
ARC
  5
308
330
17
100
AcDbEntity
  8
IMAGE
100
AcDbCircle
 10
3.003714359925359
 20
4.556989655086256
 30
0.0
 40
0.1566980695398203
100
AcDbArc
 50
143.5307656099477
 51
232.7294390983634
  0
ARC
  5
309
330
17
100
AcDbEntity
  8
IMAGE
100
AcDbCircle
 10
2.782808356917955
 20
4.525431654656628
 30
0.0
 40
0.1566980695398203
100
AcDbArc
 50
323.5307656099477
 51
52.72943909836341
  0
ARC
  5
30A
330
17
100
AcDbEntity
  8
IMAGE
100
AcDbCircle
 10
2.818872802859926
 20
4.416157992560213
 30
0.0
 40
0.1566980695398203
100
AcDbArc
 50
143.5307656099477
 51
232.7294390983634
  0
ARC
  5
30B
330
17
100
AcDbEntity
  8
IMAGE
100
AcDbCircle
 10
2.597966799852522
 20
4.384599992130586
 30
0.0
 40
0.1566980695398203
100
AcDbArc
 50
323.5307656099477
 51
52.72943909836341
  0
ARC
  5
30C
330
17
100
AcDbEntity
  8
IMAGE
100
AcDbCircle
 10
3.109338106819889
 20
4.398554034744458
 30
0.0
 40
0.1566980695398203
100
AcDbArc
 50
143.5307656099477
 51
232.7294390983634
  0
ARC
  5
30D
330
17
100
AcDbEntity
  8
IMAGE
100
AcDbCircle
 10
2.888432103812485
 20
4.36699603431483
 30
0.0
 40
0.1566980695398203
100
AcDbArc
 50
323.5307656099477
 51
52.72943909836341
  0
ARC
  5
30E
330
17
100
AcDbEntity
  8
IMAGE
100
AcDbCircle
 10
3.267773727161687
 20
4.451365908191725
 30
0.0
 40
0.1566980695398203
100
AcDbArc
 50
143.5307656099477
 51
232.7294390983634
  0
ARC
  5
30F
330
17
100
AcDbEntity
  8
IMAGE
100
AcDbCircle
 10
3.046867724154287
 20
4.419807907762096
 30
0.0
 40
0.1566980695398203
100
AcDbArc
 50
323.5307656099477
 51
52.72943909836341
  0
ARC
  5
310
330
17
100
AcDbEntity
  8
IMAGE
100
AcDbCircle
 10
3.408605389687731
 20
4.768237148875321
 30
0.0
 40
0.1566980695398203
100
AcDbArc
 50
143.5307656099477
 51
232.7294390983634
  0
ARC
  5
311
330
17
100
AcDbEntity
  8
IMAGE
100
AcDbCircle
 10
3.187699386680327
 20
4.736679148445693
 30
0.0
 40
0.1566980695398203
100
AcDbArc
 50
323.5307656099477
 51
52.72943909836341
  0
ARC
  5
312
330
17
100
AcDbEntity
  8
IMAGE
100
AcDbCircle
 10
3.144269525405479
 20
5.070351750098182
 30
0.0
 40
0.1566980695398203
100
AcDbArc
 50
143.5307656099477
 51
232.7294390983634
  0
ARC
  5
313
330
17
100
AcDbEntity
  8
IMAGE
100
AcDbCircle
 10
2.923363522398075
 20
5.038793749668553
 30
0.0
 40
0.1566980695398203
100
AcDbArc
 50
323.5307656099477
 51
52.72943909836341
  0
ARC
  5
314
330
17
100
AcDbEntity
  8
IMAGE
100
AcDbCircle
 10
3.401906760399437
 20
4.608260930062153
 30
0.0
 40
0.1566980695398203
100
AcDbArc
 50
159.7199718669747
 51
248.9186453553905
  0
ARC
  5
315
330
17
100
AcDbEntity
  8
IMAGE
100
AcDbCircle
 10
3.198559206193354
 20
4.516363477680557
 30
0.0
 40
0.1566980695398203
100
AcDbArc
 50
339.7199718669747
 51
68.91864535539045
  0
ARC
  5
316
330
17
100
AcDbEntity
  8
IMAGE
100
AcDbCircle
 10
3.252273118965518
 20
4.837112381666972
 30
0.0
 40
0.1566980695398203
100
AcDbArc
 50
159.7199718669747
 51
248.9186453553905
  0
ARC
  5
317
330
17
100
AcDbEntity
  8
IMAGE
100
AcDbCircle
 10
3.048925564759434
 20
4.745214929285378
 30
0.0
 40
0.1566980695398203
100
AcDbArc
 50
339.7199718669747
 51
68.91864535539045
  0
ARC
  5
318
330
17
100
AcDbEntity
  8
IMAGE
100
AcDbCircle
 10
2.891391983742531
 20
4.784300508219706
 30
0.0
 40
0.1566980695398203
100
AcDbArc
 50
159.7199718669747
 51
248.9186453553905
  0
ARC
  5
319
330
17
100
AcDbEntity
  8
IMAGE
100
AcDbCircle
 10
2.688044429536448
 20
4.692403055838111
 30
0.0
 40
0.1566980695398203
100
AcDbArc
 50
339.7199718669747
 51
68.91864535539045
  0
ARC
  5
31A
330
17
100
AcDbEntity
  8
IMAGE
100
AcDbCircle
 10
2.82977813138739
 20
4.634666866785785
 30
0.0
 40
0.1566980695398203
100
AcDbArc
 50
159.7199718669747
 51
248.9186453553905
  0
ARC
  5
31B
330
17
100
AcDbEntity
  8
IMAGE
100
AcDbCircle
 10
2.626430577181307
 20
4.54276941440419
 30
0.0
 40
0.1566980695398203
100
AcDbArc
 50
339.7199718669747
 51
68.91864535539045
  0
ARC
  5
31C
330
17
100
AcDbEntity
  8
IMAGE
100
AcDbCircle
 10
2.63645428716171
 20
4.722773085186016
 30
0.0
 40
0.1566980695398203
100
AcDbArc
 50
159.7199718669747
 51
248.9186453553905
  0
ARC
  5
31D
330
17
100
AcDbEntity
  8
IMAGE
100
AcDbCircle
 10
2.433106732955627
 20
4.630875632804421
 30
0.0
 40
0.1566980695398203
100
AcDbArc
 50
339.7199718669747
 51
68.91864535539045
  0
ARC
  5
31E
330
17
100
AcDbEntity
  8
IMAGE
100
AcDbCircle
 10
2.824997293445076
 20
5.098185133475452
 30
0.0
 40
0.1566980695398203
100
AcDbArc
 50
159.7199718669747
 51
248.9186453553905
  0
ARC
  5
31F
330
17
100
AcDbEntity
  8
IMAGE
100
AcDbCircle
 10
2.621649739238993
 20
5.006287681093858
 30
0.0
 40
0.1566980695398203
100
AcDbArc
 50
339.7199718669747
 51
68.91864535539045
  0
ARC
  5
320
330
17
100
AcDbEntity
  8
IMAGE
100
AcDbCircle
 10
3.049551107038406
 20
5.015999278179546
 30
0.0
 40
0.1566980695398203
100
AcDbArc
 50
159.7199718669747
 51
248.9186453553905
  0
ARC
  5
321
330
17
100
AcDbEntity
  8
IMAGE
100
AcDbCircle
 10
2.846203552832326
 20
4.924101825797952
 30
0.0
 40
0.1566980695398203
100
AcDbArc
 50
339.7199718669747
 51
68.91864535539045
  0
ARC
  5
322
330
17
100
AcDbEntity
  8
IMAGE
100
AcDbCircle
 10
3.348818389906248
 20
5.051207193811056
 30
0.0
 40
0.1566980695398203
100
AcDbArc
 50
159.7199718669747
 51
248.9186453553905
  0
ARC
  5
323
330
17
100
AcDbEntity
  8
IMAGE
100
AcDbCircle
 10
3.145470835700165
 20
4.959309741429462
 30
0.0
 40
0.1566980695398203
100
AcDbArc
 50
339.7199718669747
 51
68.91864535539045
  0
ARC
  5
324
330
17
100
AcDbEntity
  8
IMAGE
100
AcDbCircle
 10
3.181857287702497
 20
4.573053014430642
 30
0.0
 40
0.1566980695398203
100
AcDbArc
 50
159.7199718669747
 51
248.9186453553905
  0
ARC
  5
325
330
17
100
AcDbEntity
  8
IMAGE
100
AcDbCircle
 10
2.978509733496414
 20
4.481155562049046
 30
0.0
 40
0.1566980695398203
100
AcDbArc
 50
339.7199718669747
 51
68.91864535539045
  0
ARC
  5
326
330
17
100
AcDbEntity
  8
IMAGE
100
AcDbCircle
 10
3.234669161149762
 20
4.643468845693663
 30
0.0
 40
0.1566980695398203
100
AcDbArc
 50
159.7199718669747
 51
248.9186453553905
  0
ARC
  5
327
330
17
100
AcDbEntity
  8
IMAGE
100
AcDbCircle
 10
3.031321606943679
 20
4.551571393312069
 30
0.0
 40
0.1566980695398203
100
AcDbArc
 50
339.7199718669747
 51
68.91864535539045
  0
ARC
  5
328
330
17
100
AcDbEntity
  8
IMAGE
100
AcDbCircle
 10
2.776689760894198
 20
5.007197299271667
 30
0.0
 40
0.1566980695398203
100
AcDbArc
 50
159.7199718669747
 51
248.9186453553905
  0
ARC
  5
329
330
17
100
AcDbEntity
  8
IMAGE
100
AcDbCircle
 10
2.573342206688114
 20
4.915299846890071
 30
0.0
 40
0.1566980695398203
100
AcDbArc
 50
339.7199718669747
 51
68.91864535539045
  0
ARC
  5
32A
330
17
100
AcDbEntity
  8
IMAGE
100
AcDbCircle
 10
2.507329879084188
 20
5.126220088038707
 30
0.0
 40
0.1566980695398203
100
AcDbArc
 50
278.5307656099478
 51
7.729439098363569
  0
ARC
  5
32B
330
17
100
AcDbEntity
  8
IMAGE
100
AcDbCircle
 10
2.685848887920019
 20
4.992330831411835
 30
0.0
 40
0.1566980695398203
100
AcDbArc
 50
98.53076560994793
 51
187.7294390983635
  0
ARC
  5
32C
330
17
100
AcDbEntity
  8
IMAGE
100
AcDbCircle
 10
2.494643572260895
 20
4.584861315948057
 30
0.0
 40
0.1566980695398203
100
AcDbArc
 50
278.5307656099478
 51
7.729439098363569
  0
ARC
  5
32D
330
17
100
AcDbEntity
  8
IMAGE
100
AcDbCircle
 10
2.673162581096723
 20
4.450972059321184
 30
0.0
 40
0.1566980695398203
100
AcDbArc
 50
98.53076560994793
 51
187.7294390983635
  0
ARC
  5
32E
330
17
100
AcDbEntity
  8
IMAGE
100
AcDbCircle
 10
3.163317472213672
 20
5.02780757969696
 30
0.0
 40
0.1566980695398203
100
AcDbArc
 50
278.5307656099478
 51
7.729439098363569
  0
ARC
  5
32F
330
17
100
AcDbEntity
  8
IMAGE
100
AcDbCircle
 10
3.341836481049504
 20
4.89391832307009
 30
0.0
 40
0.1566980695398203
100
AcDbArc
 50
98.53076560994793
 51
187.7294390983635
  0
ARC
  5
330
330
17
100
AcDbEntity
  8
IMAGE
100
AcDbCircle
 10
2.820074113154615
 20
4.683601076930234
 30
0.0
 40
0.1566980695398203
100
AcDbArc
 50
339.7199718669747
 51
68.91864535539045
  0
ARC
  5
331
330
17
100
AcDbEntity
  8
IMAGE
100
AcDbCircle
 10
3.023421667360695
 20
4.775498529311828
 30
0.0
 40
0.1566980695398203
100
AcDbArc
 50
159.7199718669747
 51
248.9186453553905
  0
ARC
  5
332
330
17
100
AcDbEntity
  8
IMAGE
100
AcDbCircle
 10
2.732020505727669
 20
5.159837263315126
 30
0.0
 40
0.1566980695398203
100
AcDbArc
 50
278.5307656099478
 51
7.729439098363569
  0
ARC
  5
333
330
17
100
AcDbEntity
  8
IMAGE
100
AcDbCircle
 10
2.910539514563497
 20
5.025948006688254
 30
0.0
 40
0.1566980695398203
100
AcDbArc
 50
98.53076560994793
 51
187.7294390983635
  0
ARC
  5
337
330
17
100
AcDbEntity
  8
IMAGE
100
AcDbCircle
 10
2.401489162606794
 20
4.813139861031941
 30
0.0
 40
0.1566980695398203
100
AcDbArc
 50
98.53076560994793
 51
187.7294390983635
  0
ARC
  5
338
330
17
100
AcDbEntity
  8
IMAGE
100
AcDbCircle
 10
2.222970153770963
 20
4.947029117658813
 30
0.0
 40
0.1566980695398203
100
AcDbArc
 50
278.5307656099478
 51
7.729439098363569
  0
ARC
  5
339
330
17
100
AcDbEntity
  8
IMAGE
100
AcDbCircle
 10
2.061588440779242
 20
4.518525645800768
 30
0.0
 40
0.1566980695398203
100
AcDbArc
 50
339.7199718669747
 51
68.91864535539045
  0
ARC
  5
33A
330
17
100
AcDbEntity
  8
IMAGE
100
AcDbCircle
 10
2.264935994985326
 20
4.610423098182363
 30
0.0
 40
0.1566980695398203
100
AcDbArc
 50
159.7199718669747
 51
248.9186453553905
  0
ARC
  5
33B
330
17
100
AcDbEntity
  8
IMAGE
100
AcDbCircle
 10
2.008776567331977
 20
4.448109814537747
 30
0.0
 40
0.1566980695398203
100
AcDbArc
 50
339.7199718669747
 51
68.91864535539045
  0
ARC
  5
33C
330
17
100
AcDbEntity
  8
IMAGE
100
AcDbCircle
 10
2.212124121538061
 20
4.540007266919341
 30
0.0
 40
0.1566980695398203
100
AcDbArc
 50
159.7199718669747
 51
248.9186453553905
  0
ARC
  5
33D
330
17
100
AcDbEntity
  8
IMAGE
100
AcDbCircle
 10
2.205123517257455
 20
4.878531279391313
 30
0.0
 40
0.1566980695398203
100
AcDbArc
 50
339.7199718669747
 51
68.91864535539045
  0
ARC
  5
33E
330
17
100
AcDbEntity
  8
IMAGE
100
AcDbCircle
 10
2.408471071463538
 20
4.970428731772909
 30
0.0
 40
0.1566980695398203
100
AcDbArc
 50
159.7199718669747
 51
248.9186453553905
  0
ARC
  5
33F
330
17
100
AcDbEntity
  8
IMAGE
100
AcDbCircle
 10
2.079192398594997
 20
4.712169181774078
 30
0.0
 40
0.1566980695398203
100
AcDbArc
 50
339.7199718669747
 51
68.91864535539045
  0
ARC
  5
340
330
17
100
AcDbEntity
  8
IMAGE
100
AcDbCircle
 10
2.282539952801081
 20
4.804066634155673
 30
0.0
 40
0.1566980695398203
100
AcDbArc
 50
159.7199718669747
 51
248.9186453553905
  0
ARC
  5
341
330
17
100
AcDbEntity
  8
IMAGE
100
AcDbCircle
 10
2.228826040028917
 20
4.483317730169257
 30
0.0
 40
0.1566980695398203
100
AcDbArc
 50
339.7199718669747
 51
68.91864535539045
  0
ARC
  5
342
330
17
100
AcDbEntity
  8
IMAGE
100
AcDbCircle
 10
2.432173594235
 20
4.575215182550852
 30
0.0
 40
0.1566980695398203
100
AcDbArc
 50
159.7199718669747
 51
248.9186453553905
  0
ARC
  5
343
330
17
100
AcDbEntity
  8
IMAGE
100
AcDbCircle
 10
2.21796622051589
 20
4.703633400934394
 30
0.0
 40
0.1566980695398203
100
AcDbArc
 50
323.5307656099477
 51
52.72943909836341
  0
ARC
  5
344
330
17
100
AcDbEntity
  8
IMAGE
100
AcDbCircle
 10
2.438872223523294
 20
4.735191401364021
 30
0.0
 40
0.1566980695398203
100
AcDbArc
 50
143.5307656099477
 51
232.7294390983634
  0
ARC
  5
345
330
17
100
AcDbEntity
  8
IMAGE
100
AcDbCircle
 10
2.07713455798985
 20
4.386762160250796
 30
0.0
 40
0.1566980695398203
100
AcDbArc
 50
323.5307656099477
 51
52.72943909836341
  0
ARC
  5
346
330
17
100
AcDbEntity
  8
IMAGE
100
AcDbCircle
 10
2.298040560997251
 20
4.418320160680424
 30
0.0
 40
0.1566980695398203
100
AcDbArc
 50
143.5307656099477
 51
232.7294390983634
  0
ARC
  5
347
330
17
100
AcDbEntity
  8
IMAGE
100
AcDbCircle
 10
2.079837971942019
 20
4.931609350906771
 30
0.0
 40
0.1566980695398203
100
AcDbArc
 50
323.5307656099477
 51
52.72943909836341
  0
ARC
  5
348
330
17
100
AcDbEntity
  8
IMAGE
100
AcDbCircle
 10
2.300743974949424
 20
4.963167351336402
 30
0.0
 40
0.1566980695398203
100
AcDbArc
 50
143.5307656099477
 51
232.7294390983634
  0
ARC
  5
349
330
17
100
AcDbEntity
  8
IMAGE
100
AcDbCircle
 10
2.258095270066949
 20
4.993926875982025
 30
0.0
 40
0.1566980695398203
100
AcDbArc
 50
323.5307656099477
 51
52.72943909836341
  0
ARC
  5
34A
330
17
100
AcDbEntity
  8
IMAGE
100
AcDbCircle
 10
2.479001273074353
 20
5.025484876411652
 30
0.0
 40
0.1566980695398203
100
AcDbArc
 50
143.5307656099477
 51
232.7294390983634
  0
ARC
  5
34B
330
17
100
AcDbEntity
  8
IMAGE
100
AcDbCircle
 10
2.173956325976505
 20
4.360356223527164
 30
0.0
 40
0.1566980695398203
100
AcDbArc
 50
323.5307656099477
 51
52.72943909836341
  0
ARC
  5
34C
330
17
100
AcDbEntity
  8
IMAGE
100
AcDbCircle
 10
2.394862328983905
 20
4.391914223956791
 30
0.0
 40
0.1566980695398203
100
AcDbArc
 50
143.5307656099477
 51
232.7294390983634
  0
ARC
  5
34D
330
17
100
AcDbEntity
  8
IMAGE
100
AcDbCircle
 10
2.146284173461979
 20
4.689338597358498
 30
0.0
 40
0.1566980695398203
100
AcDbArc
 50
296.0563205359582
 51
25.2549940243739
  0
ARC
  5
34E
330
17
100
AcDbEntity
  8
IMAGE
100
AcDbCircle
 10
2.356835043336098
 20
4.615421747107187
 30
0.0
 40
0.1566980695398203
100
AcDbArc
 50
116.0563205359582
 51
205.2549940243739
  0
ARC
  5
34F
330
17
100
AcDbEntity
  8
IMAGE
100
AcDbCircle
 10
2.021929239845228
 20
4.758831003461872
 30
0.0
 40
0.1566980695398203
100
AcDbArc
 50
296.0563205359582
 51
25.2549940243739
  0
ARC
  5
350
330
17
100
AcDbEntity
  8
IMAGE
100
AcDbCircle
 10
2.232480109719351
 20
4.684914153210561
 30
0.0
 40
0.1566980695398203
100
AcDbArc
 50
116.0563205359582
 51
205.2549940243739
  0
ARC
  5
351
330
17
100
AcDbEntity
  8
IMAGE
100
AcDbCircle
 10
2.432584810123301
 20
4.74250234705455
 30
0.0
 40
0.1566980695398203
100
AcDbArc
 50
339.7199718669747
 51
68.91864535539045
  0
ARC
  5
352
330
17
100
AcDbEntity
  8
IMAGE
100
AcDbCircle
 10
2.635932364329384
 20
4.834399799436144
 30
0.0
 40
0.1566980695398203
100
AcDbArc
 50
159.7199718669747
 51
248.9186453553905
  0
ARC
  5
353
330
17
100
AcDbEntity
  8
IMAGE
100
AcDbCircle
 10
1.890888719473764
 20
4.505348228510125
 30
0.0
 40
0.1566980695398203
100
AcDbArc
 50
339.7199718669747
 51
68.91864535539045
  0
ARC
  5
354
330
17
100
AcDbEntity
  8
IMAGE
100
AcDbCircle
 10
2.094236273679848
 20
4.597245680891719
 30
0.0
 40
0.1566980695398203
100
AcDbArc
 50
159.7199718669747
 51
248.9186453553905
  0
ARC
  5
355
330
17
100
AcDbEntity
  8
IMAGE
100
AcDbCircle
 10
1.880028899960738
 20
4.72566389927526
 30
0.0
 40
0.1566980695398203
100
AcDbArc
 50
323.5307656099477
 51
52.72943909836341
  0
ARC
  5
356
330
17
100
AcDbEntity
  8
IMAGE
100
AcDbCircle
 10
2.100934902968142
 20
4.757221899704887
 30
0.0
 40
0.1566980695398203
100
AcDbArc
 50
143.5307656099477
 51
232.7294390983634
  0
ARC
  5
357
330
17
100
AcDbEntity
  8
IMAGE
100
AcDbCircle
 10
1.836019005421352
 20
4.38238672186803
 30
0.0
 40
0.1566980695398203
100
AcDbArc
 50
323.5307656099477
 51
52.72943909836341
  0
ARC
  5
358
330
17
100
AcDbEntity
  8
IMAGE
100
AcDbCircle
 10
2.056925008428753
 20
4.413944722297657
 30
0.0
 40
0.1566980695398203
100
AcDbArc
 50
143.5307656099477
 51
232.7294390983634
  0
ARC
  5
359
330
17
100
AcDbEntity
  8
IMAGE
100
AcDbCircle
 10
1.808346852906826
 20
4.711369095699364
 30
0.0
 40
0.1566980695398203
100
AcDbArc
 50
296.0563205359582
 51
25.2549940243739
  0
ARC
  5
35A
330
17
100
AcDbEntity
  8
IMAGE
100
AcDbCircle
 10
2.018897722780945
 20
4.637452245448054
 30
0.0
 40
0.1566980695398203
100
AcDbArc
 50
116.0563205359582
 51
205.2549940243739
  0
ARC
  5
35B
330
17
100
AcDbEntity
  8
IMAGE
100
AcDbCircle
 10
1.966450934216248
 20
4.370667799977488
 30
0.0
 40
0.1566980695398203
100
AcDbArc
 50
323.5307656099477
 51
52.72943909836341
  0
ARC
  5
35C
330
17
100
AcDbEntity
  8
IMAGE
100
AcDbCircle
 10
2.187356937223652
 20
4.402225800407117
 30
0.0
 40
0.1566980695398203
100
AcDbArc
 50
143.5307656099477
 51
232.7294390983634
  0
ARC
  5
35D
330
17
100
AcDbEntity
  8
IMAGE
100
AcDbCircle
 10
1.981964238861286
 20
4.898970347931373
 30
0.0
 40
0.1566980695398203
100
AcDbArc
 50
296.0563205359582
 51
25.2549940243739
  0
ARC
  5
35E
330
17
100
AcDbEntity
  8
IMAGE
100
AcDbCircle
 10
2.192515108735405
 20
4.825053497680062
 30
0.0
 40
0.1566980695398203
100
AcDbArc
 50
116.0563205359582
 51
205.2549940243739
  0
ARC
  5
35F
330
17
100
AcDbEntity
  8
IMAGE
100
AcDbCircle
 10
1.894721847740031
 20
4.890892541196673
 30
0.0
 40
0.1566980695398203
100
AcDbArc
 50
323.5307656099477
 51
52.72943909836341
  0
ARC
  5
360
330
17
100
AcDbEntity
  8
IMAGE
100
AcDbCircle
 10
2.115627850747435
 20
4.922450541626299
 30
0.0
 40
0.1566980695398203
100
AcDbArc
 50
143.5307656099477
 51
232.7294390983634
  0
ARC
  5
361
330
17
100
AcDbEntity
  8
IMAGE
100
AcDbCircle
 10
2.375755326474412
 20
4.9863472828939
 30
0.0
 40
0.1566980695398203
100
AcDbArc
 50
339.7199718669747
 51
68.91864535539045
  0
ARC
  5
362
330
17
100
AcDbEntity
  8
IMAGE
100
AcDbCircle
 10
2.579102880680495
 20
5.078244735275495
 30
0.0
 40
0.1566980695398203
100
AcDbArc
 50
159.7199718669747
 51
248.9186453553905
  0
ARC
  5
363
330
17
100
AcDbEntity
  8
IMAGE
100
AcDbCircle
 10
1.002077044146755
 20
5.127759154709716
 30
0.0
 40
0.1566980695398203
100
AcDbArc
 50
296.0563205359582
 51
25.2549940243739
  0
ARC
  5
364
330
17
100
AcDbEntity
  8
IMAGE
100
AcDbCircle
 10
1.212627914020876
 20
5.053842304458406
 30
0.0
 40
0.1566980695398203
100
AcDbArc
 50
116.0563205359582
 51
205.2549940243739
  0
LWPOLYLINE
  5
367
330
17
100
AcDbEntity
  8
TEXT_LEADERS
100
AcDbPolyline
 90
        2
 70
     0
 43
0.0
 10
4.784697326828971
 20
4.676339155862612
 10
5.12162048492213
 20
4.676339155862612
  0
TEXT
  5
36F
330
17
100
AcDbEntity
  8
TEXT_LEADERS
100
AcDbText
 10
5.179999999999999
 20
4.184226908795962
 30
0.0
 40
0.125
  1
  (LENGTH AS REQUIRED)
  7
ROMANS
100
AcDbText
  0
TEXT
  5
370
330
17
100
AcDbEntity
  8
TEXT_BUBBLES
100
AcDbText
 10
5.179999999999999
 20
3.452744570472955
 30
0.0
 40
0.125
  1

  7
ROMANS
100
AcDbText
  0
CIRCLE
  5
371
330
17
100
AcDbEntity
  8
TEXT_BUBBLES
100
AcDbCircle
 10
4.951060686257799
 20
3.335173046400668
 30
0.0
 40
0.1562500000000004
  0
TEXT
  5
372
330
17
100
AcDbEntity
  8
TEXT_BUBBLES
100
AcDbText
 10
4.891536876733989
 20
3.272673046400668
 30
0.0
 40
0.1250000000000003
  1
7
  7
ROMANS
 72
     4
 11
4.951060686257799
 21
3.335173046400668
 31
0.0
100
AcDbText
  0
TEXT
  5
373
330
17
100
AcDbEntity
  8
TEXT_BUBBLES
100
AcDbText
 10
5.179999999999999
 20
4.502744570472954
 30
0.0
 40
0.125
  1
  (LENGTH AS REQUIRED)
  7
ROMANS
100
AcDbText
  0
TEXT
  5
374
330
17
100
AcDbEntity
  8
TEXT_BUBBLES
100
AcDbText
 10
5.179999999999999
 20
3.277744570472955
 30
0.0
 40
0.125
  1
PVC SCH 80 NIPPLE
  7
ROMANS
100
AcDbText
  0
TEXT
  5
3D1
330
17
100
AcDbEntity
  8
OPTION-3500-S-SAM-NP
100
AcDbText
 10
5.180003207882115
 20
5.902914402461179
 30
0.0
 40
0.125
  1
  3500-S-SAM-NP
  7
ROMANS
100
AcDbText
  0
TEXT
  5
3D2
330
17
100
AcDbEntity
  8
OPTION-3500-S
100
AcDbText
 10
5.180003207882115
 20
5.902914402461179
 30
0.0
 40
0.125
  1
  3500-S
  7
ROMANS
100
AcDbText
  0
TEXT
  5
3DF
330
17
100
AcDbEntity
  8
OPTION-3500-S-SAM
100
AcDbText
 10
5.180003207882115
 20
5.902914402461179
 30
0.0
 40
0.125
  1
  3500-S-SAM
  7
ROMANS
100
AcDbText
  0
TEXT
  5
3E3
330
17
100
AcDbEntity
  8
INSTRUCT-OPTION
100
AcDbText
 10
10.95464901541829
 20
4.662507862779213
 30
0.0
 40
0.1250000018625003
  1
TO TURN OFF THIS INSTRUCTION BOX, TURN OFF
  7
ROMANS
100
AcDbText
  0
TEXT
  5
3E5
330
17
100
AcDbEntity
  8
INSTRUCT-OPTION
100
AcDbText
 10
11.06123025
 20
6.77976412
 30
0.0
 40
0.125
  1

  7
ROMANS
100
AcDbText
  0
LINE
  5
3E6
330
17
100
AcDbEntity
  8
INSTRUCT-OPTION
100
AcDbLine
 10
10.93892119084291
 20
7.369968970602837
 30
0.0
 11
10.93892119084291
 21
4.882646369963258
 31
0.0
  0
TEXT
  5
3FC
330
17
100
AcDbEntity
  8
INSTRUCT-OPTION
100
AcDbText
 10
11.26569864150056
 20
7.424841824624119
 30
0.0
 40
0.1250000018625003
  1
CHOOSING A DIFFERENT SPRINKLER MODEL
  7
ROMANS
100
AcDbText
  0
LINE
  5
3FD
330
17
100
AcDbEntity
  8
INSTRUCT-OPTION
100
AcDbLine
 10
10.93892119084291
 20
4.882646369963258
 30
0.0
 11
15.70705189447306
 21
4.882646369963258
 31
0.0
  0
TEXT
  5
3FE
330
17
100
AcDbEntity
  8
INSTRUCT-OPTION
100
AcDbText
 10
10.95464901541829
 20
4.485132808419212
 30
0.0
 40
0.1250000018625003
  1
LAYER "INSTRUCT-OPTION".
  7
ROMANS
100
AcDbText
  0
LINE
  5
3FF
330
17
100
AcDbEntity
  8
INSTRUCT-OPTION
100
AcDbLine
 10
15.70705189447306
 20
7.369968970602837
 30
0.0
 11
10.93892119084291
 21
7.369968970602837
 31
0.0
  0
LINE
  5
400
330
17
100
AcDbEntity
  8
INSTRUCT-OPTION
100
AcDbLine
 10
15.70705189447306
 20
4.882646369963258
 30
0.0
 11
15.70705189447306
 21
7.369968970602837
 31
0.0
  0
HATCH
  5
405
330
17
100
AcDbEntity
  8
IMAGE
100
AcDbHatch
 10
0.0
 20
0.0
 30
0.0
210
0.0
220
0.0
230
1.0
  2
EARTH
 70
     0
 71
     0
 91
        1
 92
        1
 93
        8
 72
     1
 10
0.4169467004095015
 20
4.268961380869543
 11
0.4714632943027948
 21
4.142656072555904
 72
     1
 10
0.4714632943027948
 20
4.142656072555904
 11
0.5852370343140244
 21
3.97916549614993
 72
     1
 10
0.5852370343140244
 20
3.97916549614993
 11
0.8127845467778007
 21
3.789611183425237
 72
     1
 10
0.8127845467778007
 20
3.789611183425238
 11
0.9881857576812672
 21
3.647445459349762
 72
     1
 10
0.9881857576812674
 20
3.647445459349762
 11
1.267879571705357
 21
3.604795733752682
 72
     1
 10
1.267879571705357
 20
3.604795733752682
 11
1.394095548102788
 21
3.578732034413827
 72
     1
 10
1.394095548102788
 20
3.578732034413827
 11
1.394091808272837
 21
4.268961380869543
 72
     1
 10
1.394091808272837
 20
4.268961380869543
 11
0.4169467004095014
 21
4.268961380869543
 97
        0
 75
     0
 76
     1
 52
45.0
 41
0.6500000000000016
 77
     0
 78
     6
 53
44.99999999999999
 43
0.0
 44
0.0
 45
0.0
 46
0.2298097038856285
 79
     2
 49
0.1625000000000004
 49
-0.1625000000000004
 53
44.99999999999999
 43
-0.0430893194785554
 44
0.0430893194785554
 45
0.0
 46
0.2298097038856285
 79
     2
 49
0.1625000000000004
 49
-0.1625000000000004
 53
44.99999999999999
 43
-0.0861786389571107
 44
0.0861786389571107
 45
0.0
 46
0.2298097038856285
 79
     2
 49
0.1625000000000004
 49
-0.1625000000000004
 53
135.0
 43
-0.0861786389571107
 44
0.1149048519428143
 45
-0.2298097038856285
 46
0.0
 79
     2
 49
0.1625000000000004
 49
-0.1625000000000004
 53
135.0
 43
-0.0430893194785553
 44
0.1579941714213696
 45
-0.2298097038856285
 46
0.0
 79
     2
 49
0.1625000000000004
 49
-0.1625000000000004
 53
135.0
 43
0.0
 44
0.2010834908999249
 45
-0.2298097038856285
 46
0.0
 79
     2
 49
0.1625000000000004
 49
-0.1625000000000004
 98
        1
 10
0.0
 20
0.0
  0
HATCH
  5
406
330
17
100
AcDbEntity
  8
IMAGE
100
AcDbHatch
 10
0.0
 20
0.0
 30
0.0
210
0.0
220
0.0
230
1.0
  2
EARTH
 70
     0
 71
     0
 91
        1
 92
        1
 93
       13
 72
     1
 10
1.668322079597136
 20
4.268961380869543
 11
1.668311930228304
 21
3.573993178387252
 72
     1
 10
1.668311930228304
 20
3.573993178387252
 11
1.789342619749789
 21
3.573993176253997
 72
     1
 10
1.789342619749789
 20
3.573993176253997
 11
1.960003245987292
 21
3.583470881422188
 72
     1
 10
1.960003245987292
 20
3.583470881422188
 11
2.092739292221052
 21
3.645076038291735
 72
     1
 10
2.092739292221052
 20
3.645076038291735
 11
2.279991932348105
 21
3.716158900329472
 72
     1
 10
2.279991932348105
 20
3.716158900329473
 11
2.486206878697688
 21
3.758808604990465
 72
     1
 10
2.486206878697688
 20
3.758808604990465
 11
2.723235528052071
 21
3.815674898807872
 72
     1
 10
2.723235528052071
 20
3.815674898807872
 11
2.863082418843458
 21
3.867802350509232
 72
     1
 10
2.863082418843457
 20
3.867802350509232
 11
2.98396703585363
 21
3.931776928436803
 72
     1
 10
2.98396703585363
 20
3.931776928436803
 11
3.074037917417687
 21
4.017076358694871
 72
     1
 10
3.074037917417687
 20
4.017076358694871
 11
3.145146525200527
 21
4.114222936115243
 72
     1
 10
3.145146525200527
 20
4.114222936115242
 11
3.2020334114268
 21
4.268961380869543
 72
     1
 10
3.2020334114268
 20
4.268961380869543
 11
1.668322079597137
 21
4.268961380869543
 97
        0
 75
     0
 76
     1
 52
45.0
 41
0.6500000000000016
 77
     0
 78
     6
 53
44.99999999999999
 43
0.0
 44
0.0
 45
0.0
 46
0.2298097038856285
 79
     2
 49
0.1625000000000004
 49
-0.1625000000000004
 53
44.99999999999999
 43
-0.0430893194785554
 44
0.0430893194785554
 45
0.0
 46
0.2298097038856285
 79
     2
 49
0.1625000000000004
 49
-0.1625000000000004
 53
44.99999999999999
 43
-0.0861786389571107
 44
0.0861786389571107
 45
0.0
 46
0.2298097038856285
 79
     2
 49
0.1625000000000004
 49
-0.1625000000000004
 53
135.0
 43
-0.0861786389571107
 44
0.1149048519428143
 45
-0.2298097038856285
 46
0.0
 79
     2
 49
0.1625000000000004
 49
-0.1625000000000004
 53
135.0
 43
-0.0430893194785553
 44
0.1579941714213696
 45
-0.2298097038856285
 46
0.0
 79
     2
 49
0.1625000000000004
 49
-0.1625000000000004
 53
135.0
 43
0.0
 44
0.2010834908999249
 45
-0.2298097038856285
 46
0.0
 79
     2
 49
0.1625000000000004
 49
-0.1625000000000004
 98
        1
 10
0.0
 20
0.0
  0
LINE
  5
419
330
17
100
AcDbEntity
  8
IMAGE
100
AcDbLine
 10
1.362927541821169
 20
6.617308630631098
 30
0.0
 11
1.362927256583969
 21
6.078950087953357
 31
0.0
  0
LINE
  5
41B
330
17
100
AcDbEntity
  8
IMAGE
100
AcDbLine
 10
1.699478754639
 20
6.078941044875766
 30
0.0
 11
1.699489672571652
 21
6.617299141245288
 31
0.0
  0
LINE
  5
5DB
330
17
100
AcDbEntity
  8
IMAGE
100
AcDbLine
 10
1.394097397972834
 20
3.237316887183454
 30
0.0
 11
1.394100000000003
 21
2.757082348339286
 31
0.0
  0
LINE
  5
5DC
330
17
100
AcDbEntity
  8
IMAGE
100
AcDbLine
 10
1.668307013381973
 20
3.237316887183454
 30
0.0
 11
1.668300000000004
 21
2.757082348339286
 31
0.0
  0
LINE
  5
5DD
330
17
100
AcDbEntity
  8
IMAGE
100
AcDbLine
 10
1.394094055459062
 20
3.854216887183454
 30
0.0
 11
1.394097397972834
 21
3.237316887183454
 31
0.0
  0
LINE
  5
5DE
330
17
100
AcDbEntity
  8
IMAGE
100
AcDbLine
 10
1.6683160226368
 20
3.854216887183454
 30
0.0
 11
1.668307013381973
 21
3.237316887183454
 31
0.0
  0
LINE
  5
82C
330
17
100
AcDbEntity
  8
IMAGE
100
AcDbLine
 10
1.384448072071814
 20
5.256032115335457
 30
0.0
 11
1.447277682469774
 21
5.256032115335455
 31
0.0
  0
LINE
  5
82D
330
17
100
AcDbEntity
  8
IMAGE
100
AcDbLine
 10
1.443399017664808
 20
5.21788048742848
 30
0.0
 11
1.34612748521369
 21
5.21788048742848
 31
0.0
  0
LINE
  5
82E
330
17
100
AcDbEntity
  8
IMAGE
100
AcDbLine
 10
1.445615397553359
 20
5.248246068823829
 30
0.0
 11
1.352060396408225
 21
5.248246068823829
 31
0.0
  0
LINE
  5
82F
330
17
100
AcDbEntity
  8
IMAGE
100
AcDbLine
 10
1.713313554889719
 20
5.333892580451735
 30
0.0
 11
1.349964717680417
 21
5.333892580451737
 31
0.0
  0
LINE
  5
830
330
17
100
AcDbEntity
  8
IMAGE
100
AcDbLine
 10
1.700336810703667
 20
5.333892580451737
 30
0.0
 11
1.362941461866457
 21
5.333892580451737
 31
0.0
  0
LINE
  5
832
330
17
100
AcDbEntity
  8
IMAGE
100
AcDbLine
 10
1.81063913628507
 20
5.05878560370755
 30
0.0
 11
1.25263913628507
 21
5.05878560370755
 31
0.0
  0
LINE
  5
833
330
17
100
AcDbEntity
  8
IMAGE
100
AcDbLine
 10
1.25263913628507
 20
5.05878560370755
 30
0.0
 11
1.25263913628507
 21
5.23768664661194
 31
0.0
  0
LINE
  5
834
330
17
100
AcDbEntity
  8
IMAGE
100
AcDbLine
 10
1.260500597993542
 20
5.203086999056388
 30
0.0
 11
1.25863002435013
 21
5.05878560370755
 31
0.0
  0
LINE
  5
835
330
17
100
AcDbEntity
  8
IMAGE
100
AcDbLine
 10
1.28891539344897
 20
5.203086999056388
 30
0.0
 11
1.290785967092382
 21
5.05878560370755
 31
0.0
  0
LINE
  5
836
330
17
100
AcDbEntity
  8
IMAGE
100
AcDbLine
 10
1.28891539344897
 20
5.203086999056388
 30
0.0
 11
1.260500597993542
 21
5.203086999056388
 31
0.0
  0
LINE
  5
837
330
17
100
AcDbEntity
  8
IMAGE
100
AcDbLine
 10
1.374564303626709
 20
5.203086999056388
 30
0.0
 11
1.376434877270123
 21
5.05878560370755
 31
0.0
  0
LINE
  5
838
330
17
100
AcDbEntity
  8
IMAGE
100
AcDbLine
 10
1.346139914374954
 20
5.203086999056388
 30
0.0
 11
1.344269340731544
 21
5.05878560370755
 31
0.0
  0
LINE
  5
839
330
17
100
AcDbEntity
  8
IMAGE
100
AcDbLine
 10
1.374564303626709
 20
5.203086999056388
 30
0.0
 11
1.346139914374954
 21
5.203086999056388
 31
0.0
  0
LINE
  5
83A
330
17
100
AcDbEntity
  8
IMAGE
100
AcDbLine
 10
1.325584169223153
 20
5.21788048742848
 30
0.0
 11
1.25263913628507
 21
5.21788048742848
 31
0.0
  0
LINE
  5
83B
330
17
100
AcDbEntity
  8
IMAGE
100
AcDbLine
 10
1.264075679530115
 20
5.248246068823829
 30
0.0
 11
1.334507673861647
 21
5.254889047582653
 31
0.0
  0
LINE
  5
83C
330
17
100
AcDbEntity
  8
IMAGE
100
AcDbLine
 10
1.331025686718219
 20
5.248246068823829
 30
0.0
 11
1.264075679530115
 21
5.248246068823829
 31
0.0
  0
LINE
  5
83D
330
17
100
AcDbEntity
  8
IMAGE
100
AcDbLine
 10
1.260566237270427
 20
5.255221917690945
 30
0.0
 11
1.349964717680417
 21
5.333892580451735
 31
0.0
  0
LINE
  5
83E
330
17
100
AcDbEntity
  8
IMAGE
100
AcDbLine
 10
1.25263913628507
 20
5.21788048742848
 30
0.0
 11
1.264075679530113
 21
5.248246068823829
 31
0.0
  0
ARC
  5
83F
330
17
100
AcDbEntity
  8
IMAGE
100
AcDbCircle
 10
1.275997275819952
 20
5.23768664661194
 30
0.0
 40
0.0233581395348838
100
AcDbArc
 50
131.3477772196935
 51
180.0
  0
LINE
  5
840
330
17
100
AcDbEntity
  8
IMAGE
100
AcDbLine
 10
1.406132256246011
 20
5.333892580451737
 30
0.0
 11
1.406132256246011
 21
5.333892580451737
 31
0.0
  0
LINE
  5
841
330
17
100
AcDbEntity
  8
IMAGE
100
AcDbLine
 10
1.362941461866457
 20
5.333892580451737
 30
0.0
 11
1.362941461866457
 21
5.372822813009876
 31
0.0
  0
LINE
  5
842
330
17
100
AcDbEntity
  8
IMAGE
100
AcDbLine
 10
1.384448072071814
 20
5.333892580451737
 30
0.0
 11
1.384448072071814
 21
5.256032115335457
 31
0.0
  0
LINE
  5
843
330
17
100
AcDbEntity
  8
IMAGE
100
AcDbLine
 10
1.364073846379457
 20
5.333892580451735
 30
0.0
 11
1.364073846379457
 21
5.311295762462767
 31
0.0
  0
LINE
  5
844
330
17
100
AcDbEntity
  8
IMAGE
100
AcDbLine
 10
1.34612748521369
 20
5.21788048742848
 30
0.0
 11
1.352060396408225
 21
5.248246068823829
 31
0.0
  0
LINE
  5
845
330
17
100
AcDbEntity
  8
IMAGE
100
AcDbLine
 10
1.334114035242457
 20
5.237864673474992
 30
0.0
 11
1.325584169223153
 21
5.237864673474992
 31
0.0
  0
LINE
  5
846
330
17
100
AcDbEntity
  8
IMAGE
100
AcDbLine
 10
1.34612748521369
 20
5.21788048742848
 30
0.0
 11
1.334114035242457
 21
5.217880487428478
 31
0.0
  0
LINE
  5
847
330
17
100
AcDbEntity
  8
IMAGE
100
AcDbLine
 10
1.325584169223153
 20
5.237864673474992
 30
0.0
 11
1.325584169223153
 21
5.21788048742848
 31
0.0
  0
LINE
  5
848
330
17
100
AcDbEntity
  8
IMAGE
100
AcDbLine
 10
1.334114035242457
 20
5.237864673474992
 30
0.0
 11
1.334114035242457
 21
5.21788048742848
 31
0.0
  0
LINE
  5
849
330
17
100
AcDbEntity
  8
IMAGE
100
AcDbLine
 10
1.384448072071814
 20
5.333892580451737
 30
0.0
 11
1.334114035242457
 21
5.237864673474992
 31
0.0
  0
LINE
  5
84A
330
17
100
AcDbEntity
  8
IMAGE
100
AcDbLine
 10
1.375918206052509
 20
5.333892580451737
 30
0.0
 11
1.325584169223153
 21
5.237864673474992
 31
0.0
  0
LINE
  5
84B
330
17
100
AcDbEntity
  8
IMAGE
100
AcDbLine
 10
1.352060396408225
 20
5.248246068823829
 30
0.0
 11
1.384448072071814
 21
5.256032115335457
 31
0.0
  0
LINE
  5
84C
330
17
100
AcDbEntity
  8
IMAGE
100
AcDbLine
 10
1.81063913628507
 20
5.05878560370755
 30
0.0
 11
1.81063913628507
 21
5.23768664661194
 31
0.0
  0
LINE
  5
84D
330
17
100
AcDbEntity
  8
IMAGE
100
AcDbLine
 10
1.54585253018586
 20
5.203086999056388
 30
0.0
 11
1.547723103829273
 21
5.05878560370755
 31
0.0
  0
LINE
  5
84E
330
17
100
AcDbEntity
  8
IMAGE
100
AcDbLine
 10
1.517418547137781
 20
5.203086999056388
 30
0.0
 11
1.515547973494371
 21
5.05878560370755
 31
0.0
  0
LINE
  5
84F
330
17
100
AcDbEntity
  8
IMAGE
100
AcDbLine
 10
1.54585253018586
 20
5.203086999056388
 30
0.0
 11
1.517418547137781
 21
5.203086999056388
 31
0.0
  0
LINE
  5
850
330
17
100
AcDbEntity
  8
IMAGE
100
AcDbLine
 10
1.460213213804447
 20
5.203086999056388
 30
0.0
 11
1.431779230756369
 21
5.203086999056388
 31
0.0
  0
LINE
  5
851
330
17
100
AcDbEntity
  8
IMAGE
100
AcDbLine
 10
1.431779230756369
 20
5.203086999056388
 30
0.0
 11
1.429908657112958
 21
5.05878560370755
 31
0.0
  0
LINE
  5
852
330
17
100
AcDbEntity
  8
IMAGE
100
AcDbLine
 10
1.460213213804447
 20
5.203086999056388
 30
0.0
 11
1.462083787447857
 21
5.05878560370755
 31
0.0
  0
LINE
  5
853
330
17
100
AcDbEntity
  8
IMAGE
100
AcDbLine
 10
1.631491846567274
 20
5.203086999056388
 30
0.0
 11
1.633362420210684
 21
5.05878560370755
 31
0.0
  0
LINE
  5
854
330
17
100
AcDbEntity
  8
IMAGE
100
AcDbLine
 10
1.603067457315521
 20
5.203086999056388
 30
0.0
 11
1.601196883672109
 21
5.05878560370755
 31
0.0
  0
LINE
  5
855
330
17
100
AcDbEntity
  8
IMAGE
100
AcDbLine
 10
1.631491846567274
 20
5.203086999056388
 30
0.0
 11
1.603067457315521
 21
5.203086999056388
 31
0.0
  0
LINE
  5
856
330
17
100
AcDbEntity
  8
IMAGE
100
AcDbLine
 10
1.802916513430128
 20
5.203086999056388
 30
0.0
 11
1.774365277670997
 21
5.203086999056388
 31
0.0
  0
LINE
  5
857
330
17
100
AcDbEntity
  8
IMAGE
100
AcDbLine
 10
1.774365277670997
 20
5.203086999056388
 30
0.0
 11
1.772494704027585
 21
5.05878560370755
 31
0.0
  0
LINE
  5
858
330
17
100
AcDbEntity
  8
IMAGE
100
AcDbLine
 10
1.717131162948687
 20
5.203086999056388
 30
0.0
 11
1.719001736592097
 21
5.05878560370755
 31
0.0
  0
LINE
  5
859
330
17
100
AcDbEntity
  8
IMAGE
100
AcDbLine
 10
1.688716367493256
 20
5.203086999056388
 30
0.0
 11
1.686845793849848
 21
5.05878560370755
 31
0.0
  0
LINE
  5
85A
330
17
100
AcDbEntity
  8
IMAGE
100
AcDbLine
 10
1.717131162948687
 20
5.203086999056388
 30
0.0
 11
1.688716367493256
 21
5.203086999056388
 31
0.0
  0
LINE
  5
85B
330
17
100
AcDbEntity
  8
IMAGE
100
AcDbLine
 10
1.802916513430128
 20
5.203086999056388
 30
0.0
 11
1.801045939786717
 21
5.05878560370755
 31
0.0
  0
LINE
  5
85C
330
17
100
AcDbEntity
  8
IMAGE
100
AcDbLine
 10
1.729164237327678
 20
5.21788048742848
 30
0.0
 11
1.619879254905326
 21
5.21788048742848
 31
0.0
  0
LINE
  5
85D
330
17
100
AcDbEntity
  8
IMAGE
100
AcDbLine
 10
1.619879254905326
 20
5.21788048742848
 30
0.0
 11
1.717150787356446
 21
5.21788048742848
 31
0.0
  0
LINE
  5
85E
330
17
100
AcDbEntity
  8
IMAGE
100
AcDbLine
 10
1.617662875016777
 20
5.248246068823829
 30
0.0
 11
1.711217876161912
 21
5.248246068823829
 31
0.0
  0
LINE
  5
85F
330
17
100
AcDbEntity
  8
IMAGE
100
AcDbLine
 10
1.678830200498323
 20
5.256032115335457
 30
0.0
 11
1.616000590100363
 21
5.256032115335455
 31
0.0
  0
LINE
  5
860
330
17
100
AcDbEntity
  8
IMAGE
100
AcDbLine
 10
1.531639136285069
 20
5.248246068823831
 30
0.0
 11
1.58976202491375
 21
5.248246068823831
 31
0.0
  0
LINE
  5
861
330
17
100
AcDbEntity
  8
IMAGE
100
AcDbLine
 10
1.580697054189701
 20
5.256032115335455
 30
0.0
 11
1.531639136285069
 21
5.256032115335457
 31
0.0
  0
LINE
  5
862
330
17
100
AcDbEntity
  8
IMAGE
100
AcDbLine
 10
1.601198568158798
 20
5.21788048742848
 30
0.0
 11
1.462079704411339
 21
5.21788048742848
 31
0.0
  0
LINE
  5
863
330
17
100
AcDbEntity
  8
IMAGE
100
AcDbLine
 10
1.482581218380437
 20
5.256032115335455
 30
0.0
 11
1.531639136285069
 21
5.256032115335457
 31
0.0
  0
LINE
  5
864
330
17
100
AcDbEntity
  8
IMAGE
100
AcDbLine
 10
1.482581218380437
 20
5.333892580451735
 30
0.0
 11
1.482581218380437
 21
5.256032115335457
 31
0.0
  0
LINE
  5
865
330
17
100
AcDbEntity
  8
IMAGE
100
AcDbLine
 10
1.462079704411339
 20
5.21788048742848
 30
0.0
 11
1.473516247656386
 21
5.248246068823831
 31
0.0
  0
LINE
  5
866
330
17
100
AcDbEntity
  8
IMAGE
100
AcDbLine
 10
1.463900531633904
 20
5.333892580451735
 30
0.0
 11
1.443399017664808
 21
5.237864673474994
 31
0.0
  0
LINE
  5
867
330
17
100
AcDbEntity
  8
IMAGE
100
AcDbLine
 10
1.462079704411339
 20
5.237864673474994
 30
0.0
 11
1.443399017664808
 21
5.237864673474994
 31
0.0
  0
LINE
  5
868
330
17
100
AcDbEntity
  8
IMAGE
100
AcDbLine
 10
1.443399017664808
 20
5.237864673474992
 30
0.0
 11
1.443399017664808
 21
5.21788048742848
 31
0.0
  0
LINE
  5
869
330
17
100
AcDbEntity
  8
IMAGE
100
AcDbLine
 10
1.462079704411339
 20
5.237864673474994
 30
0.0
 11
1.462079704411339
 21
5.21788048742848
 31
0.0
  0
LINE
  5
86A
330
17
100
AcDbEntity
  8
IMAGE
100
AcDbLine
 10
1.482581218380437
 20
5.333892580451735
 30
0.0
 11
1.462079704411339
 21
5.237864673474994
 31
0.0
  0
LINE
  5
86B
330
17
100
AcDbEntity
  8
IMAGE
100
AcDbLine
 10
1.473516247656386
 20
5.248246068823831
 30
0.0
 11
1.482581218380437
 21
5.256032115335457
 31
0.0
  0
LINE
  5
86C
330
17
100
AcDbEntity
  8
IMAGE
100
AcDbLine
 10
1.531639136285069
 20
5.248246068823831
 30
0.0
 11
1.473516247656386
 21
5.248246068823831
 31
0.0
  0
LINE
  5
86D
330
17
100
AcDbEntity
  8
IMAGE
100
AcDbLine
 10
1.619879254905326
 20
5.237864673474992
 30
0.0
 11
1.619879254905326
 21
5.21788048742848
 31
0.0
  0
LINE
  5
86E
330
17
100
AcDbEntity
  8
IMAGE
100
AcDbLine
 10
1.601198568158798
 20
5.21788048742848
 30
0.0
 11
1.58976202491375
 21
5.248246068823831
 31
0.0
  0
LINE
  5
86F
330
17
100
AcDbEntity
  8
IMAGE
100
AcDbLine
 10
1.580697054189701
 20
5.333892580451735
 30
0.0
 11
1.601198568158798
 21
5.237864673474994
 31
0.0
  0
LINE
  5
870
330
17
100
AcDbEntity
  8
IMAGE
100
AcDbLine
 10
1.601198568158798
 20
5.237864673474994
 30
0.0
 11
1.601198568158798
 21
5.21788048742848
 31
0.0
  0
LINE
  5
871
330
17
100
AcDbEntity
  8
IMAGE
100
AcDbLine
 10
1.58976202491375
 20
5.248246068823831
 30
0.0
 11
1.580697054189701
 21
5.256032115335457
 31
0.0
  0
LINE
  5
872
330
17
100
AcDbEntity
  8
IMAGE
100
AcDbLine
 10
1.580697054189701
 20
5.333892580451735
 30
0.0
 11
1.580697054189701
 21
5.256032115335457
 31
0.0
  0
LINE
  5
873
330
17
100
AcDbEntity
  8
IMAGE
100
AcDbLine
 10
1.59937774093623
 20
5.333892580451735
 30
0.0
 11
1.619879254905326
 21
5.237864673474994
 31
0.0
  0
LINE
  5
874
330
17
100
AcDbEntity
  8
IMAGE
100
AcDbLine
 10
1.601198568158798
 20
5.237864673474994
 30
0.0
 11
1.619879254905326
 21
5.237864673474994
 31
0.0
  0
LINE
  5
875
330
17
100
AcDbEntity
  8
IMAGE
100
AcDbLine
 10
1.81063913628507
 20
5.21788048742848
 30
0.0
 11
1.799202593040024
 21
5.248246068823829
 31
0.0
  0
LINE
  5
876
330
17
100
AcDbEntity
  8
IMAGE
100
AcDbLine
 10
1.737694103346982
 20
5.21788048742848
 30
0.0
 11
1.81063913628507
 21
5.21788048742848
 31
0.0
  0
LINE
  5
877
330
17
100
AcDbEntity
  8
IMAGE
100
AcDbLine
 10
1.81063913628507
 20
5.21788048742848
 30
0.0
 11
1.737694103346982
 21
5.21788048742848
 31
0.0
  0
LINE
  5
878
330
17
100
AcDbEntity
  8
IMAGE
100
AcDbLine
 10
1.80271203529971
 20
5.255221917690945
 30
0.0
 11
1.713313554889719
 21
5.333892580451735
 31
0.0
  0
LINE
  5
879
330
17
100
AcDbEntity
  8
IMAGE
100
AcDbLine
 10
1.737694103346982
 20
5.237864673474992
 30
0.0
 11
1.737694103346982
 21
5.21788048742848
 31
0.0
  0
LINE
  5
87A
330
17
100
AcDbEntity
  8
IMAGE
100
AcDbLine
 10
1.717150787356446
 20
5.21788048742848
 30
0.0
 11
1.711217876161912
 21
5.248246068823829
 31
0.0
  0
LINE
  5
87B
330
17
100
AcDbEntity
  8
IMAGE
100
AcDbLine
 10
1.678830200498323
 20
5.333892580451737
 30
0.0
 11
1.729164237327682
 21
5.237864673474992
 31
0.0
  0
LINE
  5
87C
330
17
100
AcDbEntity
  8
IMAGE
100
AcDbLine
 10
1.717150787356446
 20
5.21788048742848
 30
0.0
 11
1.729164237327682
 21
5.217880487428478
 31
0.0
  0
LINE
  5
87D
330
17
100
AcDbEntity
  8
IMAGE
100
AcDbLine
 10
1.729164237327682
 20
5.237864673474992
 30
0.0
 11
1.729164237327682
 21
5.21788048742848
 31
0.0
  0
LINE
  5
87E
330
17
100
AcDbEntity
  8
IMAGE
100
AcDbLine
 10
1.700336810703667
 20
5.333892580451737
 30
0.0
 11
1.700336810703667
 21
5.372822813009876
 31
0.0
  0
LINE
  5
87F
330
17
100
AcDbEntity
  8
IMAGE
100
AcDbLine
 10
1.711217876161912
 20
5.248246068823829
 30
0.0
 11
1.678830200498323
 21
5.256032115335457
 31
0.0
  0
LINE
  5
880
330
17
100
AcDbEntity
  8
IMAGE
100
AcDbLine
 10
1.678830200498323
 20
5.333892580451737
 30
0.0
 11
1.678830200498323
 21
5.256032115335457
 31
0.0
  0
LINE
  5
881
330
17
100
AcDbEntity
  8
IMAGE
100
AcDbLine
 10
1.69920442619068
 20
5.333892580451735
 30
0.0
 11
1.69920442619068
 21
5.311295762462767
 31
0.0
  0
LINE
  5
882
330
17
100
AcDbEntity
  8
IMAGE
100
AcDbLine
 10
1.687360066517626
 20
5.333892580451737
 30
0.0
 11
1.737694103346982
 21
5.237864673474992
 31
0.0
  0
LINE
  5
883
330
17
100
AcDbEntity
  8
IMAGE
100
AcDbLine
 10
1.729164237327678
 20
5.237864673474992
 30
0.0
 11
1.737694103346982
 21
5.237864673474992
 31
0.0
  0
LINE
  5
884
330
17
100
AcDbEntity
  8
IMAGE
100
AcDbLine
 10
1.799202593040024
 20
5.248246068823829
 30
0.0
 11
1.728770598708491
 21
5.254889047582653
 31
0.0
  0
LINE
  5
885
330
17
100
AcDbEntity
  8
IMAGE
100
AcDbLine
 10
1.732252585851918
 20
5.248246068823829
 30
0.0
 11
1.799202593040024
 21
5.248246068823829
 31
0.0
  0
ARC
  5
886
330
17
100
AcDbEntity
  8
IMAGE
100
AcDbCircle
 10
1.787280996750187
 20
5.23768664661194
 30
0.0
 40
0.0233581395348838
100
AcDbArc
 50
0.0
 51
48.65222278030643
  0
LINE
  5
894
330
17
100
AcDbEntity
  8
IMAGE
100
AcDbLine
 10
1.301172159540884
 20
4.877111185102899
 30
0.0
 11
1.23628843861065
 21
4.877111185102899
 31
0.0
  0
LWPOLYLINE
  5
895
330
17
100
AcDbEntity
  8
IMAGE
100
AcDbPolyline
 90
        2
 70
     0
 43
0.0
 10
1.23628843861065
 20
4.877111185102899
 10
1.23628843861065
 20
4.757505384258688
  0
LINE
  5
897
330
17
100
AcDbEntity
  8
IMAGE
100
AcDbLine
 10
1.53163913628507
 20
4.656506533940108
 30
0.0
 11
1.382045099066941
 21
4.656506533940108
 31
0.0
  0
LWPOLYLINE
  5
899
330
17
100
AcDbEntity
  8
IMAGE
100
AcDbPolyline
 90
        2
 70
     0
 43
0.0
 10
1.382045099066941
 20
4.656506533940108
 10
1.382045099066941
 20
4.735566905569782
  0
LWPOLYLINE
  5
89B
330
17
100
AcDbEntity
  8
IMAGE
100
AcDbPolyline
 90
        2
 70
     0
 43
0.0
 10
1.23628843861065
 20
4.757505384258688
 10
1.382045099066941
 20
4.674458119777771
  0
LWPOLYLINE
  5
8A0
330
17
100
AcDbEntity
  8
IMAGE
100
AcDbPolyline
 90
        2
 70
     0
 43
0.0
 10
1.521257740936233
 20
4.66316158963452
 10
1.521257740936233
 20
4.877111185102899
  0
LWPOLYLINE
  5
8AD
330
17
100
AcDbEntity
  8
IMAGE
100
AcDbPolyline
 90
        2
 70
     0
 43
0.0
 10
1.521257740936233
 20
4.877111185102899
 10
1.53163913628507
 20
4.877111185102899
  0
LWPOLYLINE
  5
8AE
330
17
100
AcDbEntity
  8
IMAGE
100
AcDbPolyline
 90
        2
 70
     0
 43
0.0
 10
1.521257740936233
 20
4.757505384258688
 10
1.53163913628507
 20
4.757505384258688
  0
LWPOLYLINE
  5
8AF
330
17
100
AcDbEntity
  8
IMAGE
100
AcDbPolyline
 90
        2
 70
     0
 43
0.0
 10
1.521257740936233
 20
4.66316158963452
 10
1.53163913628507
 20
4.66316158963452
  0
LINE
  5
8B0
330
17
100
AcDbEntity
  8
IMAGE
100
AcDbLine
 10
1.53163913628507
 20
5.040764264329889
 30
0.0
 11
1.268730299075767
 21
5.040764264329889
 31
0.0
  0
LINE
  5
8B1
330
17
100
AcDbEntity
  8
IMAGE
100
AcDbLine
 10
1.53163913628507
 20
5.025192171306633
 30
0.0
 11
1.268730299075767
 21
5.025192171306633
 31
0.0
  0
LWPOLYLINE
  5
8B2
330
17
100
AcDbEntity
  8
IMAGE
100
AcDbPolyline
 90
        2
 70
     0
 43
0.0
 10
1.268730299075768
 20
5.040764264329889
 10
1.268730299075768
 20
5.025192171306633
  0
LWPOLYLINE
  5
8B3
330
17
100
AcDbEntity
  8
IMAGE
100
AcDbPolyline
 90
        2
 70
     0
 43
0.0
 10
1.301172159540883
 20
5.05878560370755
 10
1.301172159540883
 20
5.040764264329889
  0
LWPOLYLINE
  5
8B4
330
17
100
AcDbEntity
  8
IMAGE
100
AcDbPolyline
 90
        4
 70
     0
 43
0.0
 10
1.301172159540883
 20
5.025192171306633
 10
1.301172159540884
 20
4.800459192774324
 42
0.4142135623730951
 10
1.354287609072775
 20
4.747343743242433
 10
1.367212076244754
 20
4.747343743242433
  0
ARC
  5
8B5
330
17
100
AcDbEntity
  8
IMAGE
100
AcDbCircle
 10
1.368666247292343
 20
4.734018860619531
 30
0.0
 40
0.013403996059004
100
AcDbArc
 50
3.510007451012478
 51
96.22815551883883
  0
LWPOLYLINE
  5
8B6
330
17
100
AcDbEntity
  8
IMAGE
100
AcDbPolyline
 90
        2
 70
     0
 43
0.0
 10
1.370120418339937
 20
4.747343743242433
 10
1.521257740936233
 20
4.747343743242433
  0
LWPOLYLINE
  5
8B9
330
17
100
AcDbEntity
  8
IMAGE
100
AcDbPolyline
 90
        2
 70
     0
 43
0.0
 10
1.826989833959489
 20
4.757505384258688
 10
1.681233173503199
 20
4.674458119777771
  0
LINE
  5
8BA
330
17
100
AcDbEntity
  8
IMAGE
100
AcDbLine
 10
1.762106113029255
 20
4.877111185102899
 30
0.0
 11
1.826989833959489
 21
4.877111185102899
 31
0.0
  0
LWPOLYLINE
  5
8BB
330
17
100
AcDbEntity
  8
IMAGE
100
AcDbPolyline
 90
        2
 70
     0
 43
0.0
 10
1.826989833959489
 20
4.877111185102899
 10
1.826989833959489
 20
4.757505384258688
  0
LWPOLYLINE
  5
8BC
330
17
100
AcDbEntity
  8
IMAGE
100
AcDbPolyline
 90
        2
 70
     0
 43
0.0
 10
1.542020531633907
 20
4.66316158963452
 10
1.542020531633907
 20
4.877111185102899
  0
LWPOLYLINE
  5
8BD
330
17
100
AcDbEntity
  8
IMAGE
100
AcDbPolyline
 90
        2
 70
     0
 43
0.0
 10
1.693157854230202
 20
4.747343743242433
 10
1.542020531633907
 20
4.747343743242433
  0
LINE
  5
8BE
330
17
100
AcDbEntity
  8
IMAGE
100
AcDbLine
 10
1.53163913628507
 20
4.656506533940108
 30
0.0
 11
1.681233173503199
 21
4.656506533940108
 31
0.0
  0
LWPOLYLINE
  5
8C1
330
17
100
AcDbEntity
  8
IMAGE
100
AcDbPolyline
 90
        2
 70
     0
 43
0.0
 10
1.542020531633907
 20
4.66316158963452
 10
1.53163913628507
 20
4.66316158963452
  0
LWPOLYLINE
  5
8C2
330
17
100
AcDbEntity
  8
IMAGE
100
AcDbPolyline
 90
        2
 70
     0
 43
0.0
 10
1.542020531633907
 20
4.757505384258688
 10
1.53163913628507
 20
4.757505384258688
  0
LWPOLYLINE
  5
8C3
330
17
100
AcDbEntity
  8
IMAGE
100
AcDbPolyline
 90
        2
 70
     0
 43
0.0
 10
1.542020531633907
 20
4.877111185102899
 10
1.53163913628507
 20
4.877111185102899
  0
LINE
  5
8C4
330
17
100
AcDbEntity
  8
IMAGE
100
AcDbLine
 10
1.53163913628507
 20
5.040764264329889
 30
0.0
 11
1.794547973494371
 21
5.040764264329889
 31
0.0
  0
LINE
  5
8C5
330
17
100
AcDbEntity
  8
IMAGE
100
AcDbLine
 10
1.53163913628507
 20
5.025192171306633
 30
0.0
 11
1.794547973494371
 21
5.025192171306633
 31
0.0
  0
LWPOLYLINE
  5
8C6
330
17
100
AcDbEntity
  8
IMAGE
100
AcDbPolyline
 90
        2
 70
     0
 43
0.0
 10
1.794547973494372
 20
5.040764264329889
 10
1.794547973494372
 20
5.025192171306633
  0
LWPOLYLINE
  5
8C7
330
17
100
AcDbEntity
  8
IMAGE
100
AcDbPolyline
 90
        2
 70
     0
 43
0.0
 10
1.762106113029256
 20
5.05878560370755
 10
1.762106113029256
 20
5.040764264329889
  0
LWPOLYLINE
  5
945
330
17
100
AcDbEntity
  8
IMAGE
100
AcDbPolyline
 90
        2
 70
     0
 43
0.0
 10
1.681233173503199
 20
4.656506533940108
 10
1.681233173503199
 20
4.735566905569782
  0
ARC
  5
946
330
17
100
AcDbEntity
  8
IMAGE
100
AcDbCircle
 10
1.694612025277796
 20
4.734018860619531
 30
0.0
 40
0.013403996059004
100
AcDbArc
 50
83.77184448116118
 51
176.4899925489875
  0
LWPOLYLINE
  5
947
330
17
100
AcDbEntity
  8
IMAGE
100
AcDbPolyline
 90
        4
 70
     0
 43
0.0
 10
1.762106113029256
 20
5.025192171306633
 10
1.762106113029255
 20
4.800459192774324
 42
-0.4142135623730951
 10
1.708990663497365
 20
4.747343743242433
 10
1.696066196325385
 20
4.747343743242433
  0
LWPOLYLINE
  5
94C
330
17
100
AcDbEntity
  8
IMAGE
100
AcDbPolyline
 90
        2
 70
     0
 43
0.0
 10
1.452894256771675
 20
6.420429202973584
 10
1.452894256771675
 20
6.532648563835897
  0
LWPOLYLINE
  5
94D
330
17
100
AcDbEntity
  8
IMAGE
100
AcDbPolyline
 90
        3
 70
     0
 43
0.0
 10
1.498496226445077
 20
6.362716028340075
 10
1.498496226445077
 20
6.345405560618168
 10
1.530604398217265
 20
6.345405560618168
  0
ARC
  5
95E
330
17
100
AcDbEntity
  8
IMAGE
100
AcDbCircle
 10
1.550196625350803
 20
6.420429202973584
 30
0.0
 40
0.059321452594265
100
AcDbArc
 50
282.1800898664407
 51
0.000000000000007
  0
LWPOLYLINE
  5
95F
330
17
100
AcDbEntity
  8
IMAGE
100
AcDbPolyline
 90
        2
 70
     0
 43
0.0
 10
1.609518077945068
 20
6.420429202973584
 10
1.609518077945068
 20
6.532648563835897
  0
LWPOLYLINE
  5
960
330
17
100
AcDbEntity
  8
IMAGE
100
AcDbPolyline
 90
        3
 70
     0
 43
0.0
 10
1.562712569989454
 20
6.362443119576825
 10
1.562712569989454
 20
6.345405560618168
 10
1.530604398217265
 20
6.345405560618168
  0
LWPOLYLINE
  5
961
330
17
100
AcDbEntity
  8
IMAGE
100
AcDbPolyline
 90
        2
 70
     0
 43
0.0
 10
1.452894256771675
 20
6.532648563835897
 42
-0.1223066966061263
 10
1.609518077945068
 20
6.532648563835897
 42
0.1703703077161859
  0
ARC
  5
962
330
17
100
AcDbEntity
  8
IMAGE
100
AcDbCircle
 10
1.514803030835596
 20
6.419685493495604
 30
0.0
 40
0.0518488896846998
100
AcDbArc
 50
180.0
 51
257.2246266635813
  0
LWPOLYLINE
  5
963
330
17
100
AcDbEntity
  8
IMAGE
100
AcDbPolyline
 90
        2
 70
     0
 43
0.0
 10
1.462954141150896
 20
6.517768885040877
 42
-0.1223066966061263
 10
1.599848483262817
 20
6.517768885040877
 42
0.1703703077161859
  0
LWPOLYLINE
  5
964
330
17
100
AcDbEntity
  8
IMAGE
100
AcDbPolyline
 90
        2
 70
     0
 43
0.0
 10
1.462954141150896
 20
6.419685493495605
 10
1.462954141150896
 20
6.517768885040877
  0
LWPOLYLINE
  5
965
330
17
100
AcDbEntity
  8
IMAGE
100
AcDbPolyline
 90
        2
 70
     0
 43
0.0
 10
1.599848483262817
 20
6.419685493495605
 10
1.599848483262817
 20
6.517768885040877
  0
ARC
  5
967
330
17
100
AcDbEntity
  8
IMAGE
100
AcDbCircle
 10
1.547999593578118
 20
6.419685493495604
 30
0.0
 40
0.0518488896846998
100
AcDbArc
 50
282.1800898664407
 51
0.000000000000007
  0
LWPOLYLINE
  5
969
330
17
100
AcDbEntity
  8
IMAGE
100
AcDbPolyline
 90
        2
 70
     0
 43
0.0
 10
1.503337719975224
 20
6.369120149549269
 10
1.55893893852821
 20
6.369003760162982
  0
TEXT
  5
96E
330
17
100
AcDbEntity
  8
INSTRUCT-OPTION
100
AcDbText
 10
11.15037910528908
 20
6.375269824342864
 30
0.0
 40
0.1250000018625003
  1
%%U3500-S
  7
ROMANS
100
AcDbText
  0
TEXT
  5
970
330
17
100
AcDbEntity
  8
INSTRUCT-OPTION
100
AcDbText
 10
11.15037910528908
 20
5.371048469252513
 30
0.0
 40
0.1250000018625003
  1
%%U3500-S-SAM-NP
  7
ROMANS
100
AcDbText
  0
TEXT
  5
A94
330
17
100
AcDbEntity
  8
INSTRUCT-OPTION
100
AcDbText
 10
11.29599193548492
 20
6.135844458139121
 30
0.0
 40
0.1250000018625003
  1
OPTION-3500-S
  7
ROMANS
100
AcDbText
  0
TEXT
  5
A95
330
17
100
AcDbEntity
  8
INSTRUCT-OPTION
100
AcDbText
 10
11.15037910528908
 20
5.85928872000504
 30
0.0
 40
0.1250000018625003
  1
%%U3500-S-SAM
  7
ROMANS
100
AcDbText
  0
TEXT
  5
A96
330
17
100
AcDbEntity
  8
INSTRUCT-OPTION
100
AcDbText
 10
11.29599193548492
 20
5.635654137980326
 30
0.0
 40
0.1250000018625003
  1
OPTION-3500-S-SAM
  7
ROMANS
100
AcDbText
  0
TEXT
  5
A97
330
17
100
AcDbEntity
  8
INSTRUCT-OPTION
100
AcDbText
 10
11.29599193548492
 20
5.147413887227799
 30
0.0
 40
0.1250000018625003
  1
OPTION-3500-S-SAM-NP
  7
ROMANS
100
AcDbText
  0
TEXT
  5
AC2
330
17
100
AcDbEntity
  8
TEXT_BUBBLES
100
AcDbText
 10
5.179999999999999
 20
3.627744570472954
 30
0.0
 40
0.125
  1
  (1 OF 2)
  7
ROMANS
100
AcDbText
  0
SOLID
  5
AEB
330
17
100
AcDbEntity
  8
INSTRUCT-CALLOUT
100
AcDbTrace
 10
13.60948249799849
 20
8.361492518781815
 30
0.0
 11
13.62528479165283
 21
8.303610850567586
 31
0.0
 12
13.44373864018297
 22
8.285144803711684
 32
0.0
 13
13.44373864018297
 23
8.285144803711684
 33
0.0
  0
LINE
  5
AEC
330
17
100
AcDbEntity
  8
INSTRUCT-CALLOUT
100
AcDbLine
 10
13.54020808720669
 20
8.31148195980225
 30
0.0
 11
13.79608950413153
 21
8.381340231266868
 31
0.0
  0
TEXT
  5
AED
330
17
100
AcDbEntity
  8
INSTRUCT-CALLOUT
100
AcDbText
 10
13.89622777701085
 20
8.359992037658376
 30
0.0
 40
0.125
  1
1
  7
ROMANS
 72
     4
 11
13.94682301510609
 21
8.422492037658376
 31
0.0
100
AcDbText
  0
CIRCLE
  5
AEE
330
17
100
AcDbEntity
  8
INSTRUCT-CALLOUT
100
AcDbCircle
 10
13.94682301510609
 20
8.422492037658376
 30
0.0
 40
0.15625
  0
LWPOLYLINE
  5
AEF
330
17
100
AcDbEntity
  8
INSTRUCT-CALLOUT
100
AcDbPolyline
 90
        4
 70
     1
 43
0.0
 10
10.82808655177215
 20
9.533164024596285
 10
10.82808655177215
 20
8.101678003254042
 10
15.70705189447306
 20
8.101678003254042
 10
15.70705189447306
 20
9.533164024596285
  0
TEXT
  5
AF0
330
17
100
AcDbEntity
  8
INSTRUCT-CALLOUT
100
AcDbText
 10
10.86711389756745
 20
9.590279512029734
 30
0.0
 40
0.125
  1
CHOOSING EQUIPMENT CALLOUT METHOD
  7
ROMANS
100
AcDbText
  0
TEXT
  5
AF1
330
17
100
AcDbEntity
  8
INSTRUCT-CALLOUT
100
AcDbText
 10
10.86711389756745
 20
9.240279512029733
 30
0.0
 40
0.125
  1
CHOOSE EITHER LEADERS OR BUBBLE CALLOUTS
  7
ROMANS
100
AcDbText
  0
TEXT
  5
AF2
330
17
100
AcDbEntity
  8
INSTRUCT-CALLOUT
100
AcDbText
 10
10.86711389756745
 20
9.065279512029736
 30
0.0
 40
0.125
  1
BY TURNING ON THE APPROPRIATE LAYER:
  7
ROMANS
100
AcDbText
  0
TEXT
  5
AF3
330
17
100
AcDbEntity
  8
INSTRUCT-CALLOUT
100
AcDbText
 10
10.86711389756745
 20
8.715279512029731
 30
0.0
 40
0.125
  1
TEXT_LEADERS         TEXT_BUBBLES
  7
ROMANS
100
AcDbText
  0
LINE
  5
AF4
330
17
100
AcDbEntity
  8
INSTRUCT-CALLOUT
100
AcDbLine
 10
11.66939758688706
 20
8.464779860174811
 30
0.0
 11
11.80566613274569
 21
8.464779860174811
 31
0.0
  0
LINE
  5
AF5
330
17
100
AcDbEntity
  8
INSTRUCT-CALLOUT
100
AcDbLine
 10
11.38162717240874
 20
8.345028158368531
 30
0.0
 11
11.66939758688706
 21
8.464779860174811
 31
0.0
  0
SOLID
  5
AF6
330
17
100
AcDbEntity
  8
INSTRUCT-CALLOUT
100
AcDbTrace
 10
11.46701316994906
 20
8.348066484230418
 30
0.0
 11
11.44396128505733
 21
8.403461525551264
 31
0.0
 12
11.28930210354066
 22
8.306608350215643
 32
0.0
 13
11.28930210354066
 23
8.306608350215643
 33
0.0
  0
TEXT
  5
AF7
330
17
100
AcDbEntity
  8
INSTRUCT-CALLOUT
100
AcDbText
 10
11.83164086976282
 20
8.40002925078091
 30
0.0
 40
0.125
  1
ITEM 1
  7
ROMANS
100
AcDbText
  0
TEXT
  5
AF8
330
17
100
AcDbEntity
  8
INSTRUCT-CALLOUT
100
AcDbText
 10
10.86711389756745
 20
7.720721896552911
 30
0.0
 40
0.125
  1
LAYER "INSTRUCT-CALLOUT".
  7
ROMANS
100
AcDbText
  0
TEXT
  5
AF9
330
17
100
AcDbEntity
  8
INSTRUCT-CALLOUT
100
AcDbText
 10
10.86711389756745
 20
7.895721896552911
 30
0.0
 40
0.125
  1
TO TURN OFF THIS INSTRUCTION BOX, TURN OFF
  7
ROMANS
100
AcDbText
  0
TEXT
  5
AFD
330
17
100
AcDbEntity
  8
TEXT_LEADERS
100
AcDbText
 10
5.179999999999999
 20
5.234226911437032
 30
0.0
 40
0.125
  1
PLANT MATERIAL
  7
ROMANS
100
AcDbText
  0
TEXT
  5
AFE
330
17
100
AcDbEntity
  8
TEXT_LEADERS
100
AcDbText
 10
5.179999999999999
 20
4.884226908795962
 30
0.0
 40
0.125
  1
FINISH GRADE
  7
ROMANS
100
AcDbText
  0
TEXT
  5
AFF
330
17
100
AcDbEntity
  8
TEXT_LEADERS
100
AcDbText
 10
5.179999999999999
 20
4.534226908795962
 30
0.0
 40
0.125
  1
UV RADIATION RESISTANT
  7
ROMANS
100
AcDbText
  0
TEXT
  5
B00
330
17
100
AcDbEntity
  8
TEXT_LEADERS
100
AcDbText
 10
5.179999999999999
 20
4.359226908795962
 30
0.0
 40
0.125
  1
  PVC SCH 80 NIPPLE
  7
ROMANS
100
AcDbText
  0
TEXT
  5
B01
330
17
100
AcDbEntity
  8
TEXT_LEADERS
100
AcDbText
 10
5.179999999999999
 20
2.959226908795962
 30
0.0
 40
0.125
  1
PVC SCH 80 NIPPLE
  7
ROMANS
100
AcDbText
  0
TEXT
  5
B02
330
17
100
AcDbEntity
  8
TEXT_LEADERS
100
AcDbText
 10
5.179999999999999
 20
2.784226908795962
 30
0.0
 40
0.125
  1
  (LENGTH AS REQUIRED)
  7
ROMANS
100
AcDbText
  0
LEADER
  5
B03
330
17
100
AcDbEntity
  8
TEXT_LEADERS
100
AcDbLeader
  3
STANDARD
 76
     3
 10
3.315100185450033
 20
1.790959646629764
 30
0.0
 10
4.784697326828971
 20
1.185694351900965
 30
0.0
 10
5.12162048492213
 20
1.185694351900965
 30
0.0
211
-1.0
221
0.0
231
0.0
210
0.0
220
0.0
230
-1.0
  0
LEADER
  5
B04
330
17
100
AcDbEntity
  8
TEXT_LEADERS
100
AcDbLeader
  3
STANDARD
 76
     3
 10
4.260316780796571
 20
1.754524153567799
 30
0.0
 10
4.784697326828971
 20
1.516281392614833
 30
0.0
 10
5.121620484922129
 20
1.516281392614834
 30
0.0
211
-1.0
221
0.0
231
0.0
210
0.0
220
0.0
230
-1.0
  0
LEADER
  5
B06
330
17
100
AcDbEntity
  8
TEXT_LEADERS
100
AcDbLeader
  3
STANDARD
 76
     3
 10
3.315100185450033
 20
1.790959646629764
 30
0.0
 10
4.784697326828971
 20
1.185694351900965
 30
0.0
 10
5.12162048492213
 20
1.185694351900965
 30
0.0
211
-1.0
221
0.0
231
0.0
210
0.0
220
0.0
230
-1.0
  0
LEADER
  5
B07
330
17
100
AcDbEntity
  8
TEXT_LEADERS
100
AcDbLeader
  3
STANDARD
 76
     3
 10
4.260316780796571
 20
1.754524153567799
 30
0.0
 10
4.784697326828971
 20
1.516281392614833
 30
0.0
 10
5.121620484922129
 20
1.516281392614834
 30
0.0
211
-1.0
221
0.0
231
0.0
210
0.0
220
0.0
230
-1.0
  0
LEADER
  5
B10
330
17
100
AcDbEntity
  8
TEXT_LEADERS
100
AcDbLeader
  3
STANDARD
 76
     3
 10
3.302162298095571
 20
4.843695599681127
 30
0.0
 10
4.784697326828971
 20
5.270847216642742
 30
0.0
 10
5.12162048492213
 20
5.270847216642742
 30
0.0
  0
LEADER
  5
B11
330
17
100
AcDbEntity
  8
TEXT_LEADERS
100
AcDbLeader
  3
STANDARD
 76
     3
 10
3.375959175092281
 20
4.268961352496203
 30
0.0
 10
4.784697326828971
 20
4.676339155862612
 30
0.0
 10
5.12162048492213
 20
4.676339155862612
 30
0.0
  0
LEADER
  5
B12
330
17
100
AcDbEntity
  8
TEXT_LEADERS
100
AcDbLeader
  3
STANDARD
 76
     3
 10
1.668311897617446
 20
3.358074488607103
 30
0.0
 10
4.784697326828971
 20
4.222671687166028
 30
0.0
 10
5.12162048492213
 20
4.222671687166028
 30
0.0
  0
LEADER
  5
B13
330
17
100
AcDbEntity
  8
TEXT_LEADERS
100
AcDbLeader
  3
STANDARD
 76
     3
 10
1.691120109631763
 20
2.706789892545936
 30
0.0
 10
4.784697326828971
 20
3.565520596157504
 30
0.0
 10
5.12162048492213
 20
3.565520596157504
 30
0.0
  0
LEADER
  5
B15
330
17
100
AcDbEntity
  8
TEXT_LEADERS
100
AcDbLeader
  3
STANDARD
 76
     3
 10
1.911297842375003
 20
2.568356840224215
 30
0.0
 10
4.784697326828971
 20
3.368091098155916
 30
0.0
 10
5.12162048492213
 20
3.368091098155916
 30
0.0
  0
LEADER
  5
B16
330
17
100
AcDbEntity
  8
TEXT_LEADERS
100
AcDbLeader
  3
STANDARD
 76
     3
 10
3.10520066312147
 20
2.299139512089626
 30
0.0
 10
4.784697326828971
 20
2.778968473361073
 30
0.0
 10
5.12162048492213
 20
2.778968473361073
 30
0.0
  0
LEADER
  5
B17
330
17
100
AcDbEntity
  8
TEXT_LEADERS
100
AcDbLeader
  3
STANDARD
 76
     3
 10
3.996292772666901
 20
2.126058503816103
 30
0.0
 10
4.784697326828971
 20
2.367120053953105
 30
0.0
 10
5.12162048492213
 20
2.367120053953105
 30
0.0
  0
LEADER
  5
B18
330
17
100
AcDbEntity
  8
TEXT_LEADERS
100
AcDbLeader
  3
STANDARD
 76
     3
 10
1.699528623858542
 20
5.832209823262309
 30
0.0
 10
4.784697326828971
 20
6.306223080158726
 30
0.0
 10
5.12162048492213
 20
6.306223080158726
 30
0.0
  0
TEXT
  5
B1B
330
17
100
AcDbEntity
  8
TEXT_BUBBLES
100
AcDbText
 10
5.179999999999999
 20
6.252744570472954
 30
0.0
 40
0.125
  1
ROTOR SPRINKLER:
  7
ROMANS
100
AcDbText
  0
TEXT
  5
B1C
330
17
100
AcDbEntity
  8
TEXT_BUBBLES
100
AcDbText
 10
5.179999999999999
 20
3.102744570472955
 30
0.0
 40
0.125
  1
  (LENGTH AS REQUIRED)
  7
ROMANS
100
AcDbText
  0
TEXT
  5
B1D
330
17
100
AcDbEntity
  8
TEXT_BUBBLES
100
AcDbText
 10
5.179999999999999
 20
2.752744570472954
 30
0.0
 40
0.125
  1
PVC SCH 40 TEE OR ELL
  7
ROMANS
100
AcDbText
  0
TEXT
  5
B1E
330
17
100
AcDbEntity
  8
TEXT_BUBBLES
100
AcDbText
 10
5.179999999999999
 20
2.402744570472955
 30
0.0
 40
0.125
  1
PVC LATERAL PIPE
  7
ROMANS
100
AcDbText
  0
LEADER
  5
B1F
330
17
100
AcDbEntity
  8
TEXT_BUBBLES
100
AcDbLeader
  3
STANDARD
 76
     2
 10
3.305333734155089
 20
4.840199413571384
 30
0.0
 10
3.819017653878596
 20
4.977840605026153
 30
0.0
  0
LEADER
  5
B20
330
17
100
AcDbEntity
  8
TEXT_BUBBLES
100
AcDbLeader
  3
STANDARD
 76
     2
 10
3.370543472672698
 20
4.26859107422356
 30
0.0
 10
3.818852226988265
 20
4.387634216458429
 30
0.0
  0
LEADER
  5
B21
330
17
100
AcDbEntity
  8
TEXT_BUBBLES
100
AcDbLeader
  3
STANDARD
 76
     2
 10
1.700430237035239
 20
5.554278129812391
 30
0.0
 10
3.818958737104798
 20
6.121936130548347
 30
0.0
  0
LEADER
  5
B22
330
17
100
AcDbEntity
  8
TEXT_BUBBLES
100
AcDbLeader
  3
STANDARD
 76
     2
 10
2.727977246066692
 20
1.791895541243773
 30
0.0
 10
3.337136887257122
 20
1.440197058423022
 30
0.0
  0
LEADER
  5
B23
330
17
100
AcDbEntity
  8
TEXT_BUBBLES
100
AcDbLeader
  3
STANDARD
 76
     2
 10
3.725691342334808
 20
1.755460048181807
 30
0.0
 10
4.272666769258143
 20
1.439663638207509
 30
0.0
  0
LEADER
  5
B24
330
17
100
AcDbEntity
  8
TEXT_BUBBLES
100
AcDbLeader
  3
STANDARD
 76
     2
 10
4.132061364679539
 20
1.87580350524342
 30
0.0
 10
4.883140517133737
 20
1.442167754391272
 30
0.0
  0
LEADER
  5
B25
330
17
100
AcDbEntity
  8
TEXT_BUBBLES
100
AcDbLeader
  3
STANDARD
 76
     2
 10
2.882036500094808
 20
2.347399904573452
 30
0.0
 10
3.819204374077626
 20
2.598513279579539
 30
0.0
  0
LEADER
  5
B26
330
17
100
AcDbEntity
  8
TEXT_BUBBLES
100
AcDbLeader
  3
STANDARD
 76
     2
 10
1.915365718404955
 20
2.568507691574163
 30
0.0
 10
3.818904380536258
 20
3.021185019869638
 30
0.0
  0
LEADER
  5
B27
330
17
100
AcDbEntity
  8
TEXT_BUBBLES
100
AcDbLeader
  3
STANDARD
 76
     2
 10
1.69141721491347
 20
2.735120406486662
 30
0.0
 10
3.821442549142817
 20
3.330820196348756
 30
0.0
  0
LEADER
  5
B28
330
17
100
AcDbEntity
  8
TEXT_BUBBLES
100
AcDbLeader
  3
STANDARD
 76
     2
 10
1.668675983001848
 20
3.133819344467855
 30
0.0
 10
3.819017653878596
 20
3.71000165863027
 30
0.0
  0
INSERT
  5
B3D
330
17
100
AcDbEntity
  8
0
100
AcDbBlockReference
 66
     1
  2
titleblock
 10
-0.633318107507898
 20
-0.5809720208215245
 30
0.0
  0
ATTRIB
  5
B3E
330
B3D
100
AcDbEntity
  8
TITLE
100
AcDbText
 10
-0.127762503705556
 20
0.2032550756568428
 30
0.0
 40
0.2
  1
D
  7
L200
 72
     4
 11
-0.0268757369934141
 21
0.3032550756568428
 31
0.0
100
AcDbAttribute
  2
D
 70
     0
  0
ATTRIB
  5
B3F
330
B3D
100
AcDbEntity
  8
TITLE
100
AcDbText
 10
0.5981242630065862
 20
0.7627402819252262
 30
0.0
 40
0.2
  1

  7
L200
100
AcDbAttribute
  2
TITLE1
 70
     0
  0
ATTRIB
  5
B40
330
B3D
100
AcDbEntity
  8
TITLE
100
AcDbText
 10
0.5981242630065862
 20
0.4032550756568431
 30
0.0
 40
0.2
  1
ROTOR POP-UP SPRINKLER
  7
L200
100
AcDbAttribute
  2
TITLE2
 70
     0
  0
ATTRIB
  5
B41
330
B3D
100
AcDbEntity
  8
TITLE
100
AcDbText
 10
2.080327643660414
 20
0.0118207456367945
 30
0.0
 40
0.2
  1
3500 SHRUB
  7
L200
100
AcDbAttribute
  2
TITLE3
 70
     0
  0
ATTRIB
  5
B42
330
B3D
100
AcDbEntity
  8
TITLE
100
AcDbText
 10
2.080327643660414
 20
-0.3117159400047503
 30
0.0
 40
0.2
  1

  7
L200
100
AcDbAttribute
  2
TITLE4
 70
     0
  0
ATTRIB
  5
B43
330
B3D
100
AcDbEntity
  8
TITLE
 62
     7
100
AcDbText
 10
7.056277674839434
 20
0.3886307707231155
 30
0.0
 40
0.08
  1
1-30-04
  7
L80
 72
     2
 11
7.627706246268005
 21
0.3886307707231155
 31
0.0
100
AcDbAttribute
  2
REVISED
 70
     0
  0
ATTRIB
  5
B44
330
B3D
100
AcDbEntity
  8
TITLE
 62
     7
100
AcDbText
 10
-0.3693757369934141
 20
-0.4962603728008032
 30
0.0
 40
0.08
  1
R-3500-S.DWG
  7
L80
100
AcDbAttribute
  2
DWG-NAME
 70
     0
  0
ATTRIB
  5
B45
330
B3D
100
AcDbEntity
  8
TITLE
 62
     7
100
AcDbText
 10
0.5981242630065862
 20
0.119591758573965
 30
0.0
 40
0.1
  1
N.T.S.
  7
L100
100
AcDbAttribute
  2
SCALE
 70
     0
  0
SEQEND
  5
B46
330
B3D
100
AcDbEntity
  8
0
  0
TEXT
  5
B79
330
17
100
AcDbEntity
  8
INSTRUCT-OPTION
100
AcDbText
 10
11.06123025
 20
6.957138879999999
 30
0.0
 40
0.125
  1
CHOOSE A DIFFERENT SPRINKLER MODEL
  7
ROMANS
100
AcDbText
  0
TEXT
  5
B7A
330
17
100
AcDbEntity
  8
INSTRUCT-OPTION
100
AcDbText
 10
11.06123025
 20
6.77976412
 30
0.0
 40
0.125
  1
BY TURNING ON THE APPROPRIATE LAYER:
  7
ROMANS
100
AcDbText
  0
ENDSEC
  0
SECTION
  2
OBJECTS
  0
DICTIONARY
  5
C
330
0
100
AcDbDictionary
281
     1
  3
ACAD_GROUP
350
D
  3
ACAD_LAYOUT
350
5FC
  3
ACAD_MLINESTYLE
350
1A
  3
ACAD_PLOTSETTINGS
350
5FD
  3
ACAD_PLOTSTYLENAME
350
5FA
  3
AcadDim
350
B0F
  3
ACDBVARIABLEDICTIONARY
350
30
  3
BNS_SELSET
350
5F0
  0
DICTIONARY
  5
98E
330
2
100
AcDbDictionary
280
     1
281
     1
  3
ACAD_LAYERFILTERS
360
998
  3
ACAD_LAYERSTATES
360
98F
  0
DICTIONARY
  5
D
102
{ACAD_REACTORS
330
C
102
}
330
C
100
AcDbDictionary
281
     1
  0
DICTIONARY
  5
5FC
102
{ACAD_REACTORS
330
C
102
}
330
C
100
AcDbDictionary
281
     1
  3
Layout1
350
5FF
  3
Model
350
5FE
  0
DICTIONARY
  5
1A
102
{ACAD_REACTORS
330
C
102
}
330
C
100
AcDbDictionary
281
     1
  3
STANDARD
350
1B
  0
DICTIONARY
  5
5FD
102
{ACAD_REACTORS
330
C
102
}
330
C
100
AcDbDictionary
281
     1
  3
1055 B&W Full Shaded Draft
350
B48
  3
1055 B&W Full Shaded Final
350
B49
  3
1055 Color Full Shaded Draft
350
B4A
  3
1055 Color Full Shaded Final
350
B4B
  3
1055 PLUS B&W Full Shaded Draft
350
B4C
  3
1055 PLUS B&W Full Shaded Final
350
B4D
  3
1055 PLUS Color Full Shaded Draft
350
B4E
  3
1055 PLUS Color Full Shaded Final
350
B4F
  3
1055-B&W-Shaded-Draft
350
B50
  3
1055-B&W-Shaded-Final
350
B51
  3
1055-Color-Shaded-Draft
350
B52
  3
1055-Color-Shaded-Final
350
B53
  3
1055-PLUS-B&W-Shaded-Draft
350
B54
  3
1055-PLUS-B&W-Shaded-Final
350
B55
  3
1055-PLUS-Color-Shaded-Draft
350
B56
  3
1055-PLUS-Color-Shaded-Final
350
B57
  3
2200 Color Inkjet
350
B58
  3
2200-Color-Inkjet
350
B59
  3
24x36 PDF
350
B5A
  3
8500 B&W Shaded 11x17
350
B5B
  3
8500 B&W Shaded 8.5x11
350
B5C
  3
8500 Color Shaded 11x17
350
B5D
  3
8500 Color Shaded 8.5x11
350
B5E
  3
8500-B&W-Shaded-11x17
350
B5F
  3
8500-B&W-Shaded-8.5x11
350
B60
  3
8500-Color-Shaded-11x17
350
B61
  3
8500-Color-Shaded-8.5x11
350
B62
  3
Laser Jet 5 Shaded 11x17
350
B63
  3
Laser Jet 5 Shaded 8.5x11
350
B64
  3
LaserJet5-Shaded-11x17
350
B65
  3
LaserJet5-Shaded-8.5x11
350
B66
  3
Oki Doki B&W Shaded 11x17
350
B67
  3
Oki Doki B&W Shaded 8.5x11
350
B68
  3
Oki Doki Color Laser
350
B69
  3
Oki Doki Color Shaded 11x17
350
B6A
  3
Oki Doki Color Shaded 8.5x11
350
B6B
  3
Oki-Doki-B&W-Shaded-11x17
350
B6C
  3
Oki-Doki-B&W-Shaded-8.5x11
350
B6D
  3
Oki-Doki-Color-Laser
350
B6E
  3
Oki-Doki-Color-Shaded-11x17
350
B6F
  3
Oki-Doki-Color-Shaded-8.5x11
350
B70
  0
ACDBDICTIONARYWDFLT
  5
5FA
102
{ACAD_REACTORS
330
C
102
}
330
C
100
AcDbDictionary
281
     1
  3
Normal
350
5FB
100
AcDbDictionaryWithDefault
340
5FB
  0
XRECORD
  5
B0F
102
{ACAD_REACTORS
330
C
102
}
330
C
100
AcDbXrecord
280
     1
 90
   990106
  3

 60
     4
 61
     0
 62
     1
 63
     3
 64
     0
 65
     0
 66
     0
 67
     3
 68
     1
 69
     0
 70
     0
 71
     0
 72
     0
 40
0.0
170
     0
  0
DICTIONARY
  5
30
102
{ACAD_REACTORS
330
C
102
}
330
C
100
AcDbDictionary
281
     1
  3
DIMADEC
350
31
  3
DIMASSOC
350
888
  3
SORTENTS
350
404
  0
DICTIONARY
  5
5F0
102
{ACAD_REACTORS
330
C
102
}
330
0
100
AcDbDictionary
281
     1
  3
BNS_SS01
350
5F7
  0
DICTIONARY
  5
998
102
{ACAD_REACTORS
330
98E
102
}
330
98E
100
AcDbDictionary
280
     1
281
     1
  0
DICTIONARY
  5
98F
102
{ACAD_REACTORS
330
98E
102
}
330
98E
100
AcDbDictionary
281
     1
  3
3500-S-PC-bubbles
350
9E7
  3
3500-S-PC-leaders
350
A57
  3
3500-S-PC-SAM-bubbles
350
9F7
  3
3500-S-PC-SAM-leaders
350
A67
  3
3500-S-PC-SAM-NP
350
A77
  3
3500-S-PC-SAM-NP-bubbles
350
A07
  0
LAYOUT
  5
5FF
102
{ACAD_REACTORS
330
5FC
102
}
330
5FC
100
AcDbPlotSettings
  1

  2
\\AQUA\HP_LASER_5SI
  4

  6

 40
0.0
 41
0.0
 42
0.0
 43
0.0
 44
0.0
 45
0.0
 46
0.0
 47
0.0
 48
0.0
 49
0.0
140
0.0
141
0.0
142
1.0
143
1.0
 70
   688
 72
     0
 73
     0
 74
     5
  7

 75
    16
147
1.0
148
0.0
149
0.0
100
AcDbLayout
  1
Layout1
 70
     1
 71
     1
 10
0.0
 20
0.0
 11
12.0
 21
9.0
 12
0.0
 22
0.0
 32
0.0
 14
1.000000000000000E+20
 24
1.000000000000000E+20
 34
1.000000000000000E+20
 15
-1.000000000000000E+20
 25
-1.000000000000000E+20
 35
-1.000000000000000E+20
146
0.0
 13
0.0
 23
0.0
 33
0.0
 16
1.0
 26
0.0
 36
0.0
 17
0.0
 27
1.0
 37
0.0
 76
     0
330
14
  0
LAYOUT
  5
5FE
102
{ACAD_REACTORS
330
5FC
102
}
330
5FC
100
AcDbPlotSettings
  1
8500-Color-Shaded-11x17
  2
8500ColorShaded.pc3
  4
11x17
  6

 40
5.027083396911621
 41
5.027085304260253
 42
5.027099609375
 43
5.027069091796875
 44
279.3999938964843
 45
431.7999877929687
 46
0.0
 47
0.0
 48
180360.0524337165
 49
80033.77936194791
140
180369.1574725906
141
80037.61796031875
142
1.0
143
0.9932090531302815
 70
 11952
 72
     0
 73
     1
 74
     1
  7
8500ColorShaded.ctb
 75
     0
147
1.006837379148242
148
16.09942425911334
149
14.76998139014058
100
AcDbLayout
  1
Model
 70
     1
 71
     0
 10
0.0
 20
0.0
 11
12.0
 21
9.0
 12
0.0
 22
0.0
 32
0.0
 14
0.0
 24
0.0
 34
0.0
 15
0.0
 25
0.0
 35
0.0
146
0.0
 13
0.0
 23
0.0
 33
0.0
 16
1.0
 26
0.0
 36
0.0
 17
0.0
 27
1.0
 37
0.0
 76
     0
330
17
  0
MLINESTYLE
  5
1B
102
{ACAD_REACTORS
330
1A
102
}
330
1A
100
AcDbMlineStyle
  2
STANDARD
 70
     0
  3

 62
   256
 51
90.0
 52
90.0
 71
     2
 49
0.5
 62
   256
  6
BYLAYER
 49
-0.5
 62
   256
  6
BYLAYER
  0
PLOTSETTINGS
  5
B48
102
{ACAD_REACTORS
330
5FD
102
}
330
5FD
100
AcDbPlotSettings
  1
1055 B&W Full Shaded Draft
  2
1055B&WDraftShaded.pc3
  4
User607
  6
ps1
 40
0.0
 41
0.0
 42
0.0
 43
0.0
 44
901.7000122070312
 45
1155.700073242187
 46
0.0
 47
0.0
 48
180377.877572
 49
80019.819395
140
180380.8390819999
141
80022.26069
142
1.0
143
1.0
 70
   688
 72
     0
 73
     2
 74
     3
  7
1055B&WFullDraftShaded.ctb
 75
    16
147
1.0
148
-4581603.303200401
149
-2032962.095032944
  0
PLOTSETTINGS
  5
B49
102
{ACAD_REACTORS
330
5FD
102
}
330
5FD
100
AcDbPlotSettings
  1
1055 B&W Full Shaded Final
  2
1055B&WFinalShaded.pc3
  4
User257
  6
PS1
 40
4.995333194732666
 41
8.297271728515625
 42
4.99530029296875
 43
8.29736328125
 44
911.6906738281249
 45
1172.294677734375
 46
0.0
 47
0.0
 48
180377.877572
 49
80019.819395
140
180380.8390819999
141
80022.26069
142
1.0
143
1.0
 70
   688
 72
     0
 73
     3
 74
     3
  7
1055B&WFullFinalShaded.ctb
 75
    16
147
1.0
148
-4581603.303200401
149
-2032962.095032944
  0
PLOTSETTINGS
  5
B4A
102
{ACAD_REACTORS
330
5FD
102
}
330
5FD
100
AcDbPlotSettings
  1
1055 Color Full Shaded Draft
  2
1055ColorDraftShaded.pc3
  4
User607
  6
PS1
 40
0.0
 41
0.0
 42
0.0
 43
0.0
 44
901.7000122070312
 45
1155.700073242187
 46
0.0
 47
0.0
 48
180377.877572
 49
80019.819395
140
180380.8390819999
141
80022.26069
142
1.0
143
1.0
 70
   688
 72
     0
 73
     2
 74
     3
  7
1055ColorFullDraftShaded.ctb
 75
    16
147
1.0
148
-4581603.303200401
149
-2032962.095032944
  0
PLOTSETTINGS
  5
B4B
102
{ACAD_REACTORS
330
5FD
102
}
330
5FD
100
AcDbPlotSettings
  1
1055 Color Full Shaded Final
  2
1055ColorFinalShaded.pc3
  4
User607
  6
PS1
 40
0.0
 41
0.0
 42
0.0
 43
0.0
 44
901.7000122070312
 45
1155.700073242187
 46
0.0
 47
0.0
 48
180377.877572
 49
80019.819395
140
180380.8390819999
141
80022.26069
142
1.0
143
1.0
 70
   688
 72
     0
 73
     2
 74
     3
  7
1055ColorFullFinalShaded.ctb
 75
    16
147
1.0
148
-4581603.303200401
149
-2032962.095032944
  0
PLOTSETTINGS
  5
B4C
102
{ACAD_REACTORS
330
5FD
102
}
330
5FD
100
AcDbPlotSettings
  1
1055 PLUS B&W Full Shaded Draft
  2
1055_PLUS_B&WDraftShaded.pc3
  4
User257
  6
ps1
 40
4.995333194732666
 41
8.297393798828125
 42
4.99530029296875
 43
8.29736328125
 44
901.6152954101562
 45
1155.615356445312
 46
0.0
 47
0.0
 48
180377.877572
 49
80019.819395
140
180380.8390819999
141
80022.26069
142
1.0
143
1.0
 70
   688
 72
     0
 73
     3
 74
     5
  7
1055B&WFullDraftShaded.ctb
 75
    16
147
1.0
148
-4581603.303200401
149
-2032962.095032944
  0
PLOTSETTINGS
  5
B4D
102
{ACAD_REACTORS
330
5FD
102
}
330
5FD
100
AcDbPlotSettings
  1
1055 PLUS B&W Full Shaded Final
  2
1055_PLUS_B&WFinalShaded.pc3
  4
User257
  6
PS1
 40
4.995333194732666
 41
8.297271728515625
 42
4.99530029296875
 43
8.29736328125
 44
901.6576538085937
 45
1155.657592773437
 46
0.0
 47
0.0
 48
180377.877572
 49
80019.819395
140
180380.8390819999
141
80022.26069
142
1.0
143
1.0
 70
   688
 72
     0
 73
     3
 74
     5
  7
1055B&WFullFinalShaded.ctb
 75
    16
147
1.0
148
-4581603.303200401
149
-2032962.095032944
  0
PLOTSETTINGS
  5
B4E
102
{ACAD_REACTORS
330
5FD
102
}
330
5FD
100
AcDbPlotSettings
  1
1055 PLUS Color Full Shaded Draft
  2
1055_PLUS_ColorDraftShaded.pc3
  4
User257
  6
PS1
 40
4.995333194732666
 41
8.297393798828125
 42
4.99530029296875
 43
8.29736328125
 44
901.6152954101562
 45
1155.615356445312
 46
0.0
 47
0.0
 48
180377.877572
 49
80019.819395
140
180380.8390819999
141
80022.26069
142
1.0
143
1.0
 70
   688
 72
     0
 73
     3
 74
     5
  7
1055ColorFullDraftShaded.ctb
 75
    16
147
1.0
148
-4581603.303200401
149
-2032962.095032944
  0
PLOTSETTINGS
  5
B4F
102
{ACAD_REACTORS
330
5FD
102
}
330
5FD
100
AcDbPlotSettings
  1
1055 PLUS Color Full Shaded Final
  2
1055_PLUS_ColorFinalShaded.pc3
  4
User257
  6
PS1
 40
4.995333194732666
 41
8.297271728515625
 42
4.99530029296875
 43
8.29736328125
 44
901.6576538085937
 45
1155.657592773437
 46
0.0
 47
0.0
 48
180377.877572
 49
80019.819395
140
180380.8390819999
141
80022.26069
142
1.0
143
1.0
 70
   688
 72
     0
 73
     3
 74
     5
  7
1055ColorFullFinalShaded.ctb
 75
    16
147
1.0
148
-4581603.303200401
149
-2032962.095032944
  0
PLOTSETTINGS
  5
B50
102
{ACAD_REACTORS
330
5FD
102
}
330
5FD
100
AcDbPlotSettings
  1
1055-B&W-Shaded-Draft
  2
1055B&WDraftShaded.pc3
  4
User257
  6

 40
4.995333194732666
 41
8.297393798828125
 42
4.99530029296875
 43
8.29736328125
 44
901.6152954101562
 45
1155.615356445312
 46
0.0
 47
0.0
 48
180360.0524337165
 49
80033.77936194791
140
180369.1574725906
141
80037.61796031875
142
1.0
143
30.0
 70
  1696
 72
     0
 73
     1
 74
     1
  7
1055B&WFullDraftShaded.ctb
 75
     0
147
0.0333333333333333
148
-190.0773302744904
149
-129.2444057835751
  0
PLOTSETTINGS
  5
B51
102
{ACAD_REACTORS
330
5FD
102
}
330
5FD
100
AcDbPlotSettings
  1
1055-B&W-Shaded-Final
  2
1055B&WFinalShaded.pc3
  4
User607
  6

 40
0.0
 41
0.0
 42
0.0
 43
0.0
 44
901.7000122070312
 45
1155.700073242187
 46
0.0
 47
0.0
 48
180360.0524337165
 49
80033.77936194791
140
180369.1574725906
141
80037.61796031875
142
1.0
143
30.0
 70
  1696
 72
     0
 73
     1
 74
     1
  7
1055B&WFullFinalShaded.ctb
 75
     0
147
0.0333333333333333
148
-190.0773302744904
149
-129.2444057835751
  0
PLOTSETTINGS
  5
B52
102
{ACAD_REACTORS
330
5FD
102
}
330
5FD
100
AcDbPlotSettings
  1
1055-Color-Shaded-Draft
  2
1055ColorDraftShaded.pc3
  4
User257
  6

 40
4.995333194732666
 41
8.297393798828125
 42
4.99530029296875
 43
8.29736328125
 44
901.6152954101562
 45
1155.615356445312
 46
0.0
 47
0.0
 48
180360.0524337165
 49
80033.77936194791
140
180369.1574725906
141
80037.61796031875
142
1.0
143
30.0
 70
  1696
 72
     0
 73
     1
 74
     1
  7
1055ColorFullDraftShaded.ctb
 75
     0
147
0.0333333333333333
148
-190.0773302744904
149
-129.2444057835751
  0
PLOTSETTINGS
  5
B53
102
{ACAD_REACTORS
330
5FD
102
}
330
5FD
100
AcDbPlotSettings
  1
1055-Color-Shaded-Final
  2
1055ColorDraftShaded.pc3
  4
User257
  6

 40
4.995333194732666
 41
8.297393798828125
 42
4.99530029296875
 43
8.29736328125
 44
901.6152954101562
 45
1155.615356445312
 46
0.0
 47
0.0
 48
180360.0524337165
 49
80033.77936194791
140
180369.1574725906
141
80037.61796031875
142
1.0
143
30.0
 70
  1696
 72
     0
 73
     1
 74
     1
  7
1055ColorFullFinalShaded.ctb
 75
     0
147
0.0333333333333333
148
-190.0773302744904
149
-129.2444057835751
  0
PLOTSETTINGS
  5
B54
102
{ACAD_REACTORS
330
5FD
102
}
330
5FD
100
AcDbPlotSettings
  1
1055-PLUS-B&W-Shaded-Draft
  2
1055_PLUS_B&WDraftShaded.pc3
  4
User257
  6

 40
4.995333194732666
 41
8.297393798828125
 42
4.99530029296875
 43
8.29736328125
 44
901.6152954101562
 45
1155.615356445312
 46
0.0
 47
0.0
 48
180360.0524337165
 49
80033.77936194791
140
180369.1574725906
141
80037.61796031875
142
1.0
143
30.0
 70
  1696
 72
     0
 73
     1
 74
     0
  7
1055B&WFullDraftShaded.ctb
 75
     0
147
0.0333333333333333
148
0.9506237099442845
149
8.593888772447144
  0
PLOTSETTINGS
  5
B55
102
{ACAD_REACTORS
330
5FD
102
}
330
5FD
100
AcDbPlotSettings
  1
1055-PLUS-B&W-Shaded-Final
  2
1055_PLUS_B&WFinalShaded.pc3
  4
User257
  6

 40
4.995333194732666
 41
8.297271728515625
 42
4.99530029296875
 43
8.29736328125
 44
901.6576538085937
 45
1155.657592773437
 46
0.0
 47
0.0
 48
180360.0524337165
 49
80033.77936194791
140
180369.1574725906
141
80037.61796031875
142
1.0
143
30.0
 70
  1696
 72
     0
 73
     1
 74
     0
  7
1055B&WFullFinalShaded.ctb
 75
     0
147
0.0333333333333333
148
0.9506237099442845
149
8.593888772447144
  0
PLOTSETTINGS
  5
B56
102
{ACAD_REACTORS
330
5FD
102
}
330
5FD
100
AcDbPlotSettings
  1
1055-PLUS-Color-Shaded-Draft
  2
1055_PLUS_ColorDraftShaded.pc3
  4
User257
  6

 40
4.995333194732666
 41
8.297393798828125
 42
4.99530029296875
 43
8.29736328125
 44
901.6152954101562
 45
1155.615356445312
 46
0.0
 47
0.0
 48
180360.0524337165
 49
80033.77936194791
140
180369.1574725906
141
80037.61796031875
142
1.0
143
30.0
 70
  1696
 72
     0
 73
     1
 74
     0
  7
1055ColorFullDraftShaded.ctb
 75
     0
147
0.0333333333333333
148
0.9506237099442845
149
8.593888772447144
  0
PLOTSETTINGS
  5
B57
102
{ACAD_REACTORS
330
5FD
102
}
330
5FD
100
AcDbPlotSettings
  1
1055-PLUS-Color-Shaded-Final
  2
1055_PLUS_ColorFinalShaded.pc3
  4
User257
  6

 40
4.995333194732666
 41
8.297271728515625
 42
4.99530029296875
 43
8.29736328125
 44
901.6576538085937
 45
1155.657592773437
 46
0.0
 47
0.0
 48
180360.0524337165
 49
80033.77936194791
140
180369.1574725906
141
80037.61796031875
142
1.0
143
30.0
 70
  1696
 72
     0
 73
     1
 74
     0
  7
1055ColorFullFinalShaded.ctb
 75
     0
147
0.0333333333333333
148
0.9506237099442845
149
8.593888772447144
  0
PLOTSETTINGS
  5
B58
102
{ACAD_REACTORS
330
5FD
102
}
330
5FD
100
AcDbPlotSettings
  1
2200 Color Inkjet
  2
HP  2200 Color Inkjet.pc3
  4
Letter
  6
PS1
 40
7.143749713897705
 41
12.47775650024414
 42
7.14373779296875
 43
3.17498779296875
 44
215.8999938964843
 45
279.3999938964843
 46
0.0
 47
0.0
 48
180377.877572
 49
80019.819395
140
180380.8390819999
141
80022.26069
142
1.0
143
0.3486331030131726
 70
   688
 72
     0
 73
     1
 74
     3
  7
Color.ctb
 75
     0
147
2.868344948764708
148
-4581603.303200401
149
-2032962.095032944
  0
PLOTSETTINGS
  5
B59
102
{ACAD_REACTORS
330
5FD
102
}
330
5FD
100
AcDbPlotSettings
  1
2200-Color-Inkjet
  2
HP  2200 Color Inkjet.pc3
  4
Letter
  6

 40
7.143749713897705
 41
12.47775650024414
 42
7.14373779296875
 43
3.17498779296875
 44
215.8999938964843
 45
279.3999938964843
 46
0.0
 47
0.0
 48
180360.0524337165
 49
80033.77936194791
140
180369.1574725906
141
80037.61796031875
142
1.0
143
0.069393053089765
 70
  1712
 72
     0
 73
     1
 74
     1
  7
Color.ctb
 75
     0
147
14.41066440334347
148
-190.0773302744904
149
-129.2444057835751
  0
PLOTSETTINGS
  5
B5A
102
{ACAD_REACTORS
330
5FD
102
}
330
5FD
100
AcDbPlotSettings
  1
24x36 PDF
  2
Bluebeam PDF Printer.pc3
  4
User128
  6
PS1
 40
3.174999952316284
 41
3.174999952316284
 42
3.17498779296875
 43
3.17498779296875
 44
609.5999755859375
 45
914.3999633789062
 46
270.5099999999999
 47
416.3059999999999
 48
180377.877572
 49
80019.819395
140
180380.8390819999
141
80022.26069
142
1.0
143
1.0
 70
   692
 72
     0
 73
     1
 74
     4
  7
1055B&WFullDraftShaded.ctb
 75
    16
147
1.0
148
-4581598.0903288
149
-2032503.412632999
  0
PLOTSETTINGS
  5
B5B
102
{ACAD_REACTORS
330
5FD
102
}
330
5FD
100
AcDbPlotSettings
  1
8500 B&W Shaded 11x17
  2
8500B&WShaded.pc3
  4
11x17
  6
PS1
 40
5.027083396911621
 41
5.027085304260253
 42
5.027099609375
 43
5.027069091796875
 44
279.3999938964843
 45
431.7999877929687
 46
0.0
 47
92.964
 48
180377.877572
 49
80019.819395
140
180380.8390819999
141
80022.26069
142
1.0
143
0.0116192543742624
 70
   692
 72
     0
 73
     1
 74
     3
  7
8500B&WShaded.ctb
 75
     0
147
86.06404230335863
148
-4581651.879813895
149
-2032998.63613423
  0
PLOTSETTINGS
  5
B5C
102
{ACAD_REACTORS
330
5FD
102
}
330
5FD
100
AcDbPlotSettings
  1
8500 B&W Shaded 8.5x11
  2
8500B&WShaded.pc3
  4
Letter
  6
PS1
 40
5.027083396911621
 41
5.027085304260253
 42
5.027084350585937
 43
5.027069091796875
 44
215.8999938964843
 45
279.3999938964843
 46
0.0
 47
44.44999999999999
 48
180377.877572
 49
80019.819395
140
180380.8390819999
141
80022.26069
142
1.0
143
0.0152035994604527
 70
   692
 72
     0
 73
     1
 74
     3
  7
8500B&WShaded.ctb
 75
     0
147
65.77389799048455
148
-4581651.879813895
149
-2032998.63613423
  0
PLOTSETTINGS
  5
B5D
102
{ACAD_REACTORS
330
5FD
102
}
330
5FD
100
AcDbPlotSettings
  1
8500 Color Shaded 11x17
  2
8500ColorShaded.pc3
  4
11x17
  6
PS1
 40
5.027083396911621
 41
5.027085304260253
 42
5.027099609375
 43
5.027069091796875
 44
279.3999938964843
 45
431.7999877929687
 46
0.0
 47
92.964
 48
180377.877572
 49
80019.819395
140
180380.8390819999
141
80022.26069
142
1.0
143
0.0116192543742624
 70
   692
 72
     0
 73
     1
 74
     3
  7
8500ColorShaded.ctb
 75
     0
147
86.06404230335863
148
-4581651.879813895
149
-2032998.63613423
  0
PLOTSETTINGS
  5
B5E
102
{ACAD_REACTORS
330
5FD
102
}
330
5FD
100
AcDbPlotSettings
  1
8500 Color Shaded 8.5x11
  2
8500ColorShaded.pc3
  4
Letter
  6
PS1
 40
5.027083396911621
 41
5.027085304260253
 42
5.027084350585937
 43
5.027069091796875
 44
215.8999938964843
 45
279.3999938964843
 46
0.0
 47
44.44999999999999
 48
180377.877572
 49
80019.819395
140
180380.8390819999
141
80022.26069
142
1.0
143
0.0152035994604527
 70
   692
 72
     0
 73
     1
 74
     3
  7
8500ColorShaded.ctb
 75
     0
147
65.77389799048455
148
-4581651.879813895
149
-2032998.63613423
  0
PLOTSETTINGS
  5
B5F
102
{ACAD_REACTORS
330
5FD
102
}
330
5FD
100
AcDbPlotSettings
  1
8500-B&W-Shaded-11x17
  2
8500B&WShaded.pc3
  4
11x17
  6

 40
5.027083396911621
 41
5.027085304260253
 42
5.027099609375
 43
5.027069091796875
 44
279.3999938964843
 45
431.7999877929687
 46
0.0
 47
0.0
 48
180360.0524337165
 49
80033.77936194791
140
180369.1574725906
141
80037.61796031875
142
1.0
143
0.0519425466957002
 70
  1712
 72
     0
 73
     1
 74
     1
  7
8500B&WShaded.ctb
 75
     0
147
19.252040256293
148
-190.0773302744904
149
-129.2444057835751
  0
PLOTSETTINGS
  5
B60
102
{ACAD_REACTORS
330
5FD
102
}
330
5FD
100
AcDbPlotSettings
  1
8500-B&W-Shaded-8.5x11
  2
8500B&WShaded.pc3
  4
Letter
  6

 40
5.027083396911621
 41
5.027085304260253
 42
5.027084350585937
 43
5.027069091796875
 44
215.8999938964843
 45
279.3999938964843
 46
0.0
 47
0.0
 48
180360.0524337165
 49
80033.77936194791
140
180369.1574725906
141
80037.61796031875
142
1.0
143
0.0679659511256221
 70
  1712
 72
     0
 73
     1
 74
     1
  7
8500B&WShaded.ctb
 75
     0
147
14.71324955273106
148
-190.0773302744904
149
-129.2444057835751
  0
PLOTSETTINGS
  5
B61
102
{ACAD_REACTORS
330
5FD
102
}
330
5FD
100
AcDbPlotSettings
  1
8500-Color-Shaded-11x17
  2
8500ColorShaded.pc3
  4
11x17
  6

 40
5.027083396911621
 41
5.027085304260253
 42
5.027099609375
 43
5.027069091796875
 44
279.3999938964843
 45
431.7999877929687
 46
0.0
 47
0.0
 48
180360.0524337165
 49
80033.77936194791
140
180369.1574725906
141
80037.61796031875
142
1.0
143
0.0519425466957002
 70
  1712
 72
     0
 73
     1
 74
     1
  7
8500ColorShaded.ctb
 75
     0
147
19.252040256293
148
-190.0773302744904
149
-129.2444057835751
  0
PLOTSETTINGS
  5
B62
102
{ACAD_REACTORS
330
5FD
102
}
330
5FD
100
AcDbPlotSettings
  1
8500-Color-Shaded-8.5x11
  2
8500ColorShaded.pc3
  4
Letter
  6

 40
5.027083396911621
 41
5.027085304260253
 42
5.027084350585937
 43
5.027069091796875
 44
215.8999938964843
 45
279.3999938964843
 46
0.0
 47
0.0
 48
180360.0524337165
 49
80033.77936194791
140
180369.1574725906
141
80037.61796031875
142
1.0
143
0.0679659511256221
 70
  1712
 72
     0
 73
     1
 74
     1
  7
8500ColorShaded.ctb
 75
     0
147
14.71324955273106
148
-190.0773302744904
149
-129.2444057835751
  0
PLOTSETTINGS
  5
B63
102
{ACAD_REACTORS
330
5FD
102
}
330
5FD
100
AcDbPlotSettings
  1
Laser Jet 5 Shaded 11x17
  2
LaserJet5Shaded.pc3
  4
11x17
  6
PS1
 40
7.143749713897705
 41
5.873736858367919
 42
7.143768310546875
 43
7.14373779296875
 44
279.3999938964843
 45
431.7999877929687
 46
0.0
 47
29.71799999999999
 48
180377.877572
 49
80019.819395
140
180380.8390819999
141
80022.26069
142
1.0
143
0.2557442899420743
 70
   692
 72
     0
 73
     1
 74
     3
  7
LaserJet5Shaded.ctb
 75
     0
147
3.910155727138614
148
-4581603.303200401
149
-2032962.095032944
  0
PLOTSETTINGS
  5
B64
102
{ACAD_REACTORS
330
5FD
102
}
330
5FD
100
AcDbPlotSettings
  1
Laser Jet 5 Shaded 8.5x11
  2
LaserJet5Shaded.pc3
  4
Letter
  6
PS1
 40
7.143749713897705
 41
6.974400997161865
 42
7.14373779296875
 43
6.297088623046875
 44
215.8999938964843
 45
279.3999938964843
 46
2.794
 47
0.0
 48
180377.877572
 49
80019.819395
140
180380.8390819999
141
80022.26069
142
1.0
143
0.345513616778612
 70
   692
 72
     0
 73
     1
 74
     3
  7
LaserJet5Shaded.ctb
 75
     0
147
2.894241938489939
148
-4581603.303200401
149
-2032962.095032944
  0
PLOTSETTINGS
  5
B65
102
{ACAD_REACTORS
330
5FD
102
}
330
5FD
100
AcDbPlotSettings
  1
LaserJet5-Shaded-11x17
  2
LaserJet5Shaded.pc3
  4
11x17
  6

 40
7.143749713897705
 41
5.873736858367919
 42
7.143768310546875
 43
7.14373779296875
 44
279.3999938964843
 45
431.7999877929687
 46
0.0
 47
0.0
 48
180360.0524337165
 49
80033.77936194791
140
180369.1574725906
141
80037.61796031875
142
1.0
143
0.0527719690046124
 70
  1712
 72
     0
 73
     1
 74
     1
  7
LaserJet5Shaded.ctb
 75
     0
147
18.9494540162524
148
-190.0773302744904
149
-129.2444057835751
  0
PLOTSETTINGS
  5
B66
102
{ACAD_REACTORS
330
5FD
102
}
330
5FD
100
AcDbPlotSettings
  1
LaserJet5-Shaded-8.5x11
  2
LaserJet5Shaded.pc3
  4
Letter
  6

 40
7.143749713897705
 41
6.974400997161865
 42
7.14373779296875
 43
6.297088623046875
 44
215.8999938964843
 45
279.3999938964843
 46
0.0
 47
0.0
 48
180360.0524337165
 49
80033.77936194791
140
180369.1574725906
141
80037.61796031875
142
1.0
143
0.069393053089765
 70
  1712
 72
     0
 73
     1
 74
     1
  7
LaserJet5Shaded.ctb
 75
     0
147
14.41066440334347
148
-190.0773302744904
149
-129.2444057835751
  0
PLOTSETTINGS
  5
B67
102
{ACAD_REACTORS
330
5FD
102
}
330
5FD
100
AcDbPlotSettings
  1
Oki Doki B&W Shaded 11x17
  2
OKI DOKI Color Laser.pc3
  4
Tabloid
  6
PS1
 40
5.027083396911621
 41
5.027085304260253
 42
5.027099609375
 43
5.027069091796875
 44
279.3999938964843
 45
431.7999877929687
 46
0.0
 47
47.49799999999999
 48
180377.877572
 49
80019.819395
140
180380.8390819999
141
80022.26069
142
1.0
143
0.2302203728173071
 70
   692
 72
     0
 73
     1
 74
     4
  7
OKIB&WShaded.ctb
 75
     0
147
4.343664236846477
148
-4581598.0903288
149
-2032503.412632999
  0
PLOTSETTINGS
  5
B68
102
{ACAD_REACTORS
330
5FD
102
}
330
5FD
100
AcDbPlotSettings
  1
Oki Doki B&W Shaded 8.5x11
  2
OKI DOKI Color Laser.pc3
  4
Letter
  6
PS1
 40
5.027083396911621
 41
5.027085304260253
 42
5.027084350585937
 43
5.027069091796875
 44
215.8999938964843
 45
279.3999938964843
 46
0.0
 47
9.906
 48
180377.877572
 49
80019.819395
140
180380.8390819999
141
80022.26069
142
1.0
143
0.3012394963745367
 70
   692
 72
     0
 73
     1
 74
     4
  7
OKIB&WShaded.ctb
 75
     0
147
3.319617819161008
148
-4581598.0903288
149
-2032503.412632999
  0
PLOTSETTINGS
  5
B69
102
{ACAD_REACTORS
330
5FD
102
}
330
5FD
100
AcDbPlotSettings
  1
Oki Doki Color Laser
  2
OKI DOKI Color Laser.pc3
  4
Letter
  6
PS1
 40
5.027083396911621
 41
5.027085304260253
 42
5.027084350585937
 43
5.027069091796875
 44
215.8999938964843
 45
279.3999938964843
 46
71.88199999999999
 47
97.02799999999999
 48
180377.877572
 49
80019.819395
140
180380.8390819999
141
80022.26069
142
1.0
143
1.0
 70
   692
 72
     0
 73
     1
 74
     4
  7
Color.ctb
 75
    16
147
1.0
148
-4581598.0903288
149
-2032503.412632999
  0
PLOTSETTINGS
  5
B6A
102
{ACAD_REACTORS
330
5FD
102
}
330
5FD
100
AcDbPlotSettings
  1
Oki Doki Color Shaded 11x17
  2
OKI DOKI Color Laser.pc3
  4
Tabloid
  6
PS1
 40
5.027083396911621
 41
5.027085304260253
 42
5.027099609375
 43
5.027069091796875
 44
279.3999938964843
 45
431.7999877929687
 46
0.0
 47
47.49799999999999
 48
180377.877572
 49
80019.819395
140
180380.8390819999
141
80022.26069
142
1.0
143
0.2302203728173071
 70
   692
 72
     0
 73
     1
 74
     4
  7
OKIColorShaded.ctb
 75
     0
147
4.343664236846477
148
-4581598.0903288
149
-2032503.412632999
  0
PLOTSETTINGS
  5
B6B
102
{ACAD_REACTORS
330
5FD
102
}
330
5FD
100
AcDbPlotSettings
  1
Oki Doki Color Shaded 8.5x11
  2
OKI DOKI Color Laser.pc3
  4
Letter
  6
PS1
 40
5.027083396911621
 41
5.027085304260253
 42
5.027084350585937
 43
5.027069091796875
 44
215.8999938964843
 45
279.3999938964843
 46
0.0
 47
9.906
 48
180377.877572
 49
80019.819395
140
180380.8390819999
141
80022.26069
142
1.0
143
0.3012394963745367
 70
   692
 72
     0
 73
     1
 74
     4
  7
OKIColorShaded.ctb
 75
     0
147
3.319617819161008
148
-4581598.0903288
149
-2032503.412632999
  0
PLOTSETTINGS
  5
B6C
102
{ACAD_REACTORS
330
5FD
102
}
330
5FD
100
AcDbPlotSettings
  1
Oki-Doki-B&W-Shaded-11x17
  2
OKI DOKI Color Laser.pc3
  4
Tabloid
  6

 40
5.027083396911621
 41
5.027085304260253
 42
5.027099609375
 43
5.027069091796875
 44
279.3999938964843
 45
431.7999877929687
 46
45.72
 47
0.0
 48
180360.0524337165
 49
80033.77936194791
140
180369.1574725906
141
80037.61796031875
142
1.0
143
0.5483586774064594
 70
  1716
 72
     0
 73
     1
 74
     4
  7
OKIB&WShaded.ctb
 75
     0
147
1.823623918435361
148
-4581145.331816398
149
-2032857.995793476
  0
PLOTSETTINGS
  5
B6D
102
{ACAD_REACTORS
330
5FD
102
}
330
5FD
100
AcDbPlotSettings
  1
Oki-Doki-B&W-Shaded-8.5x11
  2
OKI DOKI Color Laser.pc3
  4
Letter
  6

 40
5.027083396911621
 41
5.027085304260253
 42
5.027084350585937
 43
5.027069091796875
 44
215.8999938964843
 45
279.3999938964843
 46
46.228
 47
0.0
 48
180360.0524337165
 49
80033.77936194791
140
180369.1574725906
141
80037.61796031875
142
1.0
143
0.8586284006917006
 70
  1716
 72
     0
 73
     1
 74
     4
  7
OKIB&WShaded.ctb
 75
     0
147
1.16464817515285
148
-4581145.331816398
149
-2032857.995793476
  0
PLOTSETTINGS
  5
B6E
102
{ACAD_REACTORS
330
5FD
102
}
330
5FD
100
AcDbPlotSettings
  1
Oki-Doki-Color-Laser
  2
OKI DOKI Color Laser.pc3
  4
Letter
  6

 40
5.027083396911621
 41
5.027085304260253
 42
5.027084350585937
 43
5.027069091796875
 44
215.8999938964843
 45
279.3999938964843
 46
17.018
 47
0.0
 48
180360.0524337165
 49
80033.77936194791
140
180369.1574725906
141
80037.61796031875
142
1.0
143
1.429088128819241
 70
  1716
 72
     0
 73
     1
 74
     0
  7
Color.ctb
 75
     0
147
0.6997469084193093
148
0.9506237099442977
149
8.593888772447144
  0
PLOTSETTINGS
  5
B6F
102
{ACAD_REACTORS
330
5FD
102
}
330
5FD
100
AcDbPlotSettings
  1
Oki-Doki-Color-Shaded-11x17
  2
OKI DOKI Color Laser.pc3
  4
Tabloid
  6

 40
5.027083396911621
 41
5.027085304260253
 42
5.027099609375
 43
5.027069091796875
 44
279.3999938964843
 45
431.7999877929687
 46
45.72
 47
0.0
 48
180360.0524337165
 49
80033.77936194791
140
180369.1574725906
141
80037.61796031875
142
1.0
143
0.5483586774064594
 70
  1716
 72
     0
 73
     1
 74
     4
  7
OKIColorShaded.ctb
 75
     0
147
1.823623918435361
148
-4581145.331816398
149
-2032857.995793476
  0
PLOTSETTINGS
  5
B70
102
{ACAD_REACTORS
330
5FD
102
}
330
5FD
100
AcDbPlotSettings
  1
Oki-Doki-Color-Shaded-8.5x11
  2
OKI DOKI Color Laser.pc3
  4
Letter
  6

 40
5.027083396911621
 41
5.027085304260253
 42
5.027084350585937
 43
5.027069091796875
 44
215.8999938964843
 45
279.3999938964843
 46
46.228
 47
0.0
 48
180360.0524337165
 49
80033.77936194791
140
180369.1574725906
141
80037.61796031875
142
1.0
143
0.8586284006917006
 70
  1716
 72
     0
 73
     1
 74
     4
  7
OKIColorShaded.ctb
 75
     0
147
1.16464817515285
148
-4581145.331816398
149
-2032857.995793476
  0
ACDBPLACEHOLDER
  5
5FB
102
{ACAD_REACTORS
330
5FA
102
}
330
5FA
  0
DICTIONARYVAR
  5
31
102
{ACAD_REACTORS
330
30
102
}
330
30
100
DictionaryVariables
280
     0
  1
0
  0
DICTIONARYVAR
  5
888
102
{ACAD_REACTORS
330
30
102
}
330
30
100
DictionaryVariables
280
     0
  1
1
  0
DICTIONARYVAR
  5
404
102
{ACAD_REACTORS
330
30
102
}
330
30
100
DictionaryVariables
280
     0
  1
1
  0
XRECORD
  5
5F7
102
{ACAD_REACTORS
330
5F0
102
}
330
0
100
AcDbXrecord
280
     1
330
1DC
  0
XRECORD
  5
9E7
102
{ACAD_REACTORS
330
98F
102
}
330
98F
100
AcDbXrecord
280
     1
 91
        3
330
26
 90
        9
 62
     5
370
    -3
331
13
  1
Color_5
330
22
 90
        8
 62
     6
370
    -3
331
13
  1
Color_6
330
38F
 90
        9
 62
     1
370
    -3
331
13
  1
Color_1
330
38A
 90
        9
 62
     1
370
    -3
331
13
  1
Color_1
330
38E
 90
        8
 62
     1
370
    -3
331
13
  1
Color_1
330
27
 90
        8
 62
     7
370
    -3
331
13
  1
Color_7
330
28
 90
        8
 62
     4
370
    -3
331
13
  1
Color_4
330
23
 90
        8
 62
     7
370
    -3
331
13
  1
Color_7
330
E
 90
        9
 62
     7
370
    -3
331
13
  1
Color_7
  0
XRECORD
  5
A57
102
{ACAD_REACTORS
330
98F
102
}
330
98F
100
AcDbXrecord
280
     1
 91
        3
330
26
 90
        8
 62
     5
370
    -3
331
13
  1
Color_5
330
22
 90
        9
 62
     6
370
    -3
331
13
  1
Color_6
330
38F
 90
        9
 62
     1
370
    -3
331
13
  1
Color_1
330
38A
 90
        9
 62
     1
370
    -3
331
13
  1
Color_1
330
38E
 90
        8
 62
     1
370
    -3
331
13
  1
Color_1
330
27
 90
        8
 62
     7
370
    -3
331
13
  1
Color_7
330
28
 90
        8
 62
     4
370
    -3
331
13
  1
Color_4
330
23
 90
        8
 62
     7
370
    -3
331
13
  1
Color_7
330
E
 90
        9
 62
     7
370
    -3
331
13
  1
Color_7
  0
XRECORD
  5
9F7
102
{ACAD_REACTORS
330
98F
102
}
330
98F
100
AcDbXrecord
280
     1
 91
        3
330
26
 90
        9
 62
     5
370
    -3
331
13
  1
Color_5
330
22
 90
        8
 62
     6
370
    -3
331
13
  1
Color_6
330
38F
 90
        9
 62
     1
370
    -3
331
13
  1
Color_1
330
38A
 90
        8
 62
     1
370
    -3
331
13
  1
Color_1
330
38E
 90
        9
 62
     1
370
    -3
331
13
  1
Color_1
330
27
 90
        8
 62
     7
370
    -3
331
13
  1
Color_7
330
28
 90
        8
 62
     4
370
    -3
331
13
  1
Color_4
330
23
 90
        8
 62
     7
370
    -3
331
13
  1
Color_7
330
E
 90
        9
 62
     7
370
    -3
331
13
  1
Color_7
  0
XRECORD
  5
A67
102
{ACAD_REACTORS
330
98F
102
}
330
98F
100
AcDbXrecord
280
     1
 91
        3
330
26
 90
        8
 62
     5
370
    -3
331
13
  1
Color_5
330
22
 90
        9
 62
     6
370
    -3
331
13
  1
Color_6
330
38F
 90
        9
 62
     1
370
    -3
331
13
  1
Color_1
330
38A
 90
        8
 62
     1
370
    -3
331
13
  1
Color_1
330
38E
 90
        9
 62
     1
370
    -3
331
13
  1
Color_1
330
27
 90
        8
 62
     7
370
    -3
331
13
  1
Color_7
330
28
 90
        8
 62
     4
370
    -3
331
13
  1
Color_4
330
23
 90
        8
 62
     7
370
    -3
331
13
  1
Color_7
330
E
 90
        9
 62
     7
370
    -3
331
13
  1
Color_7
  0
XRECORD
  5
A77
102
{ACAD_REACTORS
330
98F
102
}
330
98F
100
AcDbXrecord
280
     1
 91
        3
330
26
 90
        8
 62
     5
370
    -3
331
13
  1
Color_5
330
22
 90
        9
 62
     6
370
    -3
331
13
  1
Color_6
330
38F
 90
        8
 62
     1
370
    -3
331
13
  1
Color_1
330
38A
 90
        9
 62
     1
370
    -3
331
13
  1
Color_1
330
38E
 90
        9
 62
     1
370
    -3
331
13
  1
Color_1
330
27
 90
        8
 62
     7
370
    -3
331
13
  1
Color_7
330
28
 90
        8
 62
     4
370
    -3
331
13
  1
Color_4
330
23
 90
        8
 62
     7
370
    -3
331
13
  1
Color_7
330
E
 90
        9
 62
     7
370
    -3
331
13
  1
Color_7
  0
XRECORD
  5
A07
102
{ACAD_REACTORS
330
98F
102
}
330
98F
100
AcDbXrecord
280
     1
 91
        3
330
26
 90
        9
 62
     5
370
    -3
331
13
  1
Color_5
330
22
 90
        8
 62
     6
370
    -3
331
13
  1
Color_6
330
38F
 90
        8
 62
     1
370
    -3
331
13
  1
Color_1
330
38A
 90
        9
 62
     1
370
    -3
331
13
  1
Color_1
330
38E
 90
        9
 62
     1
370
    -3
331
13
  1
Color_1
330
27
 90
        8
 62
     7
370
    -3
331
13
  1
Color_7
330
28
 90
        8
 62
     4
370
    -3
331
13
  1
Color_4
330
23
 90
        8
 62
     7
370
    -3
331
13
  1
Color_7
330
E
 90
        9
 62
     7
370
    -3
331
13
  1
Color_7
  0
ENDSEC
  0
EOF
