  0
SECTION
  2
HEADER
  9
$ACADVER
  1
AC1018
  9
$ACADMAINTVER
 70
   104
  9
$DWGCODEPAGE
  3
ANSI_1252
  9
$TITLE
  1
O:\RAINBIRD\Details 2008\Rotary Nozzles\S-1804Rotary-SJ-2004.DWG
  9
$AUTHOR
  1
dweyer
  9
$COMMENTS
  1
This drawing was opened and saved by 'dweyer' with AutoCAD version 17.1 using profile WatermarkID on 07-01-2008-08:29
  9
$LASTSAVEDBY
  1
dweyer
  9
$INSBASE
 10
0.0
 20
0.0
 30
0.0
  9
$EXTMIN
 10
0.1064708094271038
 20
-0.1143646667846376
 30
0.0
  9
$EXTMAX
 10
16.5964708094271
 20
10.32563533321536
 30
0.03
  9
$LIMMIN
 10
0.0
 20
0.0
  9
$LIMMAX
 10
12.0
 20
9.0
  9
$ORTHOMODE
 70
     0
  9
$REGENMODE
 70
     1
  9
$FILLMODE
 70
     1
  9
$QTEXTMODE
 70
     0
  9
$MIRRTEXT
 70
     0
  9
$LTSCALE
 40
1.0
  9
$ATTMODE
 70
     1
  9
$TEXTSIZE
 40
0.1
  9
$TRACEWID
 40
0.05
  9
$TEXTSTYLE
  7
ROMANS
  9
$CLAYER
  8
image
  9
$CELTYPE
  6
ByLayer
  9
$CECOLOR
 62
   256
  9
$CELTSCALE
 40
1.0
  9
$DISPSILH
 70
     0
  9
$DIMSCALE
 40
1.0
  9
$DIMASZ
 40
0.18
  9
$DIMEXO
 40
0.0625
  9
$DIMDLI
 40
0.38
  9
$DIMRND
 40
0.0
  9
$DIMDLE
 40
0.0
  9
$DIMEXE
 40
0.125
  9
$DIMTP
 40
0.0
  9
$DIMTM
 40
0.0
  9
$DIMTXT
 40
0.125
  9
$DIMCEN
 40
0.09
  9
$DIMTSZ
 40
0.0
  9
$DIMTOL
 70
     0
  9
$DIMLIM
 70
     0
  9
$DIMTIH
 70
     1
  9
$DIMTOH
 70
     1
  9
$DIMSE1
 70
     0
  9
$DIMSE2
 70
     0
  9
$DIMTAD
 70
     0
  9
$DIMZIN
 70
     0
  9
$DIMBLK
  1

  9
$DIMASO
 70
     1
  9
$DIMSHO
 70
     1
  9
$DIMPOST
  1

  9
$DIMAPOST
  1

  9
$DIMALT
 70
     0
  9
$DIMALTD
 70
     2
  9
$DIMALTF
 40
25.4
  9
$DIMLFAC
 40
1.0
  9
$DIMTOFL
 70
     0
  9
$DIMTVP
 40
0.0
  9
$DIMTIX
 70
     0
  9
$DIMSOXD
 70
     0
  9
$DIMSAH
 70
     0
  9
$DIMBLK1
  1

  9
$DIMBLK2
  1

  9
$DIMSTYLE
  2
Standard
  9
$DIMCLRD
 70
   256
  9
$DIMCLRE
 70
   256
  9
$DIMCLRT
 70
   256
  9
$DIMTFAC
 40
1.0
  9
$DIMGAP
 40
0.09
  9
$DIMJUST
 70
     0
  9
$DIMSD1
 70
     0
  9
$DIMSD2
 70
     0
  9
$DIMTOLJ
 70
     1
  9
$DIMTZIN
 70
     0
  9
$DIMALTZ
 70
     0
  9
$DIMALTTZ
 70
     0
  9
$DIMUPT
 70
     0
  9
$DIMDEC
 70
     4
  9
$DIMTDEC
 70
     4
  9
$DIMALTU
 70
     2
  9
$DIMALTTD
 70
     2
  9
$DIMTXSTY
  7
STANDARD
  9
$DIMAUNIT
 70
     0
  9
$DIMADEC
 70
     0
  9
$DIMALTRND
 40
0.0
  9
$DIMAZIN
 70
     0
  9
$DIMDSEP
 70
    46
  9
$DIMATFIT
 70
     3
  9
$DIMFRAC
 70
     0
  9
$DIMLDRBLK
  1

  9
$DIMLUNIT
 70
     2
  9
$DIMLWD
 70
    -1
  9
$DIMLWE
 70
    -1
  9
$DIMTMOVE
 70
     2
  9
$LUNITS
 70
     2
  9
$LUPREC
 70
     3
  9
$SKETCHINC
 40
0.1
  9
$FILLETRAD
 40
0.0
  9
$AUNITS
 70
     0
  9
$AUPREC
 70
     0
  9
$MENU
  1
ACAD
  9
$ELEVATION
 40
0.0
  9
$PELEVATION
 40
0.0
  9
$THICKNESS
 40
0.0
  9
$LIMCHECK
 70
     0
  9
$CHAMFERA
 40
0.0
  9
$CHAMFERB
 40
0.0
  9
$CHAMFERC
 40
0.0
  9
$CHAMFERD
 40
0.0
  9
$SKPOLY
 70
     0
  9
$TDCREATE
 40
2449623.426764236
  9
$TDUCREATE
 40
2449623.676764236
  9
$TDUPDATE
 40
2454649.354024653
  9
$TDUUPDATE
 40
2454649.604024653
  9
$TDINDWG
 40
0.4652556944
  9
$TDUSRTIMER
 40
0.4652556944
  9
$USRTIMER
 70
     1
  9
$ANGBASE
 50
0.0
  9
$ANGDIR
 70
     0
  9
$PDMODE
 70
     0
  9
$PDSIZE
 40
0.0
  9
$PLINEWID
 40
0.0
  9
$SPLFRAME
 70
     0
  9
$SPLINETYPE
 70
     6
  9
$SPLINESEGS
 70
     8
  9
$HANDSEED
  5
5CB
  9
$SURFTAB1
 70
     6
  9
$SURFTAB2
 70
     6
  9
$SURFTYPE
 70
     6
  9
$SURFU
 70
     6
  9
$SURFV
 70
     6
  9
$UCSBASE
  2

  9
$UCSNAME
  2

  9
$UCSORG
 10
0.0
 20
0.0
 30
0.0
  9
$UCSXDIR
 10
1.0
 20
0.0
 30
0.0
  9
$UCSYDIR
 10
0.0
 20
1.0
 30
0.0
  9
$UCSORTHOREF
  2

  9
$UCSORTHOVIEW
 70
     0
  9
$UCSORGTOP
 10
0.0
 20
0.0
 30
0.0
  9
$UCSORGBOTTOM
 10
0.0
 20
0.0
 30
0.0
  9
$UCSORGLEFT
 10
0.0
 20
0.0
 30
0.0
  9
$UCSORGRIGHT
 10
0.0
 20
0.0
 30
0.0
  9
$UCSORGFRONT
 10
0.0
 20
0.0
 30
0.0
  9
$UCSORGBACK
 10
0.0
 20
0.0
 30
0.0
  9
$PUCSBASE
  2

  9
$PUCSNAME
  2

  9
$PUCSORG
 10
0.0
 20
0.0
 30
0.0
  9
$PUCSXDIR
 10
1.0
 20
0.0
 30
0.0
  9
$PUCSYDIR
 10
0.0
 20
1.0
 30
0.0
  9
$PUCSORTHOREF
  2

  9
$PUCSORTHOVIEW
 70
     0
  9
$PUCSORGTOP
 10
0.0
 20
0.0
 30
0.0
  9
$PUCSORGBOTTOM
 10
0.0
 20
0.0
 30
0.0
  9
$PUCSORGLEFT
 10
0.0
 20
0.0
 30
0.0
  9
$PUCSORGRIGHT
 10
0.0
 20
0.0
 30
0.0
  9
$PUCSORGFRONT
 10
0.0
 20
0.0
 30
0.0
  9
$PUCSORGBACK
 10
0.0
 20
0.0
 30
0.0
  9
$USERI1
 70
     0
  9
$USERI2
 70
     0
  9
$USERI3
 70
     0
  9
$USERI4
 70
     0
  9
$USERI5
 70
     0
  9
$USERR1
 40
0.0
  9
$USERR2
 40
0.0
  9
$USERR3
 40
0.0
  9
$USERR4
 40
0.0
  9
$USERR5
 40
0.0
  9
$WORLDVIEW
 70
     1
  9
$SHADEDGE
 70
     3
  9
$SHADEDIF
 70
    70
  9
$TILEMODE
 70
     1
  9
$MAXACTVP
 70
    16
  9
$PINSBASE
 10
0.0
 20
0.0
 30
0.0
  9
$PLIMCHECK
 70
     0
  9
$PEXTMIN
 10
1.000000000000000E+20
 20
1.000000000000000E+20
 30
1.000000000000000E+20
  9
$PEXTMAX
 10
-1.000000000000000E+20
 20
-1.000000000000000E+20
 30
-1.000000000000000E+20
  9
$PLIMMIN
 10
0.0
 20
0.0
  9
$PLIMMAX
 10
12.0
 20
9.0
  9
$UNITMODE
 70
     0
  9
$VISRETAIN
 70
     0
  9
$PLINEGEN
 70
     1
  9
$PSLTSCALE
 70
     1
  9
$TREEDEPTH
 70
  3020
  9
$CMLSTYLE
  2
Standard
  9
$CMLJUST
 70
     0
  9
$CMLSCALE
 40
1.0
  9
$PROXYGRAPHICS
 70
     1
  9
$MEASUREMENT
 70
     0
  9
$CELWEIGHT
370
    -1
  9
$ENDCAPS
280
     0
  9
$JOINSTYLE
280
     0
  9
$LWDISPLAY
290
     0
  9
$INSUNITS
 70
     0
  9
$HYPERLINKBASE
  1

  9
$STYLESHEET
  1
color.ctb
  9
$XEDIT
290
     1
  9
$CEPSNTYPE
380
     0
  9
$PSTYLEMODE
290
     1
  9
$FINGERPRINTGUID
  2
{FC71E344-C23D-4BC5-84A3-344016255673}
  9
$VERSIONGUID
  2
{E4EA9283-73F2-47BE-9C85-DEBDDCDC8B18}
  9
$EXTNAMES
290
     1
  9
$PSVPSCALE
 40
0.0
  9
$OLESTARTUP
290
     1
  9
$SORTENTS
280
   112
  9
$INDEXCTL
280
     0
  9
$HIDETEXT
280
     1
  9
$XCLIPFRAME
290
     0
  9
$HALOGAP
280
     0
  9
$OBSCOLOR
 70
   257
  9
$OBSLTYPE
280
     0
  9
$INTERSECTIONDISPLAY
280
     0
  9
$INTERSECTIONCOLOR
 70
   257
  9
$DIMASSOC
280
     1
  9
$PROJECTNAME
  1

  0
ENDSEC
  0
SECTION
  2
CLASSES
  0
CLASS
  1
ACDBDICTIONARYWDFLT
  2
AcDbDictionaryWithDefault
  3
ObjectDBX Classes
 90
        0
 91
        1
280
     0
281
     0
  0
CLASS
  1
DICTIONARYVAR
  2
AcDbDictionaryVar
  3
ObjectDBX Classes
 90
        0
 91
       10
280
     0
281
     0
  0
CLASS
  1
MATERIAL
  2
AcDbMaterial
  3
ObjectDBX Classes
 90
     1153
 91
        3
280
     0
281
     0
  0
CLASS
  1
VISUALSTYLE
  2
AcDbVisualStyle
  3
ObjectDBX Classes
 90
     4095
 91
       16
280
     0
281
     0
  0
CLASS
  1
TABLESTYLE
  2
AcDbTableStyle
  3
ObjectDBX Classes
 90
     4095
 91
        1
280
     0
281
     0
  0
CLASS
  1
SCALE
  2
AcDbScale
  3
ObjectDBX Classes
 90
     1153
 91
       65
280
     0
281
     0
  0
CLASS
  1
MLEADERSTYLE
  2
AcDbMLeaderStyle
  3
ACDB_MLEADERSTYLE_CLASS
 90
     4095
 91
        1
280
     0
281
     0
  0
CLASS
  1
SORTENTSTABLE
  2
AcDbSortentsTable
  3
ObjectDBX Classes
 90
        0
 91
        1
280
     0
281
     0
  0
CLASS
  1
CELLSTYLEMAP
  2
AcDbCellStyleMap
  3
ObjectDBX Classes
 90
     1152
 91
        2
280
     0
281
     0
  0
CLASS
  1
EXACXREFPANELOBJECT
  2
ExAcXREFPanelObject
  3
EXAC_ESW
 90
     1025
 91
        1
280
     0
281
     0
  0
CLASS
  1
NPOCOLLECTION
  2
AcDbImpNonPersistentObjectsCollection
  3
ObjectDBX Classes
 90
     1153
 91
        1
280
     0
281
     0
  0
ENDSEC
  0
SECTION
  2
TABLES
  0
TABLE
  2
VPORT
  5
8
102
{ACAD_XDICTIONARY
360
58D
102
}
330
0
100
AcDbSymbolTable
 70
     1
  0
VPORT
  5
397
330
8
100
AcDbSymbolTableRecord
100
AcDbViewportTableRecord
  2
*Active
 70
     0
 10
0.0
 20
0.0
 11
1.0
 21
1.0
 12
8.834372672780318
 22
5.063026347186538
 13
0.0
 23
0.0
 14
0.14
 24
0.14
 15
0.0
 25
0.0
 16
0.0
 26
0.0
 36
1.0
 17
0.0
 27
0.0
 37
0.0
 40
10.52442048027442
 41
2.15519568151147
 42
50.0
 43
0.0
 44
0.0
 50
0.0
 51
0.0
 71
     0
 72
  4000
 73
     1
 74
     1
 75
     0
 76
     0
 77
     0
 78
     0
281
     0
 65
     1
110
0.0
120
0.0
130
0.0
111
1.0
121
0.0
131
0.0
112
0.0
122
1.0
132
0.0
 79
     0
146
0.0
  0
ENDTAB
  0
TABLE
  2
LTYPE
  5
5
330
0
100
AcDbSymbolTable
 70
     1
  0
LTYPE
  5
13
330
5
100
AcDbSymbolTableRecord
100
AcDbLinetypeTableRecord
  2
ByBlock
 70
     0
  3

 72
    65
 73
     0
 40
0.0
  0
LTYPE
  5
14
330
5
100
AcDbSymbolTableRecord
100
AcDbLinetypeTableRecord
  2
ByLayer
 70
     0
  3

 72
    65
 73
     0
 40
0.0
  0
LTYPE
  5
15
330
5
100
AcDbSymbolTableRecord
100
AcDbLinetypeTableRecord
  2
CONTINUOUS
 70
     0
  3
Solid line
 72
    65
 73
     0
 40
0.0
  0
ENDTAB
  0
TABLE
  2
LAYER
  5
2
102
{ACAD_XDICTIONARY
360
283
102
}
330
0
100
AcDbSymbolTable
 70
     8
  0
LAYER
  5
10
330
2
100
AcDbSymbolTableRecord
100
AcDbLayerTableRecord
  2
0
 70
     0
 62
     7
  6
CONTINUOUS
370
    -3
390
F
  0
LAYER
  5
27
330
2
100
AcDbSymbolTableRecord
100
AcDbLayerTableRecord
  2
text_bubbles
 70
     0
 62
     6
  6
CONTINUOUS
370
    -3
390
F
  0
LAYER
  5
28
330
2
100
AcDbSymbolTableRecord
100
AcDbLayerTableRecord
  2
image
 70
     0
 62
     7
  6
CONTINUOUS
370
    -3
390
F
  0
LAYER
  5
2B
330
2
100
AcDbSymbolTableRecord
100
AcDbLayerTableRecord
  2
text_leaders
 70
     1
 62
    -5
  6
CONTINUOUS
370
    -3
390
F
  0
LAYER
  5
2C
330
2
100
AcDbSymbolTableRecord
100
AcDbLayerTableRecord
  2
option-sam
 70
     1
 62
    -1
  6
CONTINUOUS
370
    -3
390
F
  0
LAYER
  5
34
330
2
100
AcDbSymbolTableRecord
100
AcDbLayerTableRecord
  2
instruct-option
 70
     0
 62
     7
  6
CONTINUOUS
370
    -3
390
F
  0
LAYER
  5
35
330
2
100
AcDbSymbolTableRecord
100
AcDbLayerTableRecord
  2
instruct-callout
 70
     0
 62
     4
  6
CONTINUOUS
370
    -3
390
F
  0
LAYER
  5
25F
330
2
100
AcDbSymbolTableRecord
100
AcDbLayerTableRecord
  2
title
 70
     0
 62
     4
  6
CONTINUOUS
370
    -3
390
F
  0
ENDTAB
  0
TABLE
  2
STYLE
  5
3
330
0
100
AcDbSymbolTable
 70
     5
  0
STYLE
  5
11
330
3
100
AcDbSymbolTableRecord
100
AcDbTextStyleTableRecord
  2
STANDARD
 70
     0
 40
0.0
 41
1.0
 50
0.0
 71
     0
 42
0.2
  3
txt
  4

  0
STYLE
  5
24
330
3
100
AcDbSymbolTableRecord
100
AcDbTextStyleTableRecord
  2
ROMANS
 70
     0
 40
0.0
 41
1.0
 50
0.0
 71
     0
 42
0.1
  3
ROMANS.SHX
  4

  0
STYLE
  5
260
330
3
100
AcDbSymbolTableRecord
100
AcDbTextStyleTableRecord
  2
L100
 70
     0
 40
0.1
 41
1.0
 50
0.0
 71
     0
 42
0.1
  3
romans.shx
  4

  0
STYLE
  5
261
330
3
100
AcDbSymbolTableRecord
100
AcDbTextStyleTableRecord
  2
L200
 70
     0
 40
0.2
 41
1.0
 50
0.0
 71
     0
 42
0.081
  3
ARIAL.TTF
  4

1001
ACAD
1000
Arial
1071
       34
  0
STYLE
  5
262
330
3
100
AcDbSymbolTableRecord
100
AcDbTextStyleTableRecord
  2
L80
 70
     0
 40
0.08
 41
1.0
 50
0.0
 71
     0
 42
0.08
  3
ROMANS
  4

  0
ENDTAB
  0
TABLE
  2
VIEW
  5
6
330
0
100
AcDbSymbolTable
 70
     0
  0
ENDTAB
  0
TABLE
  2
UCS
  5
7
330
0
100
AcDbSymbolTable
 70
     0
  0
ENDTAB
  0
TABLE
  2
APPID
  5
9
330
0
100
AcDbSymbolTable
 70
     6
  0
APPID
  5
12
330
9
100
AcDbSymbolTableRecord
100
AcDbRegAppTableRecord
  2
ACAD
 70
     0
  0
APPID
  5
3EA
330
9
100
AcDbSymbolTableRecord
100
AcDbRegAppTableRecord
  2
ACAD_MLEADERVER
 70
     0
  0
APPID
  5
516
330
9
100
AcDbSymbolTableRecord
100
AcDbRegAppTableRecord
  2
BBSI_PltSel
 70
     0
  0
APPID
  5
517
330
9
100
AcDbSymbolTableRecord
100
AcDbRegAppTableRecord
  2
BBSI_Plots
 70
     0
  0
APPID
  5
518
330
9
100
AcDbSymbolTableRecord
100
AcDbRegAppTableRecord
  2
BBSI_Bookmarks
 70
     0
  0
APPID
  5
51C
330
9
100
AcDbSymbolTableRecord
100
AcDbRegAppTableRecord
  2
ACAD_PSEXT
 70
     0
  0
ENDTAB
  0
TABLE
  2
DIMSTYLE
  5
A
330
0
100
AcDbSymbolTable
 70
     1
100
AcDbDimStyleTable
 71
     1
340
211
  0
DIMSTYLE
105
211
330
A
100
AcDbSymbolTableRecord
100
AcDbDimStyleTableRecord
  2
Standard
 70
     0
340
11
  0
ENDTAB
  0
TABLE
  2
BLOCK_RECORD
  5
1
330
0
100
AcDbSymbolTable
 70
     1
  0
BLOCK_RECORD
  5
1E
102
{ACAD_XDICTIONARY
360
41C
102
}
330
1
100
AcDbSymbolTableRecord
100
AcDbBlockTableRecord
  2
*Model_Space
340
21
  0
BLOCK_RECORD
  5
1A
330
1
100
AcDbSymbolTableRecord
100
AcDbBlockTableRecord
  2
*Paper_Space
340
1D
  0
BLOCK_RECORD
  5
265
330
1
100
AcDbSymbolTableRecord
100
AcDbBlockTableRecord
  2
titleblock
340
0
102
{BLKREFS
331
274
102
}
  0
ENDTAB
  0
ENDSEC
  0
SECTION
  2
BLOCKS
  0
BLOCK
  5
39
330
1E
100
AcDbEntity
  8
0
100
AcDbBlockBegin
  2
*Model_Space
 70
     0
 10
0.0
 20
0.0
 30
0.0
  3
*Model_Space
  1

  0
ENDBLK
  5
3A
330
1E
100
AcDbEntity
  8
0
100
AcDbBlockEnd
  0
BLOCK
  5
37
330
1A
100
AcDbEntity
 67
     1
  8
0
100
AcDbBlockBegin
  2
*Paper_Space
 70
     0
 10
0.0
 20
0.0
 30
0.0
  3
*Paper_Space
  1

  0
ENDBLK
  5
38
330
1A
100
AcDbEntity
 67
     1
  8
0
100
AcDbBlockEnd
  0
BLOCK
  5
271
330
265
100
AcDbEntity
  8
0
100
AcDbBlockBegin
  2
titleblock
 70
     2
 10
0.0
 20
0.0
 30
0.0
  3
titleblock
  1

  0
LWPOLYLINE
  5
266
330
265
100
AcDbEntity
  8
image
100
AcDbPolyline
 90
        4
 70
     1
 43
0.0
 10
0.0
 20
0.0
 10
16.48999999999999
 20
0.0000000000000001
 10
16.48999999999999
 20
10.44
 10
0.0
 20
10.44
  0
ATTDEF
  5
267
330
265
100
AcDbEntity
  8
title
100
AcDbText
 10
0.5055556038023421
 20
0.7842270964783673
 30
0.0
 40
0.2
  1
D
  7
L200
 72
     4
 11
0.6064423705144839
 21
0.8842270964783672
 31
0.0
100
AcDbAttributeDefinition
  3
#
  2
D
 70
     0
  0
ATTDEF
  5
268
330
265
100
AcDbEntity
  8
title
100
AcDbText
 10
1.231442370514484
 20
1.34371230274675
 30
0.0
 40
0.2
  1

  7
L200
100
AcDbAttributeDefinition
  3
DETAIL TITLE TOP LINE
  2
TITLE1
 70
     0
  0
ATTDEF
  5
269
330
265
100
AcDbEntity
  8
title
100
AcDbText
 10
1.231442370514484
 20
0.9842270964783674
 30
0.0
 40
0.2
  1
TITLE
  7
L200
100
AcDbAttributeDefinition
  3
DETAIL TITLE TOP 2ND LINE
  2
TITLE2
 70
     0
  0
ATTDEF
  5
26A
330
265
100
AcDbEntity
  8
title
100
AcDbText
 10
2.713645751168312
 20
0.5927927664583189
 30
0.0
 40
0.2
  1
TITLE2
  7
L200
100
AcDbAttributeDefinition
  3
DETAIL TITLE BOTTOM 1
  2
TITLE3
 70
     0
  0
ATTDEF
  5
26B
330
265
100
AcDbEntity
  8
title
100
AcDbText
 10
2.713645751168312
 20
0.2692560808167741
 30
0.0
 40
0.2
  1

  7
L200
100
AcDbAttributeDefinition
  3
DETAIL TITLE BOTTOM 2
  2
TITLE4
 70
     0
  0
ATTDEF
  5
26C
330
265
100
AcDbEntity
  8
title
 62
     7
100
AcDbText
 10
8.177214829966379
 20
0.9696027915446398
 30
0.0
 40
0.08
  1
-
  7
L80
 72
     2
 11
8.261024353775903
 21
0.9696027915446398
 31
0.0
100
AcDbAttributeDefinition
  3
REVISION DATE
  2
REVISED
 70
     0
  0
ATTDEF
  5
26D
330
265
100
AcDbEntity
  8
title
 62
     7
100
AcDbText
 10
0.2639423705144838
 20
0.0847116480207214
 30
0.0
 40
0.08
  1
-
  7
L80
100
AcDbAttributeDefinition
  3
DWG-NAME
  2
DWG-NAME
 70
     0
  0
LWPOLYLINE
  5
26E
330
265
100
AcDbEntity
  8
title
 62
     3
100
AcDbPolyline
 90
        2
 70
     1
 43
0.03
 10
0.6064423705144839
 20
0.5417270964783675
 42
0.9999999999999998
 10
0.6064423705144839
 20
1.226727096478367
 42
0.9999999999999998
  0
ATTDEF
  5
26F
330
265
100
AcDbEntity
  8
title
 62
     7
100
AcDbText
 10
1.231442370514484
 20
0.7005637793954894
 30
0.0
 40
0.1
  1
N.T.S.
  7
L100
100
AcDbAttributeDefinition
  3
SCALE
  2
SCALE
 70
     0
  0
LWPOLYLINE
  5
270
330
265
100
AcDbEntity
  8
title
 62
     3
100
AcDbPolyline
 90
        2
 70
     0
 43
0.04
 39
0.03
 10
0.9489423705144833
 20
0.8842270964783672
 10
8.261024353775903
 20
0.8842270964783672
  0
ENDBLK
  5
272
330
265
100
AcDbEntity
  8
0
100
AcDbBlockEnd
  0
ENDSEC
  0
SECTION
  2
ENTITIES
  0
LINE
  5
CA
330
1E
100
AcDbEntity
  8
image
100
AcDbLine
 10
2.067988345716988
 20
5.403722304830212
 30
0.0
 11
1.218991517176728
 21
5.403722304830212
 31
0.0
  0
LINE
  5
CB
330
1E
100
AcDbEntity
  8
image
100
AcDbLine
 10
1.614313624465766
 20
5.70531163678037
 30
0.0
 11
1.65112641374286
 21
5.403446764708213
 31
0.0
  0
LINE
  5
CC
330
1E
100
AcDbEntity
  8
image
100
AcDbLine
 10
1.798887830841207
 20
5.691468571302205
 30
0.0
 11
1.87271751339139
 21
5.40999290657967
 31
0.0
  0
LINE
  5
CD
330
1E
100
AcDbEntity
  8
image
100
AcDbLine
 10
1.951161551100944
 20
5.686854216142831
 30
0.0
 11
1.977730999672939
 21
5.403446764708213
 31
0.0
  0
LINE
  5
CE
330
1E
100
AcDbEntity
  8
image
100
AcDbLine
 10
2.04977296122374
 20
5.733200225732716
 30
0.0
 11
1.970317481450789
 21
5.403446764708213
 31
0.0
  0
LINE
  5
CF
330
1E
100
AcDbEntity
  8
image
100
AcDbLine
 10
1.576707258575518
 20
5.645265969459513
 30
0.0
 11
1.772195947863069
 21
5.403446764708213
 31
0.0
  0
LINE
  5
D0
330
1E
100
AcDbEntity
  8
image
100
AcDbLine
 10
1.71972712216684
 20
5.744192007766859
 30
0.0
 11
1.71972712216684
 21
5.403446764708213
 31
0.0
  0
LINE
  5
D1
330
1E
100
AcDbEntity
  8
image
100
AcDbLine
 10
1.884750041695295
 20
5.689233097596112
 30
0.0
 11
1.953150846021578
 21
5.403446764708224
 31
0.0
  0
LINE
  5
D2
330
1E
100
AcDbEntity
  8
image
100
AcDbLine
 10
2.001680567532586
 20
5.686854216142831
 30
0.0
 11
2.028250016104581
 21
5.403446764708213
 31
0.0
  0
LINE
  5
D3
330
1E
100
AcDbEntity
  8
image
100
AcDbLine
 10
1.425416341480965
 20
5.691468571302205
 30
0.0
 11
1.499246024031148
 21
5.40999290657967
 31
0.0
  0
LINE
  5
D4
330
1E
100
AcDbEntity
  8
image
100
AcDbLine
 10
1.577690061740703
 20
5.686854216142831
 30
0.0
 11
1.604259510312696
 21
5.403446764708213
 31
0.0
  0
LINE
  5
D5
330
1E
100
AcDbEntity
  8
image
100
AcDbLine
 10
1.456270912492229
 20
5.711216661664408
 30
0.0
 11
1.430600680565584
 21
5.403446764708224
 31
0.0
  0
LINE
  5
D6
330
1E
100
AcDbEntity
  8
image
100
AcDbLine
 10
1.346255632806601
 20
5.744192007766859
 30
0.0
 11
1.346255632806601
 21
5.403446764708213
 31
0.0
  0
LINE
  5
D7
330
1E
100
AcDbEntity
  8
image
100
AcDbLine
 10
1.511278552335054
 20
5.689233097596112
 30
0.0
 11
1.579679356661338
 21
5.403446764708224
 31
0.0
  0
LINE
  5
D8
330
1E
100
AcDbEntity
  8
image
100
AcDbLine
 10
1.808319807486265
 20
5.722208443698567
 30
0.0
 11
1.656393945063238
 21
5.403446764708213
 31
0.0
  0
LINE
  5
D9
330
1E
100
AcDbEntity
  8
image
100
AcDbLine
 10
1.511535254654313
 20
5.682239860983441
 30
0.0
 11
1.485162934736391
 21
5.403446764708213
 31
0.0
  0
LINE
  5
DA
330
1E
100
AcDbEntity
  8
image
100
AcDbLine
 10
1.225445234772379
 20
5.691468571302205
 30
0.0
 11
1.299274917322562
 21
5.40999290657967
 31
0.0
  0
LINE
  5
DB
330
1E
100
AcDbEntity
  8
image
100
AcDbLine
 10
1.311307445626467
 20
5.689233097596112
 30
0.0
 11
1.379708249952752
 21
5.403446764708224
 31
0.0
  0
LINE
  5
DC
330
1E
100
AcDbEntity
  8
image
100
AcDbLine
 10
1.60834870077768
 20
5.722208443698567
 30
0.0
 11
1.456422838354652
 21
5.403446764708213
 31
0.0
  0
LINE
  5
DD
330
1E
100
AcDbEntity
  8
image
100
AcDbLine
 10
1.328983233895952
 20
5.733200225732716
 30
0.0
 11
1.249527754123001
 21
5.403446764708213
 31
0.0
  0
LINE
  5
DE
330
1E
100
AcDbEntity
  8
image
100
AcDbLine
 10
1.46100156951872
 20
5.722208443698567
 30
0.0
 11
1.309075707095693
 21
5.403446764708213
 31
0.0
  0
LINE
  5
DF
330
1E
100
AcDbEntity
  8
image
100
AcDbLine
 10
3.972669293562648
 20
5.70531163678037
 30
0.0
 11
4.009482082839742
 21
5.403446764708213
 31
0.0
  0
LINE
  5
E0
330
1E
100
AcDbEntity
  8
image
100
AcDbLine
 10
1.402062717015137
 20
5.722208443698567
 30
0.0
 11
1.250136854592108
 21
5.403446764708213
 31
0.0
  0
LINE
  5
E1
330
1E
100
AcDbEntity
  8
image
100
AcDbLine
 10
1.936736976287309
 20
5.682239860983441
 30
0.0
 11
1.910364656369387
 21
5.403446764708213
 31
0.0
  0
LINE
  5
E2
330
1E
100
AcDbEntity
  8
image
100
AcDbLine
 10
1.650646956405374
 20
5.691468571302205
 30
0.0
 11
1.724476638955557
 21
5.40999290657967
 31
0.0
  0
LINE
  5
E3
330
1E
100
AcDbEntity
  8
image
100
AcDbLine
 10
1.901532086787907
 20
5.733200225732716
 30
0.0
 11
1.822076607014954
 21
5.403446764708213
 31
0.0
  0
LINE
  5
E4
330
1E
100
AcDbEntity
  8
image
100
AcDbLine
 10
1.571486247731009
 20
5.744192007766859
 30
0.0
 11
1.571486247731009
 21
5.403446764708213
 31
0.0
  0
LINE
  5
E5
330
1E
100
AcDbEntity
  8
image
100
AcDbLine
 10
1.736509167259463
 20
5.689233097596112
 30
0.0
 11
1.804909971585746
 21
5.403446764708224
 31
0.0
  0
LINE
  5
E6
330
1E
100
AcDbEntity
  8
image
100
AcDbLine
 10
2.033550422410675
 20
5.722208443698567
 30
0.0
 11
1.881624559987646
 21
5.403446764708213
 31
0.0
  0
LINE
  5
E7
330
1E
100
AcDbEntity
  8
image
100
AcDbLine
 10
2.548150813570874
 20
5.357218630412788
 30
0.0
 11
2.548150813570874
 21
5.223313502873635
 31
0.0
  0
LINE
  5
E8
330
1E
100
AcDbEntity
  8
image
100
AcDbLine
 10
2.509677890531444
 20
5.357218630412788
 30
0.0
 11
2.509677890531444
 21
5.223313502873635
 31
0.0
  0
LINE
  5
E9
330
1E
100
AcDbEntity
  8
image
100
AcDbLine
 10
2.337550673361027
 20
5.357218630412788
 30
0.0
 11
2.337550673361027
 21
5.223313502873635
 31
0.0
  0
LINE
  5
EA
330
1E
100
AcDbEntity
  8
image
100
AcDbLine
 10
2.300369662651505
 20
5.357218630412788
 30
0.0
 11
2.300369662651505
 21
5.223313502873635
 31
0.0
  0
LINE
  5
EB
330
1E
100
AcDbEntity
  8
image
100
AcDbLine
 10
2.215426355022171
 20
5.223313502873635
 30
0.0
 11
2.627404140081108
 21
5.223313502873635
 31
0.0
  0
LINE
  5
EC
330
1E
100
AcDbEntity
  8
image
100
AcDbLine
 10
2.14235036713603
 20
5.357218630412788
 30
0.0
 11
2.700480127967246
 21
5.357218630412788
 31
0.0
  0
LINE
  5
ED
330
1E
100
AcDbEntity
  8
image
100
AcDbLine
 10
2.067988345716984
 20
5.403722304830212
 30
0.0
 11
2.774842149386294
 21
5.403722304830212
 31
0.0
  0
LINE
  5
EE
330
1E
100
AcDbEntity
  8
image
100
AcDbLine
 10
2.627404140081108
 20
5.223313502873635
 30
0.0
 11
2.700480127967246
 21
5.223313502873635
 31
0.0
  0
LINE
  5
EF
330
1E
100
AcDbEntity
  8
image
100
AcDbLine
 10
2.700480127967246
 20
5.223313502873635
 30
0.0
 11
2.700480127967246
 21
5.357218630412788
 31
0.0
  0
LINE
  5
F0
330
1E
100
AcDbEntity
  8
image
100
AcDbLine
 10
2.700480127967246
 20
5.357218630412788
 30
0.0
 11
2.774842149386294
 21
5.357218630412788
 31
0.0
  0
LINE
  5
F1
330
1E
100
AcDbEntity
  8
image
100
AcDbLine
 10
2.774842149386294
 20
5.357218630412788
 30
0.0
 11
2.774842149386294
 21
5.403722304830212
 31
0.0
  0
LINE
  5
F2
330
1E
100
AcDbEntity
  8
image
100
AcDbLine
 10
2.774842149386294
 20
5.357218630412777
 30
0.0
 11
2.700480127967246
 21
5.223313502873635
 31
0.0
  0
LINE
  5
F3
330
1E
100
AcDbEntity
  8
image
100
AcDbLine
 10
2.067988345716982
 20
5.357218630412777
 30
0.0
 11
2.14235036713603
 21
5.223313502873635
 31
0.0
  0
LINE
  5
F4
330
1E
100
AcDbEntity
  8
image
100
AcDbLine
 10
2.067988345716984
 20
5.357218630412788
 30
0.0
 11
2.067988345716984
 21
5.403722304830212
 31
0.0
  0
LINE
  5
F5
330
1E
100
AcDbEntity
  8
image
100
AcDbLine
 10
2.14235036713603
 20
5.357218630412788
 30
0.0
 11
2.067988345716984
 21
5.357218630412788
 31
0.0
  0
LINE
  5
F6
330
1E
100
AcDbEntity
  8
image
100
AcDbLine
 10
2.14235036713603
 20
5.223313502873635
 30
0.0
 11
2.14235036713603
 21
5.357218630412788
 31
0.0
  0
LINE
  5
F7
330
1E
100
AcDbEntity
  8
image
100
AcDbLine
 10
2.215426355022171
 20
5.223313502873635
 30
0.0
 11
2.14235036713603
 21
5.223313502873635
 31
0.0
  0
LINE
  5
F8
330
1E
100
AcDbEntity
  8
image
100
AcDbLine
 10
2.627404140081108
 20
5.223313502873635
 30
0.0
 11
2.627404140081108
 21
4.790744156519599
 31
0.0
  0
LINE
  5
F9
330
1E
100
AcDbEntity
  8
image
100
AcDbLine
 10
2.627404140081108
 20
4.790744156519599
 30
0.0
 11
2.627404140081108
 21
3.591500621557042
 31
0.0
  0
LINE
  5
FA
330
1E
100
AcDbEntity
  8
image
100
AcDbLine
 10
2.215426355022171
 20
3.591500621557042
 30
0.0
 11
2.307166043372589
 21
3.467941052104118
 31
0.0
  0
LINE
  5
FB
330
1E
100
AcDbEntity
  8
image
100
AcDbLine
 10
2.307166043372589
 20
3.467941052104118
 30
0.0
 11
2.421415247551639
 21
3.467941052104118
 31
0.0
  0
LINE
  5
FC
330
1E
100
AcDbEntity
  8
image
100
AcDbLine
 10
2.215426355022171
 20
3.591500621557042
 30
0.0
 11
2.627404140081108
 21
3.591500621557042
 31
0.0
  0
LINE
  5
FD
330
1E
100
AcDbEntity
  8
image
100
AcDbLine
 10
2.215426355022171
 20
4.790744156519599
 30
0.0
 11
2.215426355022171
 21
3.591500621557042
 31
0.0
  0
LINE
  5
FE
330
1E
100
AcDbEntity
  8
image
100
AcDbLine
 10
2.215426355022171
 20
5.223313502873635
 30
0.0
 11
2.215426355022171
 21
4.790744156519599
 31
0.0
  0
LINE
  5
FF
330
1E
100
AcDbEntity
  8
image
100
AcDbLine
 10
2.311024422174154
 20
3.467941052104118
 30
0.0
 11
2.311024422174154
 21
3.591500621557042
 31
0.0
  0
LINE
  5
100
330
1E
100
AcDbEntity
  8
image
100
AcDbLine
 10
2.413039983297283
 20
3.591500621557042
 30
0.0
 11
2.413039983297283
 21
3.467941052104118
 31
0.0
  0
LINE
  5
101
330
1E
100
AcDbEntity
  8
image
100
AcDbLine
 10
2.215426355022171
 20
5.190188727875986
 30
0.0
 11
2.627404140081108
 21
5.190188727875986
 31
0.0
  0
LINE
  5
102
330
1E
100
AcDbEntity
  8
image
100
AcDbLine
 10
2.627404140081108
 20
5.171832193620362
 30
0.0
 11
2.215426355022171
 21
5.171832193620362
 31
0.0
  0
LINE
  5
103
330
1E
100
AcDbEntity
  8
image
100
AcDbLine
 10
2.53566445173069
 20
3.467941052104118
 30
0.0
 11
2.421415247551639
 21
3.467941052104118
 31
0.0
  0
LINE
  5
104
330
1E
100
AcDbEntity
  8
image
100
AcDbLine
 10
2.531806072929124
 20
3.467941052104118
 30
0.0
 11
2.531806072929124
 21
3.591500621557042
 31
0.0
  0
LINE
  5
105
330
1E
100
AcDbEntity
  8
image
100
AcDbLine
 10
2.429790511805995
 20
3.591500621557042
 30
0.0
 11
2.429790511805995
 21
3.467941052104118
 31
0.0
  0
LINE
  5
106
330
1E
100
AcDbEntity
  8
image
100
AcDbLine
 10
2.627404140081108
 20
3.591500621557042
 30
0.0
 11
2.53566445173069
 21
3.467941052104118
 31
0.0
  0
CIRCLE
  5
10A
330
1E
100
AcDbEntity
  8
text_bubbles
100
AcDbCircle
 10
4.418220173282479
 20
5.478610189230373
 30
0.0
 40
0.15625
  0
TEXT
  5
10B
330
1E
100
AcDbEntity
  8
text_bubbles
100
AcDbText
 10
4.367624935187241
 20
5.416110189230373
 30
0.0
 40
0.125
  1
1
  7
ROMANS
 72
     4
 11
4.418220173282479
 21
5.478610189230373
 31
0.0
100
AcDbText
  0
CIRCLE
  5
10C
330
1E
100
AcDbEntity
  8
text_bubbles
100
AcDbCircle
 10
4.418220173282479
 20
5.120016349857091
 30
0.0
 40
0.15625
  0
TEXT
  5
10D
330
1E
100
AcDbEntity
  8
text_bubbles
100
AcDbText
 10
4.35869636375867
 20
5.057516349857091
 30
0.0
 40
0.125
  1
2
  7
ROMANS
 72
     4
 11
4.418220173282479
 21
5.120016349857091
 31
0.0
100
AcDbText
  0
CIRCLE
  5
10E
330
1E
100
AcDbEntity
  8
text_bubbles
100
AcDbCircle
 10
4.42683571506445
 20
4.547322539806863
 30
0.0
 40
0.15625
  0
TEXT
  5
10F
330
1E
100
AcDbEntity
  8
text_bubbles
100
AcDbText
 10
4.367311905540641
 20
4.484822539806863
 30
0.0
 40
0.125
  1
3
  7
ROMANS
 72
     4
 11
4.42683571506445
 21
4.547322539806863
 31
0.0
100
AcDbText
  0
CIRCLE
  5
110
330
1E
100
AcDbEntity
  8
text_bubbles
100
AcDbCircle
 10
4.418220173282479
 20
4.125897206350101
 30
0.0
 40
0.15625
  0
TEXT
  5
111
330
1E
100
AcDbEntity
  8
text_bubbles
100
AcDbText
 10
4.355720173282479
 20
4.063397206350101
 30
0.0
 40
0.125
  1
4
  7
ROMANS
 72
     4
 11
4.418220173282479
 21
4.125897206350101
 31
0.0
100
AcDbText
  0
CIRCLE
  5
112
330
1E
100
AcDbEntity
  8
text_bubbles
100
AcDbCircle
 10
4.418220173282479
 20
3.775642058220371
 30
0.0
 40
0.15625
  0
TEXT
  5
113
330
1E
100
AcDbEntity
  8
text_bubbles
100
AcDbText
 10
4.35869636375867
 20
3.713142058220371
 30
0.0
 40
0.125
  1
5
  7
ROMANS
 72
     4
 11
4.418220173282479
 21
3.775642058220371
 31
0.0
100
AcDbText
  0
CIRCLE
  5
114
330
1E
100
AcDbEntity
  8
text_bubbles
100
AcDbCircle
 10
4.418220173282479
 20
3.41762470626266
 30
0.0
 40
0.15625
  0
TEXT
  5
115
330
1E
100
AcDbEntity
  8
text_bubbles
100
AcDbText
 10
4.355720173282479
 20
3.35512470626266
 30
0.0
 40
0.125
  1
6
  7
ROMANS
 72
     4
 11
4.418220173282479
 21
3.41762470626266
 31
0.0
100
AcDbText
  0
CIRCLE
  5
11B
330
1E
100
AcDbEntity
  8
text_bubbles
100
AcDbCircle
 10
3.588249345650492
 20
1.80347095916251
 30
0.0
 40
0.15625
  0
TEXT
  5
11C
330
1E
100
AcDbEntity
  8
text_bubbles
100
AcDbText
 10
3.528725536126683
 20
1.74097095916251
 30
0.0
 40
0.125
  1
3
  7
ROMANS
 72
     4
 11
3.588249345650492
 21
1.80347095916251
 31
0.0
100
AcDbText
  0
CIRCLE
  5
11D
330
1E
100
AcDbEntity
  8
text_bubbles
100
AcDbCircle
 10
4.665544895021538
 20
1.803884257173425
 30
0.0
 40
0.15625
  0
TEXT
  5
11E
330
1E
100
AcDbEntity
  8
text_bubbles
100
AcDbText
 10
4.606021085497729
 20
1.741384257173425
 30
0.0
 40
0.125
  1
7
  7
ROMANS
 72
     4
 11
4.665544895021538
 21
1.803884257173425
 31
0.0
100
AcDbText
  0
CIRCLE
  5
11F
330
1E
100
AcDbEntity
  8
text_bubbles
100
AcDbCircle
 10
2.829549934577273
 20
1.803744500292894
 30
0.0
 40
0.15625
  0
TEXT
  5
120
330
1E
100
AcDbEntity
  8
text_bubbles
100
AcDbText
 10
2.770026125053464
 20
1.741244500292894
 30
0.0
 40
0.125
  1
5
  7
ROMANS
 72
     4
 11
2.829549934577273
 21
1.803744500292894
 31
0.0
100
AcDbText
  0
TEXT
  5
127
330
1E
100
AcDbEntity
  8
text_bubbles
100
AcDbText
 10
0.6563833327298038
 20
3.727274398326072
 30
0.0
 40
0.125
  1
3
  7
ROMANS
 72
     4
 11
0.7159071422536134
 21
3.789774398326072
 31
0.0
100
AcDbText
  0
CIRCLE
  5
128
330
1E
100
AcDbEntity
  8
text_bubbles
100
AcDbCircle
 10
0.7159071422536134
 20
3.789774398326072
 30
0.0
 40
0.15625
  0
TEXT
  5
129
330
1E
100
AcDbEntity
  8
text_bubbles
100
AcDbText
 10
0.6563833327298038
 20
5.012785388808097
 30
0.0
 40
0.125
  1
2
  7
ROMANS
 72
     4
 11
0.7159071422536134
 21
5.075285388808097
 31
0.0
100
AcDbText
  0
CIRCLE
  5
12A
330
1E
100
AcDbEntity
  8
text_bubbles
100
AcDbCircle
 10
0.7159071422536134
 20
5.075285388808097
 30
0.0
 40
0.15625
  0
TEXT
  5
12D
330
1E
100
AcDbEntity
  8
text_bubbles
100
AcDbText
 10
4.252459832317176
 20
1.74125502874357
 30
0.0
 40
0.125
  1
5
  7
ROMANS
 72
     4
 11
4.311983641840986
 21
1.80375502874357
 31
0.0
100
AcDbText
  0
CIRCLE
  5
12E
330
1E
100
AcDbEntity
  8
text_bubbles
100
AcDbCircle
 10
4.311983641840986
 20
1.80375502874357
 30
0.0
 40
0.15625
  0
CIRCLE
  5
12F
330
1E
100
AcDbEntity
  8
text_bubbles
100
AcDbCircle
 10
0.7159071422536134
 20
5.541069538776902
 30
0.0
 40
0.15625
  0
TEXT
  5
130
330
1E
100
AcDbEntity
  8
text_bubbles
100
AcDbText
 10
0.6653119041583752
 20
5.478569538776902
 30
0.0
 40
0.125
  1
1
  7
ROMANS
 72
     4
 11
0.7159071422536134
 21
5.541069538776902
 31
0.0
100
AcDbText
  0
TEXT
  5
133
330
1E
100
AcDbEntity
  8
text_leaders
100
AcDbText
 10
4.760000000000001
 20
5.564249207376819
 30
0.0
 40
0.125
  1
FINISH GRADE/TOP OF MULCH
  7
ROMANS
100
AcDbText
  0
TEXT
  5
134
330
1E
100
AcDbEntity
  8
text_leaders
100
AcDbText
 10
4.760000000000001
 20
4.896335977253028
 30
0.0
 40
0.125
  1
  RAIN BIRD 1804
  7
ROMANS
100
AcDbText
  0
TEXT
  5
135
330
1E
100
AcDbEntity
  8
text_leaders
100
AcDbText
 10
4.760000000000001
 20
5.081541166194861
 30
0.0
 40
0.125
  1
POP-UP SPRAY SPRINKLER:
  7
ROMANS
100
AcDbText
  0
LINE
  5
141
330
1E
100
AcDbEntity
  8
image
100
AcDbLine
 10
2.337697083802058
 20
3.42115639413445
 30
0.0
 11
2.504530234049994
 21
3.42115639413445
 31
0.0
  0
LWPOLYLINE
  5
142
330
1E
100
AcDbEntity
  8
image
100
AcDbPolyline
 90
        2
 70
     0
 43
0.0
 10
2.349727560073423
 20
3.440479473232284
 10
2.492216032321856
 20
3.440479473232284
  0
LINE
  5
146
330
1E
100
AcDbEntity
  8
image
100
AcDbLine
 10
2.504530234049993
 20
3.467941052104118
 30
0.0
 11
2.504530234049994
 21
3.100097288830757
 31
0.0
  0
LINE
  5
147
330
1E
100
AcDbEntity
  8
image
100
AcDbLine
 10
2.337697083802058
 20
3.467941052104118
 30
0.0
 11
2.337697083802058
 21
3.100097288830757
 31
0.0
  0
LWPOLYLINE
  5
148
330
1E
100
AcDbEntity
  8
image
100
AcDbPolyline
 90
        2
 70
     0
 43
0.0
 10
2.699759896723575
 20
2.954575019455444
 10
2.670247000353834
 20
2.81517647688214
  0
LINE
  5
14C
330
1E
100
AcDbEntity
  8
image
100
AcDbLine
 10
2.721105390742197
 20
2.962248232864808
 30
0.0
 11
2.686550107801691
 21
2.799032938107999
 31
0.0
  0
LINE
  5
14D
330
1E
100
AcDbEntity
  8
image
100
AcDbLine
 10
3.686527083209988
 20
2.757341164912409
 30
0.0
 11
3.651971800269482
 21
2.5941258701556
 31
0.0
  0
LWPOLYLINE
  5
14E
330
1E
100
AcDbEntity
  8
image
100
AcDbPolyline
 90
        2
 70
     0
 43
0.0
 10
3.70331790327595
 20
2.741453834848466
 10
3.673805006906208
 20
2.602055292275162
  0
LWPOLYLINE
  5
152
330
1E
100
AcDbEntity
  8
image
100
AcDbPolyline
 90
        2
 70
     0
 43
0.0
 10
2.349727560073423
 20
3.119333914776232
 10
2.492216032321856
 20
3.119333914776232
  0
LINE
  5
156
330
1E
100
AcDbEntity
  8
image
100
AcDbLine
 10
2.337697083802058
 20
3.139884986135297
 30
0.0
 11
2.504530234049994
 21
3.139884986135297
 31
0.0
  0
LWPOLYLINE
  5
157
330
1E
100
AcDbEntity
  8
image
100
AcDbPolyline
 90
        4
 70
     0
 43
0.0
 10
1.796597316440745
 20
2.711888063958301
 42
0.6332430429610296
 10
1.796597316440745
 20
2.612410852502446
 42
-0.6332430429610812
 10
1.796597316440745
 20
2.512933641046591
 42
-0.6134111328532366
 10
1.796597316440747
 20
2.612410852502445
 42
-0.6134111328532366
  0
LWPOLYLINE
  5
15D
330
1E
100
AcDbEntity
  8
image
100
AcDbPolyline
 90
        4
 70
     0
 43
0.0
 10
4.601898187686517
 20
2.713321798670927
 42
-0.6332430429610296
 10
4.601898187686517
 20
2.613844587215072
 42
0.6332430429610812
 10
4.601898187686517
 20
2.514367375759217
 42
0.6134111328532366
 10
4.601898187686515
 20
2.613844587215071
 42
0.6134111328532366
  0
ARC
  5
163
330
1E
100
AcDbEntity
  8
image
100
AcDbCircle
 10
2.421494841468657
 20
2.943592953724656
 30
0.0
 40
0.0983684976157295
100
AcDbArc
 50
179.379115872957
 51
0.2371380430744057
  0
LINE
  5
164
330
1E
100
AcDbEntity
  8
image
100
AcDbLine
 10
3.690194552909176
 20
2.585857722177621
 30
0.0
 11
2.647512933309796
 21
2.806610063040076
 31
0.0
  0
LINE
  5
165
330
1E
100
AcDbEntity
  8
image
100
AcDbLine
 10
3.725078007954081
 20
2.749003192803624
 30
0.0
 11
2.682396388354701
 21
2.969755533666079
 31
0.0
  0
LINE
  5
166
330
1E
100
AcDbEntity
  8
image
100
AcDbLine
 10
2.323943845252239
 20
3.100097288830756
 30
0.0
 11
2.519551108419216
 21
3.100097288830756
 31
0.0
  0
LINE
  5
167
330
1E
100
AcDbEntity
  8
image
100
AcDbLine
 10
2.323943845252239
 20
3.100097288830756
 30
0.0
 11
2.323126343852928
 21
2.943592953724656
 31
0.0
  0
LINE
  5
168
330
1E
100
AcDbEntity
  8
image
100
AcDbLine
 10
2.519551108419216
 20
3.100097288830756
 30
0.0
 11
2.519863339084386
 21
2.943592953724656
 31
0.0
  0
LINE
  5
169
330
1E
100
AcDbEntity
  8
image
100
AcDbLine
 10
4.225373934337723
 20
2.737838080659785
 30
0.0
 11
4.225373934337721
 21
2.490768401263157
 31
0.0
  0
LINE
  5
16A
330
1E
100
AcDbEntity
  8
image
100
AcDbLine
 10
3.726814776526451
 20
2.758220127188914
 30
0.0
 11
3.967378292427719
 21
2.707155584202828
 31
0.0
  0
LINE
  5
16B
330
1E
100
AcDbEntity
  8
image
100
AcDbLine
 10
3.68788707440693
 20
2.576160228749889
 30
0.0
 11
3.928374467798901
 21
2.524739670495556
 31
0.0
  0
LINE
  5
16C
330
1E
100
AcDbEntity
  8
image
100
AcDbLine
 10
3.967378292427719
 20
2.707155584202828
 30
0.0
 11
3.978868390765565
 21
2.685467632378403
 31
0.0
  0
LINE
  5
16D
330
1E
100
AcDbEntity
  8
image
100
AcDbLine
 10
3.928374467798901
 20
2.524739670495556
 30
0.0
 11
3.948944290924199
 21
2.537344961646708
 31
0.0
  0
LINE
  5
16E
330
1E
100
AcDbEntity
  8
image
100
AcDbLine
 10
3.948944290924199
 20
2.537344961646708
 30
0.0
 11
3.978868390765565
 21
2.685467632378403
 31
0.0
  0
ARC
  5
16F
330
1E
100
AcDbEntity
  8
image
100
AcDbCircle
 10
3.945701560911047
 20
2.615084070641933
 30
0.0
 40
0.077806711569825
100
AcDbArc
 50
272.3885930691139
 51
64.76879059918148
  0
LINE
  5
170
330
1E
100
AcDbEntity
  8
image
100
AcDbLine
 10
2.645544585520326
 20
2.797255255525233
 30
0.0
 11
2.416333744974473
 21
2.845359942948466
 31
0.0
  0
LINE
  5
171
330
1E
100
AcDbEntity
  8
image
100
AcDbLine
 10
2.683878369188098
 20
2.979441132150306
 30
0.0
 11
2.519728796415503
 21
3.014233734847366
 31
0.0
  0
LINE
  5
172
330
1E
100
AcDbEntity
  8
image
100
AcDbLine
 10
2.683878369188098
 20
2.979441132150306
 30
0.0
 11
2.645544585520326
 21
2.797255255525234
 31
0.0
  0
LINE
  5
173
330
1E
100
AcDbEntity
  8
image
100
AcDbLine
 10
3.726814776526451
 20
2.758220127188914
 30
0.0
 11
3.68788707440693
 21
2.57616022874989
 31
0.0
  0
LINE
  5
174
330
1E
100
AcDbEntity
  8
image
100
AcDbLine
 10
4.225373934337723
 20
2.490768401263157
 30
0.0
 11
3.664808887494137
 21
2.490768401263157
 31
0.0
  0
LINE
  5
175
330
1E
100
AcDbEntity
  8
image
100
AcDbLine
 10
3.664808887494137
 20
2.59123227272055
 30
0.0
 11
3.664808887494137
 21
2.490768401263158
 31
0.0
  0
LINE
  5
176
330
1E
100
AcDbEntity
  8
image
100
AcDbLine
 10
3.967378292427721
 20
2.707155584202829
 30
0.0
 11
3.928374467798901
 21
2.524739670495556
 31
0.0
  0
LINE
  5
177
330
1E
100
AcDbEntity
  8
image
100
AcDbLine
 10
4.601898187686517
 20
2.713321798670927
 30
0.0
 11
4.225373934337723
 21
2.713321798670927
 31
0.0
  0
LINE
  5
178
330
1E
100
AcDbEntity
  8
image
100
AcDbLine
 10
4.601898187686517
 20
2.514367375759217
 30
0.0
 11
4.225373934337721
 21
2.514367375759217
 31
0.0
  0
LINE
  5
179
330
1E
100
AcDbEntity
  8
image
100
AcDbLine
 10
3.664808887494137
 20
2.512933641046591
 30
0.0
 11
1.796597316440745
 21
2.512933641046591
 31
0.0
  0
LINE
  5
17A
330
1E
100
AcDbEntity
  8
image
100
AcDbLine
 10
3.094914247508372
 20
2.711888063958302
 30
0.0
 11
1.796597316440745
 21
2.711888063958301
 31
0.0
  0
LINE
  5
17B
330
1E
100
AcDbEntity
  8
image
100
AcDbLine
 10
3.822833980607967
 20
2.737838080659786
 30
0.0
 11
4.225373934337723
 21
2.737838080659787
 31
0.0
  0
CIRCLE
  5
17C
330
1E
100
AcDbEntity
  8
text_bubbles
100
AcDbCircle
 10
3.935796563451078
 20
1.80375502874357
 30
0.0
 40
0.15625
  0
TEXT
  5
17D
330
1E
100
AcDbEntity
  8
text_bubbles
100
AcDbText
 10
3.873296563451078
 20
1.74125502874357
 30
0.0
 40
0.125
  1
6
  7
ROMANS
 72
     4
 11
3.935796563451078
 21
1.80375502874357
 31
0.0
100
AcDbText
  0
CIRCLE
  5
182
330
1E
100
AcDbEntity
  8
text_bubbles
100
AcDbCircle
 10
0.7159071422536134
 20
3.449657701191062
 30
0.0
 40
0.15625
  0
TEXT
  5
183
330
1E
100
AcDbEntity
  8
text_bubbles
100
AcDbText
 10
0.6534071422536134
 20
3.387157701191062
 30
0.0
 40
0.125
  1
4
  7
ROMANS
 72
     4
 11
0.7159071422536134
 21
3.449657701191062
 31
0.0
100
AcDbText
  0
TEXT
  5
188
330
1E
100
AcDbEntity
  8
text_leaders
100
AcDbText
 10
4.760000000000001
 20
1.805191905946225
 30
0.0
 40
0.125
  1
PVC SCH 40 TEE OR ELL
  7
ROMANS
100
AcDbText
  0
TEXT
  5
189
330
1E
100
AcDbEntity
  8
text_leaders
100
AcDbText
 10
4.760000000000001
 20
2.163833783875351
 30
0.0
 40
0.125
  1
PVC LATERAL PIPE
  7
ROMANS
100
AcDbText
  0
TEXT
  5
18C
330
1E
100
AcDbEntity
  8
text_leaders
100
AcDbText
 10
4.760000000000001
 20
2.804101118216927
 30
0.0
 40
0.125
  1
PVC SCH 40 STREET ELL
  7
ROMANS
100
AcDbText
  0
TEXT
  5
18E
330
1E
100
AcDbEntity
  8
text_leaders
100
AcDbText
 10
4.760000000000001
 20
3.077645063401954
 30
0.0
 40
0.125
  1
  (LENGTH AS REQUIRED)
  7
ROMANS
100
AcDbText
  0
TEXT
  5
18F
330
1E
100
AcDbEntity
  8
text_leaders
100
AcDbText
 10
4.760000000000001
 20
3.272149060409521
 30
0.0
 40
0.125
  1
PVC SCH 80 NIPPLE
  7
ROMANS
100
AcDbText
  0
TEXT
  5
193
330
1E
100
AcDbEntity
  8
text_leaders
100
AcDbText
 10
4.760000000000001
 20
4.110260816241147
 30
0.0
 40
0.125
  1
  (LENGTH AS REQUIRED)
  7
ROMANS
100
AcDbText
  0
TEXT
  5
198
330
1E
100
AcDbEntity
  8
text_leaders
100
AcDbText
 10
4.760000000000001
 20
4.290216804053102
 30
0.0
 40
0.125
  1
PVC SCH 80 NIPPLE
  7
ROMANS
100
AcDbText
  0
TEXT
  5
199
330
1E
100
AcDbEntity
  8
text_leaders
100
AcDbText
 10
4.760000000000001
 20
3.900616991880548
 30
0.0
 40
0.125
  1
PVC SCH 40 ELL
  7
ROMANS
100
AcDbText
  0
TEXT
  5
19A
330
1E
100
AcDbEntity
  8
text_leaders
100
AcDbText
 10
4.760000000000001
 20
3.700195773792132
 30
0.0
 40
0.125
  1
PVC SCH 40 STREET ELL
  7
ROMANS
100
AcDbText
  0
TEXT
  5
1A0
330
1E
100
AcDbEntity
  8
text_bubbles
100
AcDbText
 10
4.760000000000001
 20
2.996564498667342
 30
0.0
 40
0.125
  1
PVC LATERAL PIPE
  7
ROMANS
100
AcDbText
  0
TEXT
  5
1A1
330
1E
100
AcDbEntity
  8
text_bubbles
100
AcDbText
 10
4.760000000000001
 20
3.711250611753629
 30
0.0
 40
0.125
  1
PVC SCH 40 STREET ELL
  7
ROMANS
100
AcDbText
  0
TEXT
  5
1A2
330
1E
100
AcDbEntity
  8
text_bubbles
100
AcDbText
 10
4.760000000000001
 20
4.06
 30
0.0
 40
0.125
  1
PVC SCH 40 ELL
  7
ROMANS
100
AcDbText
  0
TEXT
  5
1A3
330
1E
100
AcDbEntity
  8
text_bubbles
100
AcDbText
 10
4.760000000000001
 20
4.288715363249814
 30
0.0
 40
0.125
  1
  (LENGTH AS REQUIRED)
  7
ROMANS
100
AcDbText
  0
TEXT
  5
1A4
330
1E
100
AcDbEntity
  8
text_bubbles
100
AcDbText
 10
4.760000000000001
 20
4.48
 30
0.0
 40
0.125
  1
PVC SCH 80 NIPPLE
  7
ROMANS
100
AcDbText
  0
TEXT
  5
1A5
330
1E
100
AcDbEntity
  8
text_bubbles
100
AcDbText
 10
4.760000000000001
 20
5.405936745776008
 30
0.0
 40
0.125
  1
FINISH GRADE/TOP OF MULCH
  7
ROMANS
100
AcDbText
  0
TEXT
  5
1A6
330
1E
100
AcDbEntity
  8
text_bubbles
100
AcDbText
 10
4.760000000000001
 20
3.345313886913712
 30
0.0
 40
0.125
  1
PVC SCH 40 TEE OR ELL
  7
ROMANS
100
AcDbText
  0
TEXT
  5
1A7
330
1E
100
AcDbEntity
  8
text_bubbles
100
AcDbText
 10
4.760000000000001
 20
4.888585618148939
 30
0.0
 40
0.125
  1
  RAIN BIRD 1804
  7
ROMANS
100
AcDbText
  0
TEXT
  5
1A8
330
1E
100
AcDbEntity
  8
text_bubbles
100
AcDbText
 10
4.760000000000001
 20
5.04
 30
0.0
 40
0.125
  1
POP-UP SPRAY SPRINKLER:
  7
ROMANS
100
AcDbText
  0
TEXT
  5
1A9
330
1E
100
AcDbEntity
  8
text_bubbles
100
AcDbText
 10
4.35869636375867
 20
3.006145403462033
 30
0.0
 40
0.125
  1
7
  7
ROMANS
 72
     4
 11
4.418220173282479
 21
3.068645403462033
 31
0.0
100
AcDbText
  0
CIRCLE
  5
1AA
330
1E
100
AcDbEntity
  8
text_bubbles
100
AcDbCircle
 10
4.418220173282479
 20
3.068645403462033
 30
0.0
 40
0.15625
  0
LWPOLYLINE
  5
1D4
330
1E
100
AcDbEntity
  8
instruct-callout
100
AcDbPolyline
 90
        4
 70
     1
 43
0.0
 10
11.99026189804058
 20
10.00891743873689
 10
11.99026189804058
 20
8.577431417394652
 10
16.42195868942265
 20
8.577431417394652
 10
16.42195868942265
 20
10.00891743873689
  0
TEXT
  5
1DA
330
1E
100
AcDbEntity
  8
instruct-callout
100
AcDbText
 10
12.32085431798261
 20
10.0660329294541
 30
0.0
 40
0.10000000149
  1
CHOOSING EQUIPMENT CALLOUT METHOD
  7
ROMANS
100
AcDbText
  0
TEXT
  5
1DB
330
1E
100
AcDbEntity
  8
instruct-callout
100
AcDbText
 10
12.08810454893589
 20
9.691921865979212
 30
0.0
 40
0.10000000149
  1
CHOOSE EITHER LEADERS OR BUBBLE CALLOUTS
  7
ROMANS
100
AcDbText
  0
TEXT
  5
1DC
330
1E
100
AcDbEntity
  8
instruct-callout
100
AcDbText
 10
12.08810454893589
 20
9.530021822492212
 30
0.0
 40
0.10000000149
  1
BY TURNING ON THE APPROPRIATE LAYER:
  7
ROMANS
100
AcDbText
  0
TEXT
  5
1DD
330
1E
100
AcDbEntity
  8
instruct-callout
100
AcDbText
 10
12.52444828119871
 20
9.193004528017036
 30
0.0
 40
0.10000000149
  1
TEXT_LEADERS         TEXT_BUBBLES
  7
ROMANS
100
AcDbText
  0
LINE
  5
1DE
330
1E
100
AcDbEntity
  8
instruct-callout
100
AcDbLine
 10
12.8315729331555
 20
8.940533274315422
 30
0.0
 11
12.96784147901413
 21
8.94053327431542
 31
0.0
  0
LINE
  5
1DF
330
1E
100
AcDbEntity
  8
instruct-callout
100
AcDbLine
 10
12.54380251867718
 20
8.820781572509138
 30
0.0
 11
12.8315729331555
 21
8.940533274315422
 31
0.0
  0
SOLID
  5
1E0
330
1E
100
AcDbEntity
  8
instruct-callout
100
AcDbTrace
 10
12.62918851621751
 20
8.823819898371027
 30
0.0
 11
12.60613663132577
 21
8.879214939691873
 31
0.0
 12
12.4514774498091
 22
8.782361764356251
 32
0.0
 13
12.4514774498091
 23
8.782361764356251
 33
0.0
  0
TEXT
  5
1E1
330
1E
100
AcDbEntity
  8
instruct-callout
100
AcDbText
 10
12.99381621603125
 20
8.875782664921521
 30
0.0
 40
0.10000000149
  1
ITEM 1
  7
ROMANS
100
AcDbText
  0
SOLID
  5
1E2
330
1E
100
AcDbEntity
  8
instruct-callout
100
AcDbTrace
 10
14.77165784426693
 20
8.837245932922426
 30
0.0
 11
14.78746013792127
 21
8.779364264708197
 31
0.0
 12
14.60591398645141
 22
8.760898217852295
 32
0.0
 13
14.60591398645141
 23
8.760898217852295
 33
0.0
  0
LINE
  5
1E3
330
1E
100
AcDbEntity
  8
instruct-callout
100
AcDbLine
 10
14.70238343347513
 20
8.787235373942861
 30
0.0
 11
14.95826485039997
 21
8.857093645407479
 31
0.0
  0
TEXT
  5
1E4
330
1E
100
AcDbEntity
  8
instruct-callout
100
AcDbText
 10
15.03837546870342
 20
8.840015090520683
 30
0.0
 40
0.1
  1
1
  7
ROMANS
 72
     4
 11
15.07885165917961
 21
8.890015090520684
 31
0.0
100
AcDbText
  0
CIRCLE
  5
1E5
330
1E
100
AcDbEntity
  8
instruct-callout
100
AcDbCircle
 10
15.07885165917961
 20
8.890015090520684
 30
0.0
 40
0.125
  0
TEXT
  5
1E6
330
1E
100
AcDbEntity
  8
instruct-callout
100
AcDbText
 10
12.02928924525768
 20
8.226203360659241
 30
0.0
 40
0.10000000149
  1
LAYER "INSTRUCT-CALLOUT".
  7
ROMANS
100
AcDbText
  0
TEXT
  5
1E7
330
1E
100
AcDbEntity
  8
instruct-callout
100
AcDbText
 10
12.02928924525768
 20
8.388103404147241
 30
0.0
 40
0.10000000149
  1
TO TURN OFF THIS INSTRUCTION BOX, TURN OFF
  7
ROMANS
100
AcDbText
  0
LINE
  5
1E8
330
1E
100
AcDbEntity
  8
image
100
AcDbLine
 10
4.006316214713946
 20
5.403722304830212
 30
0.0
 11
2.774842149386292
 21
5.403722304830212
 31
0.0
  0
LINE
  5
1E9
330
1E
100
AcDbEntity
  8
image
100
AcDbLine
 10
3.552641493462724
 20
5.70531163678037
 30
0.0
 11
3.589454282739819
 21
5.403446764708213
 31
0.0
  0
LINE
  5
1EA
330
1E
100
AcDbEntity
  8
image
100
AcDbLine
 10
3.737215699838165
 20
5.691468571302205
 30
0.0
 11
3.811045382388348
 21
5.40999290657967
 31
0.0
  0
LINE
  5
1EB
330
1E
100
AcDbEntity
  8
image
100
AcDbLine
 10
3.889489420097902
 20
5.686854216142831
 30
0.0
 11
3.916058868669897
 21
5.403446764708213
 31
0.0
  0
LINE
  5
1EC
330
1E
100
AcDbEntity
  8
image
100
AcDbLine
 10
3.988100830220698
 20
5.733200225732716
 30
0.0
 11
3.908645350447747
 21
5.403446764708213
 31
0.0
  0
LINE
  5
1ED
330
1E
100
AcDbEntity
  8
image
100
AcDbLine
 10
3.515035127572476
 20
5.645265969459513
 30
0.0
 11
3.710523816860027
 21
5.403446764708213
 31
0.0
  0
LINE
  5
1EE
330
1E
100
AcDbEntity
  8
image
100
AcDbLine
 10
3.658054991163799
 20
5.744192007766859
 30
0.0
 11
3.658054991163799
 21
5.403446764708213
 31
0.0
  0
LINE
  5
1EF
330
1E
100
AcDbEntity
  8
image
100
AcDbLine
 10
3.823077910692253
 20
5.689233097596112
 30
0.0
 11
3.891478715018537
 21
5.403446764708224
 31
0.0
  0
LINE
  5
1F0
330
1E
100
AcDbEntity
  8
image
100
AcDbLine
 10
3.940008436529544
 20
5.686854216142831
 30
0.0
 11
3.966577885101539
 21
5.403446764708213
 31
0.0
  0
LINE
  5
1F1
330
1E
100
AcDbEntity
  8
image
100
AcDbLine
 10
3.363744210477924
 20
5.691468571302205
 30
0.0
 11
3.437573893028107
 21
5.40999290657967
 31
0.0
  0
LINE
  5
1F2
330
1E
100
AcDbEntity
  8
image
100
AcDbLine
 10
3.516017930737661
 20
5.686854216142831
 30
0.0
 11
3.542587379309655
 21
5.403446764708213
 31
0.0
  0
LINE
  5
1F3
330
1E
100
AcDbEntity
  8
image
100
AcDbLine
 10
3.394598781489188
 20
5.711216661664408
 30
0.0
 11
3.368928549562543
 21
5.403446764708224
 31
0.0
  0
LINE
  5
1F4
330
1E
100
AcDbEntity
  8
image
100
AcDbLine
 10
3.284583501803559
 20
5.744192007766859
 30
0.0
 11
3.284583501803559
 21
5.403446764708213
 31
0.0
  0
LINE
  5
1F5
330
1E
100
AcDbEntity
  8
image
100
AcDbLine
 10
3.449606421332012
 20
5.689233097596112
 30
0.0
 11
3.518007225658297
 21
5.403446764708224
 31
0.0
  0
LINE
  5
1F6
330
1E
100
AcDbEntity
  8
image
100
AcDbLine
 10
3.746647676483224
 20
5.722208443698567
 30
0.0
 11
3.594721814060197
 21
5.403446764708213
 31
0.0
  0
LINE
  5
1F7
330
1E
100
AcDbEntity
  8
image
100
AcDbLine
 10
3.449863123651272
 20
5.682239860983441
 30
0.0
 11
3.423490803733349
 21
5.403446764708213
 31
0.0
  0
LINE
  5
1F8
330
1E
100
AcDbEntity
  8
image
100
AcDbLine
 10
3.163773103769337
 20
5.691468571302205
 30
0.0
 11
3.23760278631952
 21
5.40999290657967
 31
0.0
  0
LINE
  5
1F9
330
1E
100
AcDbEntity
  8
image
100
AcDbLine
 10
3.084612395094973
 20
5.744192007766859
 30
0.0
 11
3.084612395094973
 21
5.403446764708213
 31
0.0
  0
LINE
  5
1FA
330
1E
100
AcDbEntity
  8
image
100
AcDbLine
 10
3.249635314623426
 20
5.689233097596112
 30
0.0
 11
3.31803611894971
 21
5.403446764708224
 31
0.0
  0
LINE
  5
1FB
330
1E
100
AcDbEntity
  8
image
100
AcDbLine
 10
3.546676569774639
 20
5.722208443698567
 30
0.0
 11
3.39475070735161
 21
5.403446764708213
 31
0.0
  0
LINE
  5
1FC
330
1E
100
AcDbEntity
  8
image
100
AcDbLine
 10
2.831851766134938
 20
5.70531163678037
 30
0.0
 11
2.868664555412033
 21
5.403446764708213
 31
0.0
  0
LINE
  5
1FD
330
1E
100
AcDbEntity
  8
image
100
AcDbLine
 10
3.016425972510379
 20
5.691468571302205
 30
0.0
 11
3.090255655060562
 21
5.40999290657967
 31
0.0
  0
LINE
  5
1FE
330
1E
100
AcDbEntity
  8
image
100
AcDbLine
 10
3.26731110289291
 20
5.733200225732716
 30
0.0
 11
3.187855623119959
 21
5.403446764708213
 31
0.0
  0
LINE
  5
1FF
330
1E
100
AcDbEntity
  8
image
100
AcDbLine
 10
3.047280543521643
 20
5.711216661664408
 30
0.0
 11
3.021610311594998
 21
5.403446764708224
 31
0.0
  0
LINE
  5
200
330
1E
100
AcDbEntity
  8
image
100
AcDbLine
 10
2.79424540024469
 20
5.645265969459513
 30
0.0
 11
2.989734089532241
 21
5.403446764708213
 31
0.0
  0
LINE
  5
201
330
1E
100
AcDbEntity
  8
image
100
AcDbLine
 10
2.937265263836014
 20
5.744192007766859
 30
0.0
 11
2.937265263836014
 21
5.403446764708213
 31
0.0
  0
LINE
  5
202
330
1E
100
AcDbEntity
  8
image
100
AcDbLine
 10
3.102288183364467
 20
5.689233097596112
 30
0.0
 11
3.170688987690752
 21
5.403446764708224
 31
0.0
  0
LINE
  5
203
330
1E
100
AcDbEntity
  8
image
100
AcDbLine
 10
3.399329438515679
 20
5.722208443698567
 30
0.0
 11
3.247403576092652
 21
5.403446764708213
 31
0.0
  0
LINE
  5
204
330
1E
100
AcDbEntity
  8
image
100
AcDbLine
 10
2.906729213253552
 20
5.663782440345897
 30
0.0
 11
2.978111575928401
 21
5.403446764708213
 31
0.0
  0
LINE
  5
205
330
1E
100
AcDbEntity
  8
image
100
AcDbLine
 10
2.772912913631356
 20
5.70531163678037
 30
0.0
 11
2.809725702908449
 21
5.403446764708213
 31
0.0
  0
LINE
  5
206
330
1E
100
AcDbEntity
  8
image
100
AcDbLine
 10
3.109760840266533
 20
5.686854216142831
 30
0.0
 11
3.136330288838526
 21
5.403446764708213
 31
0.0
  0
LINE
  5
207
330
1E
100
AcDbEntity
  8
image
100
AcDbLine
 10
3.208372250389329
 20
5.733200225732716
 30
0.0
 11
3.128916770616376
 21
5.403446764708213
 31
0.0
  0
LINE
  5
208
330
1E
100
AcDbEntity
  8
image
100
AcDbLine
 10
2.988341691018059
 20
5.711216661664408
 30
0.0
 11
2.962671459091414
 21
5.403446764708224
 31
0.0
  0
LINE
  5
209
330
1E
100
AcDbEntity
  8
image
100
AcDbLine
 10
2.878326411332429
 20
5.744192007766859
 30
0.0
 11
2.878326411332429
 21
5.403446764708213
 31
0.0
  0
LINE
  5
20A
330
1E
100
AcDbEntity
  8
image
100
AcDbLine
 10
3.340390586012095
 20
5.722208443698567
 30
0.0
 11
3.188464723589067
 21
5.403446764708213
 31
0.0
  0
LINE
  5
20B
330
1E
100
AcDbEntity
  8
image
100
AcDbLine
 10
3.875064845284268
 20
5.682239860983441
 30
0.0
 11
3.848692525366345
 21
5.403446764708213
 31
0.0
  0
LINE
  5
20C
330
1E
100
AcDbEntity
  8
image
100
AcDbLine
 10
3.588974825402332
 20
5.691468571302205
 30
0.0
 11
3.662804507952515
 21
5.40999290657967
 31
0.0
  0
LINE
  5
20D
330
1E
100
AcDbEntity
  8
image
100
AcDbLine
 10
3.839859955784865
 20
5.733200225732716
 30
0.0
 11
3.760404476011913
 21
5.403446764708213
 31
0.0
  0
LINE
  5
20E
330
1E
100
AcDbEntity
  8
image
100
AcDbLine
 10
3.509814116727967
 20
5.744192007766859
 30
0.0
 11
3.509814116727967
 21
5.403446764708213
 31
0.0
  0
LINE
  5
20F
330
1E
100
AcDbEntity
  8
image
100
AcDbLine
 10
3.674837036256421
 20
5.689233097596112
 30
0.0
 11
3.743237840582705
 21
5.403446764708224
 31
0.0
  0
LINE
  5
210
330
1E
100
AcDbEntity
  8
image
100
AcDbLine
 10
3.971878291407633
 20
5.722208443698567
 30
0.0
 11
3.819952428984605
 21
5.403446764708213
 31
0.0
  0
HATCH
  5
23B
330
1E
100
AcDbEntity
  8
image
100
AcDbHatch
 10
0.0
 20
0.0
 30
0.0
210
0.0
220
0.0
230
1.0
  2
EARTH
 70
     0
 71
     0
 91
        2
 92
        7
 72
     0
 73
     1
 93
       12
 10
2.215426355022171
 20
5.223313502873635
 10
2.142350367136029
 20
5.223313502873635
 10
2.067988345716984
 20
5.357218630412775
 10
2.067988345716984
 20
5.403722304830213
 10
1.384930535582095
 20
5.403722304830212
 10
1.502408203169483
 20
5.235932007834456
 10
1.567125731822293
 20
5.130943909002489
 10
1.659047991693691
 20
5.016040022707315
 10
1.760493732344668
 20
4.905997033714548
 10
1.875871438569384
 20
4.822703134332931
 10
2.09518947400835
 20
4.810479513764696
 10
2.215426355022171
 20
4.796995772139444
 97
        0
 92
        7
 72
     0
 73
     1
 93
       13
 10
3.284380594970638
 20
5.151142497303124
 10
3.376703463833696
 20
5.22171499539472
 10
3.452700331962805
 20
5.360909860746422
 10
3.478339829239475
 20
5.403722304830212
 10
2.774842149386294
 20
5.403722304830212
 10
2.774842149386294
 20
5.357218630412777
 10
2.700480127967246
 20
5.223313502873635
 10
2.627404140081108
 20
5.223313502873635
 10
2.627404140081108
 20
4.790744156519599
 10
2.789363461796343
 20
4.825830991613599
 10
2.921067554922057
 20
4.844397999749467
 10
3.011172969886145
 20
4.908422979403181
 10
3.142124768165825
 20
5.003745351103199
 97
        0
 75
     0
 76
     1
 52
45.0
 41
0.65
 77
     0
 78
     6
 53
45.0
 43
0.0
 44
0.0
 45
0.0
 46
0.229809703885628
 79
     2
 49
0.1625
 49
-0.1625
 53
45.0
 43
-0.0430893194785553
 44
0.0430893194785553
 45
0.0
 46
0.229809703885628
 79
     2
 49
0.1625
 49
-0.1625
 53
45.0
 43
-0.0861786389571105
 44
0.0861786389571105
 45
0.0
 46
0.229809703885628
 79
     2
 49
0.1625
 49
-0.1625
 53
135.0
 43
-0.0861786389571105
 44
0.114904851942814
 45
-0.2298097038856279
 46
0.0
 79
     2
 49
0.1625
 49
-0.1625
 53
135.0
 43
-0.0430893194785552
 44
0.1579941714213692
 45
-0.2298097038856279
 46
0.0
 79
     2
 49
0.1625
 49
-0.1625
 53
135.0
 43
0.0
 44
0.2010834908999244
 45
-0.2298097038856279
 46
0.0
 79
     2
 49
0.1625
 49
-0.1625
 47
0.005168235573776
 98
        2
 10
1.932534447650532
 20
5.058747249359971
 10
2.966609218059534
 20
5.079420193717743
  0
LEADER
  5
23F
330
1E
100
AcDbEntity
  8
text_leaders
100
AcDbLeader
  3
Standard
 76
     3
 10
4.017390347188547
 20
2.490768401263158
 30
0.0
 10
4.547671385504213
 20
1.854146957075354
 30
0.0
 10
4.734025262982872
 20
1.854146957075354
 30
0.0
211
-1.0
221
0.0
231
0.0
210
0.0
220
0.0
230
-1.0
  0
LEADER
  5
241
330
1E
100
AcDbEntity
  8
text_leaders
100
AcDbLeader
  3
Standard
 76
     3
 10
4.29762143997226
 20
2.514367375759217
 30
0.0
 10
4.547671385504212
 20
2.216369454843527
 30
0.0
 10
4.734025262982871
 20
2.216369454843528
 30
0.0
211
-1.0
221
0.0
231
0.0
210
0.0
220
0.0
230
-1.0
  0
LEADER
  5
242
330
1E
100
AcDbEntity
  8
text_leaders
100
AcDbLeader
  3
Standard
 76
     3
 10
4.023508272480872
 20
2.615084070641933
 30
0.0
 10
4.553141627621172
 20
2.851022075562393
 30
0.0
 10
4.734025262982871
 20
2.851022075562392
 30
0.0
  0
LEADER
  5
243
330
1E
100
AcDbEntity
  8
text_leaders
100
AcDbLeader
  3
Standard
 76
     3
 10
3.329591696293942
 20
2.825823828639862
 30
0.0
 10
4.553141627621172
 20
3.334987311574725
 30
0.0
 10
4.734025262982871
 20
3.334987311574724
 30
0.0
  0
LEADER
  5
244
330
1E
100
AcDbEntity
  8
text_leaders
100
AcDbLeader
  3
Standard
 76
     3
 10
2.504530234049993
 20
3.399250602292395
 30
0.0
 10
4.553141627621174
 20
4.360133288270055
 30
0.0
 10
4.734025262982871
 20
4.360133288270055
 30
0.0
  0
LEADER
  5
245
330
1E
100
AcDbEntity
  8
text_leaders
100
AcDbLeader
  3
Standard
 76
     3
 10
2.672843235015546
 20
2.981780102837157
 30
0.0
 10
4.553141627621174
 20
3.764240429157801
 30
0.0
 10
4.734025262982871
 20
3.7642404291578
 30
0.0
  0
LEADER
  5
248
330
1E
100
AcDbEntity
  8
text_leaders
100
AcDbLeader
  3
Standard
 76
     3
 10
2.519604000704021
 20
3.073585248890471
 30
0.0
 10
4.553141627621174
 20
3.968766833315472
 30
0.0
 10
4.734025262982871
 20
3.968766833315471
 30
0.0
  0
LEADER
  5
24E
330
1E
100
AcDbEntity
  8
text_leaders
100
AcDbLeader
  3
Standard
 76
     3
 10
2.627828782382153
 20
4.314429601266857
 30
0.0
 10
4.547671385504211
 20
5.155096412981608
 30
0.0
 10
4.734025262982871
 20
5.155096412981607
 30
0.0
  0
LEADER
  5
24F
330
1E
100
AcDbEntity
  8
text_leaders
100
AcDbLeader
  3
Standard
 76
     3
 10
4.006316214713947
 20
5.403722304830214
 30
0.0
 10
4.547671385504212
 20
5.628999816770719
 30
0.0
 10
4.734025262982871
 20
5.628999816770718
 30
0.0
  0
LEADER
  5
255
330
1E
100
AcDbEntity
  8
text_bubbles
100
AcDbLeader
  3
Standard
 76
     2
 10
2.323424182674922
 20
3.000611898088905
 30
0.0
 10
0.8721571422536133
 20
3.449657701191062
 30
0.0
  0
LEADER
  5
256
330
1E
100
AcDbEntity
  8
text_bubbles
100
AcDbLeader
  3
Standard
 76
     2
 10
3.764201493254164
 20
2.490768401263157
 30
0.0
 10
3.897933242317456
 20
1.955348008174453
 30
0.0
  0
LEADER
  5
257
330
1E
100
AcDbEntity
  8
text_bubbles
100
AcDbLeader
  3
Standard
 76
     2
 10
1.218991517176728
 20
5.403722304830212
 30
0.0
 10
0.8721571422536133
 20
5.541069538776902
 30
0.0
  0
LEADER
  5
258
330
1E
100
AcDbEntity
  8
text_bubbles
100
AcDbLeader
  3
Standard
 76
     2
 10
3.985065673734272
 20
2.547969608810296
 30
0.0
 10
4.274120320707364
 20
1.955348008174453
 30
0.0
  0
LEADER
  5
259
330
1E
100
AcDbEntity
  8
text_bubbles
100
AcDbLeader
  3
Standard
 76
     2
 10
2.578089725621017
 20
2.811412068278533
 30
0.0
 10
2.79189800336527
 20
1.955390121977157
 30
0.0
  0
LEADER
  5
25A
330
1E
100
AcDbEntity
  8
text_bubbles
100
AcDbLeader
  3
Standard
 76
     2
 10
4.485427435212832
 20
2.514367375759217
 30
0.0
 10
4.625182600554063
 20
1.954831094455034
 30
0.0
  0
LEADER
  5
25B
330
1E
100
AcDbEntity
  8
text_bubbles
100
AcDbLeader
  3
Standard
 76
     2
 10
3.38317752017002
 20
2.650858128234317
 30
0.0
 10
3.556611011978984
 20
1.956484286498694
 30
0.0
  0
LEADER
  5
25C
330
1E
100
AcDbEntity
  8
text_bubbles
100
AcDbLeader
  3
Standard
 76
     2
 10
2.337697083802058
 20
3.292905209985559
 30
0.0
 10
0.8721571422536133
 20
3.789774398326072
 30
0.0
  0
LEADER
  5
25D
330
1E
100
AcDbEntity
  8
text_bubbles
100
AcDbLeader
  3
Standard
 76
     2
 10
2.215426355022171
 20
4.616330923260133
 30
0.0
 10
0.8721571422536133
 20
5.075285388808097
 30
0.0
  0
INSERT
  5
274
330
1E
100
AcDbEntity
  8
title
100
AcDbBlockReference
 66
     1
  2
titleblock
 10
0.1064708094271038
 20
-0.1143646667846376
 30
0.0
  0
ATTRIB
  5
275
330
274
100
AcDbEntity
  8
title
100
AcDbText
 10
0.6120264132294459
 20
0.6698624296937297
 30
0.0
 40
0.2
  1
D
  7
L200
 72
     4
 11
0.7129131799415878
 21
0.7698624296937297
 31
0.0
100
AcDbAttribute
  2
D
 70
     0
  0
ATTRIB
  5
276
330
274
100
AcDbEntity
  8
title
100
AcDbText
 10
1.337913179941587
 20
1.229347635962112
 30
0.0
 40
0.2
  1

  7
L200
100
AcDbAttribute
  2
TITLE1
 70
     0
  0
ATTRIB
  5
277
330
274
100
AcDbEntity
  8
title
100
AcDbText
 10
1.337913179941587
 20
0.8698624296937298
 30
0.0
 40
0.2
  1
1804 POP-UP SPRAY SPRINKLER
  7
L200
100
AcDbAttribute
  2
TITLE2
 70
     0
  0
ATTRIB
  5
278
330
274
100
AcDbEntity
  8
title
100
AcDbText
 10
2.820116560595416
 20
0.4784280996736813
 30
0.0
 40
0.2
  1
WITH ROTARY NOZZLE
  7
L200
100
AcDbAttribute
  2
TITLE3
 70
     0
  0
ATTRIB
  5
279
330
274
100
AcDbEntity
  8
title
100
AcDbText
 10
2.820116560595416
 20
0.1548914140321366
 30
0.0
 40
0.2
  1

  7
L200
100
AcDbAttribute
  2
TITLE4
 70
     0
  0
ATTRIB
  5
27A
330
274
100
AcDbEntity
  8
title
 62
     7
100
AcDbText
 10
7.79987611558396
 20
0.8552381247600022
 30
0.0
 40
0.08
  1
6-25-08
  7
L80
 72
     2
 11
8.367495163203008
 21
0.8552381247600022
 31
0.0
100
AcDbAttribute
  2
REVISED
 70
     0
  0
ATTRIB
  5
27B
330
274
100
AcDbEntity
  8
title
 62
     7
100
AcDbText
 10
0.3704131799415877
 20
-0.0296530187639163
 30
0.0
 40
0.08
  1
S-1804Rotary-SJ.DWG
  7
L80
100
AcDbAttribute
  2
DWG-NAME
 70
     0
  0
ATTRIB
  5
27C
330
274
100
AcDbEntity
  8
title
 62
     7
100
AcDbText
 10
1.337913179941587
 20
0.5861991126108518
 30
0.0
 40
0.1
  1
N.T.S.
  7
L100
100
AcDbAttribute
  2
SCALE
 70
     0
  0
SEQEND
  5
27D
330
274
100
AcDbEntity
  8
image
  0
TEXT
  5
339
330
1E
100
AcDbEntity
  8
instruct-option
100
AcDbText
 10
12.33976418695262
 20
7.004587774479777
 30
0.0
 40
0.1
  1
  OPTION-SAM
  7
ROMANS
100
AcDbText
  0
TEXT
  5
33A
330
1E
100
AcDbEntity
  8
instruct-option
100
AcDbText
 10
12.33976418695262
 20
7.208662730733577
 30
0.0
 40
0.1
  1
%%uSAM SERIES%%u
  7
ROMANS
100
AcDbText
  0
TEXT
  5
33B
330
1E
100
AcDbEntity
  8
instruct-option
100
AcDbText
 10
12.31631266269233
 20
7.426659800981562
 30
0.0
 40
0.1
  1
BY TURNING ON THE APPROPRIATE LAYER:
  7
ROMANS
100
AcDbText
  0
TEXT
  5
33C
330
1E
100
AcDbEntity
  8
instruct-option
100
AcDbText
 10
12.31631266269233
 20
7.566659800981563
 30
0.0
 40
0.1
  1
CHOOSE ONE OF THE FOLLOWING OPTIONS
  7
ROMANS
100
AcDbText
  0
TEXT
  5
33F
330
1E
100
AcDbEntity
  8
instruct-option
100
AcDbText
 10
12.46038772652817
 20
7.829318534195838
 30
0.0
 40
0.1
  1
CHOOSING NOZZLES AND OPTIONAL FEATURES
  7
ROMANS
100
AcDbText
  0
TEXT
  5
340
330
1E
100
AcDbEntity
  8
instruct-option
100
AcDbText
 10
12.29892870071326
 20
6.270355727401232
 30
0.0
 40
0.1
  1
TO TURN OFF THIS INSTRUCTION BOX, TURN OFF
  7
ROMANS
100
AcDbText
  0
TEXT
  5
341
330
1E
100
AcDbEntity
  8
instruct-option
100
AcDbText
 10
12.29892870071326
 20
6.100435155974031
 30
0.0
 40
0.1
  1
LAYER "INSTRUCT-OPTION".
  7
ROMANS
100
AcDbText
  0
TEXT
  5
364
330
1E
100
AcDbEntity
  8
option-sam
100
AcDbText
 10
6.562598292549683
 20
4.895778615198771
 30
0.0
 40
0.125
  1
-SAM
  7
ROMANS
100
AcDbText
  0
TEXT
  5
38E
330
1E
100
AcDbEntity
  8
text_bubbles
100
AcDbText
 10
4.760000000000001
 20
4.724486289605502
 30
0.0
 40
0.125
  1
  WITH RAIN BIRD ROTARY NOZZLE
  7
ROMANS
100
AcDbText
  0
ARC
  5
41F
330
1E
100
AcDbEntity
  8
image
100
AcDbCircle
 10
2.421415247551639
 20
5.242967230582643
 30
0.0
 40
0.2165783160917459
100
AcDbArc
 50
47.92336398940309
 51
132.0766360105969
  0
LWPOLYLINE
  5
464
330
1E
100
AcDbEntity
  8
instruct-option
100
AcDbPolyline
 90
        4
 70
     1
 43
0.0
 10
12.2476299256752
 20
7.735246076047175
 10
16.05406859898149
 20
7.735246076047175
 10
16.05406859898149
 20
6.541931891933719
 10
12.2476299256752
 20
6.541931891933719
  0
TEXT
  5
4E1
330
1E
100
AcDbEntity
  8
text_leaders
100
AcDbText
 10
4.760000000000001
 20
4.724486289605502
 30
0.0
 40
0.125
  1
  WITH RAIN BIRD ROTARY NOZZLE
  7
ROMANS
100
AcDbText
  0
ENDSEC
  0
SECTION
  2
OBJECTS
  0
DICTIONARY
  5
C
330
0
100
AcDbDictionary
281
     1
  3
ACAD_COLOR
350
3C3
  3
ACAD_GROUP
350
D
  3
ACAD_LAYOUT
350
19
  3
ACAD_MATERIAL
350
399
  3
ACAD_MLEADERSTYLE
350
3E8
  3
ACAD_MLINESTYLE
350
16
  3
ACAD_PLOTSETTINGS
350
18
  3
ACAD_PLOTSTYLENAME
350
E
  3
ACAD_SCALELIST
350
3C6
  3
ACAD_TABLESTYLE
350
3C4
  3
ACAD_VISUALSTYLE
350
3B2
  3
ACDB_RECOMPOSE_DATA
350
429
  3
AcDbVariableDictionary
350
215
1001
BBSI_PltSel
1000
1
1000

1001
BBSI_Bookmarks
1000
1
1000
1
1000
0
1000
1
1000
0
1000
0
1000
0
1000
0
1000
0
1000
0
1000
0
1001
BBSI_Plots
1000

1000
User123
1000
215.900009155273
1000
279.399993896484
1000
1
1000
4
1000
1
1000
0
1000
0
1000
1
1000
0
1000
1
1000
0.581881369946802
1000
0
1000
1
1000
Color.ctb
1000
0
1000
0
1000
1
1000
1
1000
0
1000
0
1000
0.0664472904700467
1000
-0.156235342648277
1000
16.6498489576539
1000
10.3634050495199
1000

1000

  0
DICTIONARY
  5
58D
330
8
100
AcDbDictionary
280
     1
281
     1
  0
DICTIONARY
  5
283
330
2
100
AcDbDictionary
280
     1
281
     1
  3
ACAD_LAYERFILTERS
360
59A
  3
ACAD_LAYERSTATES
360
284
  0
DICTIONARY
  5
41C
330
1E
100
AcDbDictionary
280
     1
281
     1
  3
ACAD_SORTENTS
360
41D
  0
DICTIONARY
  5
3C3
102
{ACAD_REACTORS
330
C
102
}
330
C
100
AcDbDictionary
281
     1
  0
DICTIONARY
  5
D
102
{ACAD_REACTORS
330
C
102
}
330
C
100
AcDbDictionary
281
     1
  0
DICTIONARY
  5
19
102
{ACAD_REACTORS
330
C
102
}
330
C
100
AcDbDictionary
281
     1
  3
Layout1
350
1D
  3
Model
350
21
  0
DICTIONARY
  5
399
102
{ACAD_REACTORS
330
C
102
}
330
C
100
AcDbDictionary
281
     1
  3
ByBlock
350
3A2
  3
ByLayer
350
39A
  3
Global
350
3AA
  0
DICTIONARY
  5
3E8
102
{ACAD_REACTORS
330
C
102
}
330
C
100
AcDbDictionary
281
     1
  3
Standard
350
524
  0
DICTIONARY
  5
16
102
{ACAD_REACTORS
330
C
102
}
330
C
100
AcDbDictionary
281
     1
  3
Standard
350
17
  0
DICTIONARY
  5
18
102
{ACAD_REACTORS
330
C
102
}
330
C
100
AcDbDictionary
281
     1
  0
ACDBDICTIONARYWDFLT
  5
E
102
{ACAD_REACTORS
330
C
102
}
330
C
100
AcDbDictionary
281
     1
  3
Normal
350
F
100
AcDbDictionaryWithDefault
340
F
  0
DICTIONARY
  5
3C6
102
{ACAD_REACTORS
330
C
102
}
330
C
100
AcDbDictionary
281
     1
  3
A0
350
3C7
  3
A1
350
5A6
  3
A2
350
5A7
  3
A3
350
5A8
  3
A4
350
5A9
  3
A5
350
5AA
  3
A6
350
5AB
  3
A7
350
5AC
  3
A8
350
5AD
  3
A9
350
5AE
  3
B0
350
5AF
  3
B1
350
5B0
  3
B2
350
5B1
  3
B3
350
5B2
  3
B4
350
5B3
  3
B5
350
5B4
  3
B6
350
5B5
  3
B7
350
5B6
  3
B8
350
5B7
  3
B9
350
5B8
  3
C0
350
5B9
  3
C1
350
5BA
  3
C2
350
5BB
  3
C3
350
5BC
  3
C4
350
5BD
  3
C5
350
5BE
  3
C6
350
5BF
  3
C7
350
5C0
  3
C8
350
5C1
  3
C9
350
5C2
  3
D0
350
5C3
  3
D1
350
5C4
  3
D2
350
5C5
  0
DICTIONARY
  5
3C4
102
{ACAD_REACTORS
330
C
102
}
330
C
100
AcDbDictionary
281
     1
  3
Standard
350
3C5
  0
DICTIONARY
  5
3B2
102
{ACAD_REACTORS
330
C
102
}
330
C
100
AcDbDictionary
281
     1
  3
2dWireframe
350
3B8
  3
3D Hidden
350
3BA
  3
3dWireframe
350
3B9
  3
Basic
350
3B7
  3
Brighten
350
3BE
  3
ColorChange
350
3C2
  3
Conceptual
350
3BB
  3
Dim
350
3BD
  3
Facepattern
350
3C1
  3
Flat
350
3B3
  3
FlatWithEdges
350
3B4
  3
Gouraud
350
3B5
  3
GouraudWithEdges
350
3B6
  3
Linepattern
350
3C0
  3
Realistic
350
3BC
  3
Thicken
350
3BF
  0
XRECORD
  5
429
102
{ACAD_REACTORS
330
C
102
}
330
C
100
AcDbXrecord
280
     1
 90
        1
330
3C5
  0
DICTIONARY
  5
215
102
{ACAD_REACTORS
330
C
102
}
330
C
100
AcDbDictionary
281
     1
  3
CANNOSCALE
350
42D
  3
CMLEADERSTYLE
350
42B
  3
CTABLESTYLE
350
42A
  3
DIMASSOC
350
218
  3
HIDETEXT
350
217
  3
LAYEREVAL
350
42F
  3
LIGHTINGUNITS
350
42E
  3
MSLTSCALE
350
42C
  3
SORTENTS
350
216
  3
UPDATETHUMBNAIL
350
522
  0
DICTIONARY
  5
59A
102
{ACAD_REACTORS
330
283
102
}
330
283
100
AcDbDictionary
281
     1
  3
_0100-
350
59D
  3
_0280-
350
59C
  3
_Color 253
350
5A0
  3
_Color 8
350
59E
  3
_Color 84
350
59F
  3
_Contours
350
5A5
  3
_Existing
350
5A1
  3
_Hardscape
350
5A4
  3
_NoXref
350
59B
  3
_Row
350
5A2
  3
_Utility
350
5A3
  0
DICTIONARY
  5
284
102
{ACAD_REACTORS
330
283
102
}
330
283
100
AcDbDictionary
281
     1
  0
SORTENTSTABLE
  5
41D
102
{ACAD_REACTORS
330
41C
102
}
330
41C
100
AcDbSortentsTable
330
1E
331
205
  5
205
331
1A6
  5
1A6
331
16F
  5
16F
331
128
  5
128
331
20D
  5
20D
331
177
  5
177
331
130
  5
130
331
25C
  5
25C
331
1DE
  5
1DE
331
E9
  5
E9
331
F1
  5
F1
331
F9
  5
F9
331
148
  5
148
331
101
  5
101
331
1E6
  5
1E6
331
274
  5
274
331
1EE
  5
1EE
331
18F
  5
18F
331
111
  5
111
331
1F6
  5
1F6
331
245
  5
245
331
33C
  5
33C
331
1FE
  5
1FE
331
CA
  5
CA
331
D2
  5
D2
331
DA
  5
DA
331
E2
  5
E2
331
168
  5
168
331
255
  5
255
331
206
  5
206
331
1A7
  5
1A7
331
129
  5
129
331
170
  5
170
331
20E
  5
20E
331
178
  5
178
331
25D
  5
25D
331
364
  5
364
331
141
  5
141
331
1DF
  5
1DF
331
EA
  5
EA
331
F2
  5
F2
331
FA
  5
FA
331
102
  5
102
331
1E7
  5
1E7
331
10A
  5
10A
331
188
  5
188
331
1EF
  5
1EF
331
112
  5
112
331
198
  5
198
331
1F7
  5
1F7
331
24E
  5
24E
331
1FF
  5
1FF
331
CB
  5
CB
331
D3
  5
D3
331
DB
  5
DB
331
E3
  5
E3
331
1A0
  5
1A0
331
169
  5
169
331
207
  5
207
331
171
  5
171
331
12A
  5
12A
331
1A8
  5
1A8
331
256
  5
256
331
20F
  5
20F
331
179
  5
179
331
142
  5
142
331
EB
  5
EB
331
F3
  5
F3
331
FB
  5
FB
331
1E0
  5
1E0
331
103
  5
103
331
1E8
  5
1E8
331
189
  5
189
331
10B
  5
10B
331
152
  5
152
331
1F0
  5
1F0
331
113
  5
113
331
23F
  5
23F
331
1F8
  5
1F8
331
11B
  5
11B
331
199
  5
199
331
24F
  5
24F
331
CC
  5
CC
331
D4
  5
D4
331
DC
  5
DC
331
E4
  5
E4
331
200
  5
200
331
16A
  5
16A
331
1A1
  5
1A1
331
208
  5
208
331
1A9
  5
1A9
331
172
  5
172
331
257
  5
257
331
210
  5
210
331
17A
  5
17A
331
133
  5
133
331
38E
  5
38E
331
EC
  5
EC
331
F4
  5
F4
331
FC
  5
FC
331
1E1
  5
1E1
331
182
  5
182
331
104
  5
104
331
1E9
  5
1E9
331
10C
  5
10C
331
1F1
  5
1F1
331
114
  5
114
331
248
  5
248
331
1F9
  5
1F9
331
19A
  5
19A
331
11C
  5
11C
331
163
  5
163
331
33F
  5
33F
331
CD
  5
CD
331
D5
  5
D5
331
DD
  5
DD
331
E5
  5
E5
331
201
  5
201
331
1A2
  5
1A2
331
16B
  5
16B
331
209
  5
209
331
173
  5
173
331
1AA
  5
1AA
331
258
  5
258
331
17B
  5
17B
331
134
  5
134
331
1DA
  5
1DA
331
ED
  5
ED
331
F5
  5
F5
331
FD
  5
FD
331
1E2
  5
1E2
331
183
  5
183
331
105
  5
105
331
14C
  5
14C
331
1EA
  5
1EA
331
10D
  5
10D
331
1F2
  5
1F2
331
193
  5
193
331
115
  5
115
331
241
  5
241
331
1FA
  5
1FA
331
164
  5
164
331
11D
  5
11D
331
CE
  5
CE
331
D6
  5
D6
331
DE
  5
DE
331
E6
  5
E6
331
340
  5
340
331
202
  5
202
331
1A3
  5
1A3
331
16C
  5
16C
331
20A
  5
20A
331
12D
  5
12D
331
174
  5
174
331
259
  5
259
331
17C
  5
17C
331
135
  5
135
331
1DB
  5
1DB
331
EE
  5
EE
331
F6
  5
F6
331
FE
  5
FE
331
1E3
  5
1E3
331
14D
  5
14D
331
106
  5
106
331
1EB
  5
1EB
331
10E
  5
10E
331
18C
  5
18C
331
242
  5
242
331
1F3
  5
1F3
331
15D
  5
15D
331
339
  5
339
331
1FB
  5
1FB
331
11E
  5
11E
331
165
  5
165
331
CF
  5
CF
331
D7
  5
D7
331
DF
  5
DF
331
E7
  5
E7
331
341
  5
341
331
203
  5
203
331
1A4
  5
1A4
331
16D
  5
16D
331
20B
  5
20B
331
175
  5
175
331
12E
  5
12E
331
25A
  5
25A
331
1D4
  5
1D4
331
17D
  5
17D
331
1DC
  5
1DC
331
146
  5
146
331
EF
  5
EF
331
F7
  5
F7
331
FF
  5
FF
331
1E4
  5
1E4
331
14E
  5
14E
331
23B
  5
23B
331
1EC
  5
1EC
331
156
  5
156
331
10F
  5
10F
331
1F4
  5
1F4
331
243
  5
243
331
33A
  5
33A
331
1FC
  5
1FC
331
166
  5
166
331
11F
  5
11F
331
D0
  5
D0
331
D8
  5
D8
331
E0
  5
E0
331
204
  5
204
331
1A5
  5
1A5
331
127
  5
127
331
16E
  5
16E
331
20C
  5
20C
331
12F
  5
12F
331
176
  5
176
331
25B
  5
25B
331
1DD
  5
1DD
331
147
  5
147
331
E8
  5
E8
331
F0
  5
F0
331
F8
  5
F8
331
100
  5
100
331
1E5
  5
1E5
331
1ED
  5
1ED
331
157
  5
157
331
110
  5
110
331
18E
  5
18E
331
244
  5
244
331
1F5
  5
1F5
331
33B
  5
33B
331
1FD
  5
1FD
331
167
  5
167
331
D1
  5
D1
331
D9
  5
D9
331
E1
  5
E1
331
120
  5
120
  0
LAYOUT
  5
1D
102
{ACAD_REACTORS
330
19
102
}
330
19
100
AcDbPlotSettings
  1

  2
S:\AutoCAD 2002\Plotters\1055B&WDraftShaded.pc3
  4

  6

 40
0.0
 41
0.0
 42
0.0
 43
0.0
 44
0.0
 45
0.0
 46
0.0
 47
0.0
 48
0.0
 49
0.0
140
0.0
141
0.0
142
1.0
143
1.0
 70
   688
 72
     0
 73
     0
 74
     5
  7
8500Color.ctb
 75
    16
147
1.0
 76
     0
 77
     2
 78
   300
148
0.0
149
0.0
100
AcDbLayout
  1
Layout1
 70
     1
 71
     1
 10
0.0
 20
0.0
 11
12.0
 21
9.0
 12
0.0
 22
0.0
 32
0.0
 14
1.000000000000000E+20
 24
1.000000000000000E+20
 34
1.000000000000000E+20
 15
-1.000000000000000E+20
 25
-1.000000000000000E+20
 35
-1.000000000000000E+20
146
0.0
 13
0.0
 23
0.0
 33
0.0
 16
1.0
 26
0.0
 36
0.0
 17
0.0
 27
1.0
 37
0.0
 76
     0
330
1A
  0
LAYOUT
  5
21
102
{ACAD_REACTORS
330
19
102
}
330
19
100
AcDbPlotSettings
  1

  2
8500ColorShaded.pc3
  4
Letter
  6

 40
5.027082920074462
 41
5.027070522308349
 42
5.027099609375
 43
5.027084350585937
 44
279.3999938964844
 45
215.8999938964844
 46
0.0
 47
0.0
 48
10.32427554345824
 49
3.309499280594682
140
16.49464271188265
141
8.013305812965935
142
1.0
143
0.7613820460078329
 70
 11952
 72
     0
 73
     1
 74
     4
  7

 75
     0
147
1.313401078004553
 76
     0
 77
     2
 78
   300
148
-262.2365988038392
149
-84.06128172710493
100
AcDbLayout
  1
Model
 70
     1
 71
     0
 10
0.0
 20
0.0
 11
12.0
 21
9.0
 12
0.0
 22
0.0
 32
0.0
 14
0.0
 24
0.0
 34
0.0
 15
0.0
 25
0.0
 35
0.0
146
0.0
 13
0.0
 23
0.0
 33
0.0
 16
1.0
 26
0.0
 36
0.0
 17
0.0
 27
1.0
 37
0.0
 76
     0
330
1E
331
397
1001
ACAD_PSEXT
1000
8500ColorShaded.pc3
1000
HP Color LaserJet 8500 PS
1000
BACK
1000

1070
     0
  0
MATERIAL
  5
3A2
102
{ACAD_XDICTIONARY
360
3A3
102
}
102
{ACAD_REACTORS
330
399
102
}
330
399
100
AcDbMaterial
  1
ByBlock
 72
     0
 43
0.0208333333333333
 43
0.0
 43
0.0
 43
0.0
 43
0.0
 43
0.0208333333333333
 43
0.0
 43
0.0
 43
0.0
 43
0.0
 43
1.0
 43
0.0
 43
0.0
 43
0.0
 43
0.0
 43
1.0
 77
     0
 47
0.0208333333333333
 47
0.0
 47
0.0
 47
0.0
 47
0.0
 47
0.0208333333333333
 47
0.0
 47
0.0
 47
0.0
 47
0.0
 47
1.0
 47
0.0
 47
0.0
 47
0.0
 47
0.0
 47
1.0
171
     0
 49
0.0208333333333333
 49
0.0
 49
0.0
 49
0.0
 49
0.0
 49
0.0208333333333333
 49
0.0
 49
0.0
 49
0.0
 49
0.0
 49
1.0
 49
0.0
 49
0.0
 49
0.0
 49
0.0
 49
1.0
175
     0
142
0.0208333333333333
142
0.0
142
0.0
142
0.0
142
0.0
142
0.0208333333333333
142
0.0
142
0.0
142
0.0
142
0.0
142
1.0
142
0.0
142
0.0
142
0.0
142
0.0
142
1.0
179
     0
144
0.0208333333333333
144
0.0
144
0.0
144
0.0
144
0.0
144
0.0208333333333333
144
0.0
144
0.0
144
0.0
144
0.0
144
1.0
144
0.0
144
0.0
144
0.0
144
0.0
144
1.0
147
0.0208333333333333
147
0.0
147
0.0
147
0.0
147
0.0
147
0.0208333333333333
147
0.0
147
0.0
147
0.0
147
0.0
147
1.0
147
0.0
147
0.0
147
0.0
147
0.0
147
1.0
  0
MATERIAL
  5
39A
102
{ACAD_XDICTIONARY
360
39B
102
}
102
{ACAD_REACTORS
330
399
102
}
330
399
100
AcDbMaterial
  1
ByLayer
 72
     0
 43
0.0208333333333333
 43
0.0
 43
0.0
 43
0.0
 43
0.0
 43
0.0208333333333333
 43
0.0
 43
0.0
 43
0.0
 43
0.0
 43
1.0
 43
0.0
 43
0.0
 43
0.0
 43
0.0
 43
1.0
 77
     0
 47
0.0208333333333333
 47
0.0
 47
0.0
 47
0.0
 47
0.0
 47
0.0208333333333333
 47
0.0
 47
0.0
 47
0.0
 47
0.0
 47
1.0
 47
0.0
 47
0.0
 47
0.0
 47
0.0
 47
1.0
171
     0
 49
0.0208333333333333
 49
0.0
 49
0.0
 49
0.0
 49
0.0
 49
0.0208333333333333
 49
0.0
 49
0.0
 49
0.0
 49
0.0
 49
1.0
 49
0.0
 49
0.0
 49
0.0
 49
0.0
 49
1.0
175
     0
142
0.0208333333333333
142
0.0
142
0.0
142
0.0
142
0.0
142
0.0208333333333333
142
0.0
142
0.0
142
0.0
142
0.0
142
1.0
142
0.0
142
0.0
142
0.0
142
0.0
142
1.0
179
     0
144
0.0208333333333333
144
0.0
144
0.0
144
0.0
144
0.0
144
0.0208333333333333
144
0.0
144
0.0
144
0.0
144
0.0
144
1.0
144
0.0
144
0.0
144
0.0
144
0.0
144
1.0
147
0.0208333333333333
147
0.0
147
0.0
147
0.0
147
0.0
147
0.0208333333333333
147
0.0
147
0.0
147
0.0
147
0.0
147
1.0
147
0.0
147
0.0
147
0.0
147
0.0
147
1.0
  0
MATERIAL
  5
3AA
102
{ACAD_XDICTIONARY
360
3AB
102
}
102
{ACAD_REACTORS
330
399
102
}
330
399
100
AcDbMaterial
  1
Global
 72
     0
 43
0.0208333333333333
 43
0.0
 43
0.0
 43
0.0
 43
0.0
 43
0.0208333333333333
 43
0.0
 43
0.0
 43
0.0
 43
0.0
 43
1.0
 43
0.0
 43
0.0
 43
0.0
 43
0.0
 43
1.0
 77
     0
 47
0.0208333333333333
 47
0.0
 47
0.0
 47
0.0
 47
0.0
 47
0.0208333333333333
 47
0.0
 47
0.0
 47
0.0
 47
0.0
 47
1.0
 47
0.0
 47
0.0
 47
0.0
 47
0.0
 47
1.0
171
     0
 49
0.0208333333333333
 49
0.0
 49
0.0
 49
0.0
 49
0.0
 49
0.0208333333333333
 49
0.0
 49
0.0
 49
0.0
 49
0.0
 49
1.0
 49
0.0
 49
0.0
 49
0.0
 49
0.0
 49
1.0
175
     0
142
0.0208333333333333
142
0.0
142
0.0
142
0.0
142
0.0
142
0.0208333333333333
142
0.0
142
0.0
142
0.0
142
0.0
142
1.0
142
0.0
142
0.0
142
0.0
142
0.0
142
1.0
179
     0
144
0.0208333333333333
144
0.0
144
0.0
144
0.0
144
0.0
144
0.0208333333333333
144
0.0
144
0.0
144
0.0
144
0.0
144
1.0
144
0.0
144
0.0
144
0.0
144
0.0
144
1.0
147
0.0208333333333333
147
0.0
147
0.0
147
0.0
147
0.0
147
0.0208333333333333
147
0.0
147
0.0
147
0.0
147
0.0
147
1.0
147
0.0
147
0.0
147
0.0
147
0.0
147
1.0
  0
MLEADERSTYLE
  5
524
102
{ACAD_REACTORS
330
3E8
102
}
330
3E8
100
AcDbMLeaderStyle
170
     2
171
     1
172
     0
 90
        2
 40
0.0
 41
0.0
173
     1
 91
-1056964608
340
13
 92
       -2
290
     1
 42
0.09
291
     1
 43
0.36
  3
Standard
 44
0.18
300

342
11
174
     1
178
     6
175
     1
176
     0
 93
-1056964608
 45
0.18
292
     0
297
     0
 46
0.18
 94
-1056964608
 47
1.0
 49
1.0
140
1.0
293
     1
141
0.0
294
     1
177
     0
142
1.0
295
     0
296
     0
143
0.125
1001
ACAD_MLEADERVER
1070
     2
  0
MLINESTYLE
  5
17
102
{ACAD_REACTORS
330
16
102
}
330
16
100
AcDbMlineStyle
  2
STANDARD
 70
     0
  3

 62
   256
 51
90.0
 52
90.0
 71
     2
 49
0.5
 62
   256
  6
BYLAYER
 49
-0.5
 62
   256
  6
BYLAYER
  0
ACDBPLACEHOLDER
  5
F
102
{ACAD_REACTORS
330
E
102
}
330
E
  0
SCALE
  5
3C7
102
{ACAD_REACTORS
330
3C6
102
}
330
3C6
100
AcDbScale
 70
     0
300
1:1
140
1.0
141
1.0
290
     1
  0
SCALE
  5
5A6
102
{ACAD_REACTORS
330
3C6
102
}
330
3C6
100
AcDbScale
 70
     0
300
1:2
140
1.0
141
2.0
290
     0
  0
SCALE
  5
5A7
102
{ACAD_REACTORS
330
3C6
102
}
330
3C6
100
AcDbScale
 70
     0
300
1:4
140
1.0
141
4.0
290
     0
  0
SCALE
  5
5A8
102
{ACAD_REACTORS
330
3C6
102
}
330
3C6
100
AcDbScale
 70
     0
300
1:5
140
1.0
141
5.0
290
     0
  0
SCALE
  5
5A9
102
{ACAD_REACTORS
330
3C6
102
}
330
3C6
100
AcDbScale
 70
     0
300
1:8
140
1.0
141
8.0
290
     0
  0
SCALE
  5
5AA
102
{ACAD_REACTORS
330
3C6
102
}
330
3C6
100
AcDbScale
 70
     0
300
1:10
140
1.0
141
10.0
290
     0
  0
SCALE
  5
5AB
102
{ACAD_REACTORS
330
3C6
102
}
330
3C6
100
AcDbScale
 70
     0
300
1:16
140
1.0
141
16.0
290
     0
  0
SCALE
  5
5AC
102
{ACAD_REACTORS
330
3C6
102
}
330
3C6
100
AcDbScale
 70
     0
300
1:20
140
1.0
141
20.0
290
     0
  0
SCALE
  5
5AD
102
{ACAD_REACTORS
330
3C6
102
}
330
3C6
100
AcDbScale
 70
     0
300
1:30
140
1.0
141
30.0
290
     0
  0
SCALE
  5
5AE
102
{ACAD_REACTORS
330
3C6
102
}
330
3C6
100
AcDbScale
 70
     0
300
1:40
140
1.0
141
40.0
290
     0
  0
SCALE
  5
5AF
102
{ACAD_REACTORS
330
3C6
102
}
330
3C6
100
AcDbScale
 70
     0
300
1:50
140
1.0
141
50.0
290
     0
  0
SCALE
  5
5B0
102
{ACAD_REACTORS
330
3C6
102
}
330
3C6
100
AcDbScale
 70
     0
300
1:100
140
1.0
141
100.0
290
     0
  0
SCALE
  5
5B1
102
{ACAD_REACTORS
330
3C6
102
}
330
3C6
100
AcDbScale
 70
     0
300
2:1
140
2.0
141
1.0
290
     0
  0
SCALE
  5
5B2
102
{ACAD_REACTORS
330
3C6
102
}
330
3C6
100
AcDbScale
 70
     0
300
4:1
140
4.0
141
1.0
290
     0
  0
SCALE
  5
5B3
102
{ACAD_REACTORS
330
3C6
102
}
330
3C6
100
AcDbScale
 70
     0
300
8:1
140
8.0
141
1.0
290
     0
  0
SCALE
  5
5B4
102
{ACAD_REACTORS
330
3C6
102
}
330
3C6
100
AcDbScale
 70
     0
300
10:1
140
10.0
141
1.0
290
     0
  0
SCALE
  5
5B5
102
{ACAD_REACTORS
330
3C6
102
}
330
3C6
100
AcDbScale
 70
     0
300
100:1
140
100.0
141
1.0
290
     0
  0
SCALE
  5
5B6
102
{ACAD_REACTORS
330
3C6
102
}
330
3C6
100
AcDbScale
 70
     0
300
1/128" = 1'-0"
140
0.0078125
141
12.0
290
     0
  0
SCALE
  5
5B7
102
{ACAD_REACTORS
330
3C6
102
}
330
3C6
100
AcDbScale
 70
     0
300
1/64" = 1'-0"
140
0.015625
141
12.0
290
     0
  0
SCALE
  5
5B8
102
{ACAD_REACTORS
330
3C6
102
}
330
3C6
100
AcDbScale
 70
     0
300
1/32" = 1'-0"
140
0.03125
141
12.0
290
     0
  0
SCALE
  5
5B9
102
{ACAD_REACTORS
330
3C6
102
}
330
3C6
100
AcDbScale
 70
     0
300
1/16" = 1'-0"
140
0.0625
141
12.0
290
     0
  0
SCALE
  5
5BA
102
{ACAD_REACTORS
330
3C6
102
}
330
3C6
100
AcDbScale
 70
     0
300
3/32" = 1'-0"
140
0.09375
141
12.0
290
     0
  0
SCALE
  5
5BB
102
{ACAD_REACTORS
330
3C6
102
}
330
3C6
100
AcDbScale
 70
     0
300
1/8" = 1'-0"
140
0.125
141
12.0
290
     0
  0
SCALE
  5
5BC
102
{ACAD_REACTORS
330
3C6
102
}
330
3C6
100
AcDbScale
 70
     0
300
3/16" = 1'-0"
140
0.1875
141
12.0
290
     0
  0
SCALE
  5
5BD
102
{ACAD_REACTORS
330
3C6
102
}
330
3C6
100
AcDbScale
 70
     0
300
1/4" = 1'-0"
140
0.25
141
12.0
290
     0
  0
SCALE
  5
5BE
102
{ACAD_REACTORS
330
3C6
102
}
330
3C6
100
AcDbScale
 70
     0
300
3/8" = 1'-0"
140
0.375
141
12.0
290
     0
  0
SCALE
  5
5BF
102
{ACAD_REACTORS
330
3C6
102
}
330
3C6
100
AcDbScale
 70
     0
300
1/2" = 1'-0"
140
0.5
141
12.0
290
     0
  0
SCALE
  5
5C0
102
{ACAD_REACTORS
330
3C6
102
}
330
3C6
100
AcDbScale
 70
     0
300
3/4" = 1'-0"
140
0.75
141
12.0
290
     0
  0
SCALE
  5
5C1
102
{ACAD_REACTORS
330
3C6
102
}
330
3C6
100
AcDbScale
 70
     0
300
1" = 1'-0"
140
1.0
141
12.0
290
     0
  0
SCALE
  5
5C2
102
{ACAD_REACTORS
330
3C6
102
}
330
3C6
100
AcDbScale
 70
     0
300
1-1/2" = 1'-0"
140
1.5
141
12.0
290
     0
  0
SCALE
  5
5C3
102
{ACAD_REACTORS
330
3C6
102
}
330
3C6
100
AcDbScale
 70
     0
300
3" = 1'-0"
140
3.0
141
12.0
290
     0
  0
SCALE
  5
5C4
102
{ACAD_REACTORS
330
3C6
102
}
330
3C6
100
AcDbScale
 70
     0
300
6" = 1'-0"
140
6.0
141
12.0
290
     0
  0
SCALE
  5
5C5
102
{ACAD_REACTORS
330
3C6
102
}
330
3C6
100
AcDbScale
 70
     0
300
1'-0" = 1'-0"
140
12.0
141
12.0
290
     0
  0
TABLESTYLE
  5
3C5
102
{ACAD_XDICTIONARY
360
427
102
}
102
{ACAD_REACTORS
330
3C4
102
}
330
3C4
100
AcDbTableStyle
  3
Standard
 70
     0
 71
     0
 40
0.06
 41
0.06
280
     0
281
     0
  7
STANDARD
140
0.18
170
     2
 62
     0
 63
     7
283
     0
274
    -2
284
     1
 64
     0
275
    -2
285
     1
 65
     0
276
    -2
286
     1
 66
     0
277
    -2
287
     1
 67
     0
278
    -2
288
     1
 68
     0
279
    -2
289
     1
 69
     0
  7
STANDARD
140
0.25
170
     5
 62
     0
 63
     7
283
     0
274
    -2
284
     1
 64
     0
275
    -2
285
     1
 65
     0
276
    -2
286
     1
 66
     0
277
    -2
287
     1
 67
     0
278
    -2
288
     1
 68
     0
279
    -2
289
     1
 69
     0
  7
STANDARD
140
0.18
170
     5
 62
     0
 63
     7
283
     0
274
    -2
284
     1
 64
     0
275
    -2
285
     1
 65
     0
276
    -2
286
     1
 66
     0
277
    -2
287
     1
 67
     0
278
    -2
288
     1
 68
     0
279
    -2
289
     1
 69
     0
  0
VISUALSTYLE
  5
3B8
102
{ACAD_REACTORS
330
3B2
102
}
330
3B2
100
AcDbVisualStyle
  2
2dWireframe
 70
     4
 71
     0
 72
     2
 73
     0
 90
        0
 40
-0.6
 41
-30.0
 62
     5
 63
     7
421
 16777215
 74
     1
 91
        4
 64
     7
 65
   257
 75
     1
175
     1
 42
1.0
 92
        0
 66
   257
 43
1.0
 76
     1
 77
     6
 78
     2
 67
     7
 79
     5
170
     0
171
     0
290
     0
174
     0
 93
        1
 44
0.0
173
     0
291
     0
 45
0.0
1001
ACAD
1000
AcDbSavedByObjectVersion
1070
     0
  0
VISUALSTYLE
  5
3BA
102
{ACAD_REACTORS
330
3B2
102
}
330
3B2
100
AcDbVisualStyle
  2
3D Hidden
 70
     6
 71
     1
 72
     2
 73
     2
 90
        0
 40
-0.6
 41
-30.0
 62
     5
 63
     7
421
 16777215
 74
     2
 91
        2
 64
     7
 65
   257
 75
     2
175
     1
 42
40.0
 92
        0
 66
   257
 43
1.0
 76
     1
 77
     6
 78
     2
 67
     7
 79
     3
170
     0
171
     0
290
     0
174
     0
 93
        1
 44
0.0
173
     0
291
     0
 45
0.0
1001
ACAD
1000
AcDbSavedByObjectVersion
1070
     0
  0
VISUALSTYLE
  5
3B9
102
{ACAD_REACTORS
330
3B2
102
}
330
3B2
100
AcDbVisualStyle
  2
3dWireframe
 70
     5
 71
     0
 72
     2
 73
     0
 90
        0
 40
-0.6
 41
-30.0
 62
     5
 63
     7
421
 16777215
 74
     1
 91
        4
 64
     7
 65
   257
 75
     1
175
     1
 42
1.0
 92
        0
 66
   257
 43
1.0
 76
     1
 77
     6
 78
     2
 67
     7
 79
     5
170
     0
171
     0
290
     0
174
     0
 93
        1
 44
0.0
173
     0
291
     0
 45
0.0
1001
ACAD
1000
AcDbSavedByObjectVersion
1070
     0
  0
VISUALSTYLE
  5
3B7
102
{ACAD_REACTORS
330
3B2
102
}
330
3B2
100
AcDbVisualStyle
  2
Basic
 70
     7
 71
     1
 72
     0
 73
     1
 90
        0
 40
-0.6
 41
-30.0
 62
     5
 63
     7
421
 16777215
 74
     0
 91
        4
 64
     7
 65
   257
 75
     1
175
     1
 42
1.0
 92
        8
 66
     7
 43
1.0
 76
     1
 77
     6
 78
     2
 67
     7
 79
     5
170
     0
171
     0
290
     0
174
     0
 93
        1
 44
0.0
173
     0
291
     1
 45
0.0
1001
ACAD
1000
AcDbSavedByObjectVersion
1070
     0
  0
VISUALSTYLE
  5
3BE
102
{ACAD_REACTORS
330
3B2
102
}
330
3B2
100
AcDbVisualStyle
  2
Brighten
 70
    12
 71
     2
 72
     2
 73
     0
 90
        0
 40
-0.6
 41
-30.0
 62
     5
 63
     7
421
 16777215
 74
     1
 91
        4
 64
     7
 65
   257
 75
     1
175
     1
 42
1.0
 92
        8
 66
     7
 43
1.0
 76
     1
 77
     6
 78
     2
 67
     7
 79
     5
170
     0
171
     0
290
     0
174
     0
 93
        1
 44
50.0
173
     0
291
     1
 45
0.0
1001
ACAD
1000
AcDbSavedByObjectVersion
1070
     0
  0
VISUALSTYLE
  5
3C2
102
{ACAD_REACTORS
330
3B2
102
}
330
3B2
100
AcDbVisualStyle
  2
ColorChange
 70
    16
 71
     2
 72
     2
 73
     3
 90
        0
 40
-0.6
 41
-30.0
 62
     5
 63
     8
421
  8421504
 74
     1
 91
        4
 64
     7
 65
   257
 75
     1
175
     1
 42
1.0
 92
        8
 66
     8
424
  8421504
 43
1.0
 76
     1
 77
     6
 78
     2
 67
     7
 79
     5
170
     0
171
     0
290
     0
174
     0
 93
        1
 44
0.0
173
     0
291
     1
 45
0.0
1001
ACAD
1000
AcDbSavedByObjectVersion
1070
     0
  0
VISUALSTYLE
  5
3BB
102
{ACAD_REACTORS
330
3B2
102
}
330
3B2
100
AcDbVisualStyle
  2
Conceptual
 70
     9
 71
     3
 72
     2
 73
     0
 90
        0
 40
-0.6
 41
-30.0
 62
     5
 63
     7
421
 16777215
 74
     2
 91
        2
 64
     7
 65
   257
 75
     1
175
     1
 42
40.0
 92
        8
 66
     7
 43
1.0
 76
     1
 77
     6
 78
     2
 67
     7
 79
     3
170
     0
171
     0
290
     0
174
     0
 93
        1
 44
0.0
173
     0
291
     0
 45
0.0
1001
ACAD
1000
AcDbSavedByObjectVersion
1070
     0
  0
VISUALSTYLE
  5
3BD
102
{ACAD_REACTORS
330
3B2
102
}
330
3B2
100
AcDbVisualStyle
  2
Dim
 70
    11
 71
     2
 72
     2
 73
     0
 90
        0
 40
-0.6
 41
-30.0
 62
     5
 63
     7
421
 16777215
 74
     1
 91
        4
 64
     7
 65
   257
 75
     1
175
     1
 42
1.0
 92
        8
 66
     7
 43
1.0
 76
     1
 77
     6
 78
     2
 67
     7
 79
     5
170
     0
171
     0
290
     0
174
     0
 93
        1
 44
-50.0
173
     0
291
     1
 45
0.0
1001
ACAD
1000
AcDbSavedByObjectVersion
1070
     0
  0
VISUALSTYLE
  5
3C1
102
{ACAD_REACTORS
330
3B2
102
}
330
3B2
100
AcDbVisualStyle
  2
Facepattern
 70
    15
 71
     2
 72
     2
 73
     0
 90
        0
 40
-0.6
 41
-30.0
 62
     5
 63
     7
421
 16777215
 74
     1
 91
        4
 64
     7
 65
   257
 75
     1
175
     1
 42
1.0
 92
        8
 66
     7
 43
1.0
 76
     1
 77
     6
 78
     2
 67
     7
 79
     5
170
     0
171
     0
290
     0
174
     0
 93
        1
 44
0.0
173
     0
291
     1
 45
0.0
1001
ACAD
1000
AcDbSavedByObjectVersion
1070
     0
  0
VISUALSTYLE
  5
3B3
102
{ACAD_REACTORS
330
3B2
102
}
330
3B2
100
AcDbVisualStyle
  2
Flat
 70
     0
 71
     2
 72
     1
 73
     1
 90
        2
 40
-0.6
 41
30.0
 62
     5
 63
     7
421
 16777215
 74
     0
 91
        4
 64
     7
 65
   257
 75
     1
175
     1
 42
1.0
 92
        8
 66
     7
 43
1.0
 76
     1
 77
     6
 78
     2
 67
     7
 79
     5
170
     0
171
     0
290
     0
174
     0
 93
       13
 44
0.0
173
     0
291
     1
 45
0.0
1001
ACAD
1000
AcDbSavedByObjectVersion
1070
     0
  0
VISUALSTYLE
  5
3B4
102
{ACAD_REACTORS
330
3B2
102
}
330
3B2
100
AcDbVisualStyle
  2
FlatWithEdges
 70
     1
 71
     2
 72
     1
 73
     1
 90
        2
 40
-0.6
 41
30.0
 62
     5
 63
     7
421
 16777215
 74
     1
 91
        4
 64
     7
 65
   257
 75
     1
175
     1
 42
1.0
 92
        0
 66
   257
 43
1.0
 76
     1
 77
     6
 78
     2
 67
     7
 79
     5
170
     0
171
     0
290
     0
174
     0
 93
       13
 44
0.0
173
     0
291
     1
 45
0.0
1001
ACAD
1000
AcDbSavedByObjectVersion
1070
     0
  0
VISUALSTYLE
  5
3B5
102
{ACAD_REACTORS
330
3B2
102
}
330
3B2
100
AcDbVisualStyle
  2
Gouraud
 70
     2
 71
     2
 72
     2
 73
     1
 90
        2
 40
-0.6
 41
30.0
 62
     5
 63
     7
421
 16777215
 74
     0
 91
        4
 64
     7
 65
   257
 75
     1
175
     1
 42
1.0
 92
        0
 66
     7
 43
1.0
 76
     1
 77
     6
 78
     2
 67
     7
 79
     5
170
     0
171
     0
290
     0
174
     0
 93
       13
 44
0.0
173
     0
291
     1
 45
0.0
1001
ACAD
1000
AcDbSavedByObjectVersion
1070
     0
  0
VISUALSTYLE
  5
3B6
102
{ACAD_REACTORS
330
3B2
102
}
330
3B2
100
AcDbVisualStyle
  2
GouraudWithEdges
 70
     3
 71
     2
 72
     2
 73
     1
 90
        2
 40
-0.6
 41
30.0
 62
     5
 63
     7
421
 16777215
 74
     1
 91
        4
 64
     7
 65
   257
 75
     1
175
     1
 42
1.0
 92
        0
 66
   257
 43
1.0
 76
     1
 77
     6
 78
     2
 67
     7
 79
     5
170
     0
171
     0
290
     0
174
     0
 93
       13
 44
0.0
173
     0
291
     1
 45
0.0
1001
ACAD
1000
AcDbSavedByObjectVersion
1070
     0
  0
VISUALSTYLE
  5
3C0
102
{ACAD_REACTORS
330
3B2
102
}
330
3B2
100
AcDbVisualStyle
  2
Linepattern
 70
    14
 71
     2
 72
     2
 73
     0
 90
        0
 40
-0.6
 41
-30.0
 62
     5
 63
     7
421
 16777215
 74
     1
 91
        4
 64
     7
 65
   257
 75
     7
175
     7
 42
1.0
 92
        8
 66
     7
 43
1.0
 76
     1
 77
     6
 78
     2
 67
     7
 79
     5
170
     0
171
     0
290
     0
174
     0
 93
        1
 44
0.0
173
     0
291
     1
 45
0.0
1001
ACAD
1000
AcDbSavedByObjectVersion
1070
     0
  0
VISUALSTYLE
  5
3BC
102
{ACAD_REACTORS
330
3B2
102
}
330
3B2
100
AcDbVisualStyle
  2
Realistic
 70
     8
 71
     2
 72
     2
 73
     0
 90
        0
 40
-0.6
 41
-30.0
 62
     5
 63
     7
421
 16777215
 74
     1
 91
        0
 64
     7
 65
   257
 75
     1
175
     1
 42
1.0
 92
        8
 66
     8
424
  7895160
 43
1.0
 76
     1
 77
     6
 78
     2
 67
     7
 79
     5
170
     0
171
     0
290
     0
174
     0
 93
       13
 44
0.0
173
     0
291
     0
 45
0.0
1001
ACAD
1000
AcDbSavedByObjectVersion
1070
     0
  0
VISUALSTYLE
  5
3BF
102
{ACAD_REACTORS
330
3B2
102
}
330
3B2
100
AcDbVisualStyle
  2
Thicken
 70
    13
 71
     2
 72
     2
 73
     0
 90
        0
 40
-0.6
 41
-30.0
 62
     5
 63
     7
421
 16777215
 74
     1
 91
        4
 64
     7
 65
   257
 75
     1
175
     1
 42
1.0
 92
       12
 66
     7
 43
1.0
 76
     1
 77
     6
 78
     2
 67
     7
 79
     5
170
     0
171
     0
290
     0
174
     0
 93
        1
 44
0.0
173
     0
291
     1
 45
0.0
1001
ACAD
1000
AcDbSavedByObjectVersion
1070
     0
  0
DICTIONARYVAR
  5
42D
102
{ACAD_REACTORS
330
215
102
}
330
215
100
DictionaryVariables
280
     0
  1
1:1
  0
DICTIONARYVAR
  5
42B
102
{ACAD_REACTORS
330
215
102
}
330
215
100
DictionaryVariables
280
     0
  1
STANDARD
  0
DICTIONARYVAR
  5
42A
102
{ACAD_REACTORS
330
215
102
}
330
215
100
DictionaryVariables
280
     0
  1
STANDARD
  0
DICTIONARYVAR
  5
218
102
{ACAD_REACTORS
330
215
102
}
330
215
100
DictionaryVariables
280
     0
  1
1
  0
DICTIONARYVAR
  5
217
102
{ACAD_REACTORS
330
215
102
}
330
215
100
DictionaryVariables
280
     0
  1
1
  0
DICTIONARYVAR
  5
42F
102
{ACAD_REACTORS
330
215
102
}
330
215
100
DictionaryVariables
280
     0
  1
0
  0
DICTIONARYVAR
  5
42E
102
{ACAD_REACTORS
330
215
102
}
330
215
100
DictionaryVariables
280
     0
  1
0
  0
DICTIONARYVAR
  5
42C
102
{ACAD_REACTORS
330
215
102
}
330
215
100
DictionaryVariables
280
     0
  1
0
  0
DICTIONARYVAR
  5
216
102
{ACAD_REACTORS
330
215
102
}
330
215
100
DictionaryVariables
280
     0
  1
1
  0
DICTIONARYVAR
  5
522
102
{ACAD_REACTORS
330
215
102
}
330
215
100
DictionaryVariables
280
     0
  1
0
  0
XRECORD
  5
59D
102
{ACAD_REACTORS
330
59A
102
}
330
59A
100
AcDbXrecord
280
     1
  1
_0100-
  1
*0100-*
  1
*
  1
*
 70
     0
  1
*
  1
*
  0
XRECORD
  5
59C
102
{ACAD_REACTORS
330
59A
102
}
330
59A
100
AcDbXrecord
280
     1
  1
_0280-
  1
*0280-*
  1
*
  1
*
 70
     0
  1
*
  1
*
  0
XRECORD
  5
5A0
102
{ACAD_REACTORS
330
59A
102
}
330
59A
100
AcDbXrecord
280
     1
  1
_Color 253
  1
*
  1
253
  1
*
 70
     0
  1
*
  1
*
  0
XRECORD
  5
59E
102
{ACAD_REACTORS
330
59A
102
}
330
59A
100
AcDbXrecord
280
     1
  1
_Color 8
  1
*
  1
8
  1
*
 70
     0
  1
*
  1
*
  0
XRECORD
  5
59F
102
{ACAD_REACTORS
330
59A
102
}
330
59A
100
AcDbXrecord
280
     1
  1
_Color 84
  1
*
  1
84
  1
*
 70
     0
  1
*
  1
*
  0
XRECORD
  5
5A5
102
{ACAD_REACTORS
330
59A
102
}
330
59A
100
AcDbXrecord
280
     1
  1
_Contours
  1
*contour*,*cont-*,*cp cont*,*p-cont*
  1
*
  1
*
 70
     0
  1
*
  1
*
  0
XRECORD
  5
5A1
102
{ACAD_REACTORS
330
59A
102
}
330
59A
100
AcDbXrecord
280
     1
  1
_Existing
  1
*exist*
  1
*
  1
*
 70
     0
  1
*
  1
*
  0
XRECORD
  5
5A4
102
{ACAD_REACTORS
330
59A
102
}
330
59A
100
AcDbXrecord
280
     1
  1
_Hardscape
  1
*sidewalk*,*sw*,*curb*,*walk*,*-lip*,*tbc*
  1
*
  1
*
 70
     0
  1
*
  1
*
  0
XRECORD
  5
59B
102
{ACAD_REACTORS
330
59A
102
}
330
59A
100
AcDbXrecord
280
     1
  1
_NoXref
  1
~*|*
  1
*
  1
*
 70
     0
  1
*
  1
*
  0
XRECORD
  5
5A2
102
{ACAD_REACTORS
330
59A
102
}
330
59A
100
AcDbXrecord
280
     1
  1
_Row
  1
*row*
  1
*
  1
*
 70
     0
  1
*
  1
*
  0
XRECORD
  5
5A3
102
{ACAD_REACTORS
330
59A
102
}
330
59A
100
AcDbXrecord
280
     1
  1
_Utility
  1
*ut-*,*utility*,*wat*
  1
*
  1
*
 70
     0
  1
*
  1
*
  0
DICTIONARY
  5
3A3
330
3A2
100
AcDbDictionary
280
     1
281
     1
  3
ACAD_XREC_ROUNDTRIP
360
5C8
  3
BUMPTILE
360
3A5
  3
DIFFUSETILE
360
3A4
  3
OPACITYTILE
360
3A8
  3
REFLECTIONTILE
360
3A7
  3
REFRACTIONTILE
360
3A9
  3
SPECULARTILE
360
3A6
  0
DICTIONARY
  5
39B
330
39A
100
AcDbDictionary
280
     1
281
     1
  3
ACAD_XREC_ROUNDTRIP
360
5C7
  3
BUMPTILE
360
39D
  3
DIFFUSETILE
360
39C
  3
OPACITYTILE
360
3A0
  3
REFLECTIONTILE
360
39F
  3
REFRACTIONTILE
360
3A1
  3
SPECULARTILE
360
39E
  0
DICTIONARY
  5
3AB
330
3AA
100
AcDbDictionary
280
     1
281
     1
  3
ACAD_XREC_ROUNDTRIP
360
5C9
  3
BUMPTILE
360
3AD
  3
DIFFUSETILE
360
3AC
  3
OPACITYTILE
360
3B0
  3
REFLECTIONTILE
360
3AF
  3
REFRACTIONTILE
360
3B1
  3
SPECULARTILE
360
3AE
  0
DICTIONARY
  5
427
330
3C5
100
AcDbDictionary
280
     1
281
     1
  3
ACAD_ROUNDTRIP_2008_TABLESTYLE_CELLSTYLEMAP
360
5C6
  3
ACAD_XREC_ROUNDTRIP
360
5CA
  0
XRECORD
  5
5C8
102
{ACAD_REACTORS
330
3A3
102
}
330
3A3
100
AcDbXrecord
280
     1
102
MATERIAL
148
0.0
149
0.0
149
0.0
 93
        0
 94
      127
282
     0
 72
     0
 77
     0
171
     0
175
     0
179
     0
273
     0
  0
XRECORD
  5
3A5
102
{ACAD_REACTORS
330
3A3
102
}
330
3A3
100
AcDbXrecord
280
     1
270
     1
271
     1
  0
XRECORD
  5
3A4
102
{ACAD_REACTORS
330
3A3
102
}
330
3A3
100
AcDbXrecord
280
     1
270
     1
271
     1
  0
XRECORD
  5
3A8
102
{ACAD_REACTORS
330
3A3
102
}
330
3A3
100
AcDbXrecord
280
     1
270
     1
271
     1
  0
XRECORD
  5
3A7
102
{ACAD_REACTORS
330
3A3
102
}
330
3A3
100
AcDbXrecord
280
     1
270
     1
271
     1
  0
XRECORD
  5
3A9
102
{ACAD_REACTORS
330
3A3
102
}
330
3A3
100
AcDbXrecord
280
     1
270
     1
271
     1
  0
XRECORD
  5
3A6
102
{ACAD_REACTORS
330
3A3
102
}
330
3A3
100
AcDbXrecord
280
     1
270
     1
271
     1
  0
XRECORD
  5
5C7
102
{ACAD_REACTORS
330
39B
102
}
330
39B
100
AcDbXrecord
280
     1
102
MATERIAL
148
0.0
149
0.0
149
0.0
 93
        0
 94
      127
282
     0
 72
     0
 77
     0
171
     0
175
     0
179
     0
273
     0
  0
XRECORD
  5
39D
102
{ACAD_REACTORS
330
39B
102
}
330
39B
100
AcDbXrecord
280
     1
270
     1
271
     1
  0
XRECORD
  5
39C
102
{ACAD_REACTORS
330
39B
102
}
330
39B
100
AcDbXrecord
280
     1
270
     1
271
     1
  0
XRECORD
  5
3A0
102
{ACAD_REACTORS
330
39B
102
}
330
39B
100
AcDbXrecord
280
     1
270
     1
271
     1
  0
XRECORD
  5
39F
102
{ACAD_REACTORS
330
39B
102
}
330
39B
100
AcDbXrecord
280
     1
270
     1
271
     1
  0
XRECORD
  5
3A1
102
{ACAD_REACTORS
330
39B
102
}
330
39B
100
AcDbXrecord
280
     1
270
     1
271
     1
  0
XRECORD
  5
39E
102
{ACAD_REACTORS
330
39B
102
}
330
39B
100
AcDbXrecord
280
     1
270
     1
271
     1
  0
XRECORD
  5
5C9
102
{ACAD_REACTORS
330
3AB
102
}
330
3AB
100
AcDbXrecord
280
     1
102
MATERIAL
148
0.0
149
0.0
149
0.0
 93
        0
 94
      127
282
     0
 72
     0
 77
     0
171
     0
175
     0
179
     0
273
     0
  0
XRECORD
  5
3AD
102
{ACAD_REACTORS
330
3AB
102
}
330
3AB
100
AcDbXrecord
280
     1
270
     1
271
     1
  0
XRECORD
  5
3AC
102
{ACAD_REACTORS
330
3AB
102
}
330
3AB
100
AcDbXrecord
280
     1
270
     1
271
     1
  0
XRECORD
  5
3B0
102
{ACAD_REACTORS
330
3AB
102
}
330
3AB
100
AcDbXrecord
280
     1
270
     1
271
     1
  0
XRECORD
  5
3AF
102
{ACAD_REACTORS
330
3AB
102
}
330
3AB
100
AcDbXrecord
280
     1
270
     1
271
     1
  0
XRECORD
  5
3B1
102
{ACAD_REACTORS
330
3AB
102
}
330
3AB
100
AcDbXrecord
280
     1
270
     1
271
     1
  0
XRECORD
  5
3AE
102
{ACAD_REACTORS
330
3AB
102
}
330
3AB
100
AcDbXrecord
280
     1
270
     1
271
     1
  0
CELLSTYLEMAP
  5
5C6
102
{ACAD_REACTORS
330
427
102
}
330
427
100
AcDbCellStyleMap
 90
        3
300
CELLSTYLE
  1
TABLEFORMAT_BEGIN
 90
        5
170
     1
 91
        0
 92
    32768
 62
   257
 93
        1
300
CONTENTFORMAT
  1
CONTENTFORMAT_BEGIN
 90
        0
 91
        0
 92
      512
 93
        0
300

 40
0.0
140
1.0
 94
        5
 62
     0
340
11
144
0.25
309
CONTENTFORMAT_END
171
     0
 94
        0
309
TABLEFORMAT_END
  1
CELLSTYLE_BEGIN
 90
        1
 91
        1
300
_TITLE
309
CELLSTYLE_END
300
CELLSTYLE
  1
TABLEFORMAT_BEGIN
 90
        5
170
     1
 91
        0
 92
        0
 62
   257
 93
        1
300
CONTENTFORMAT
  1
CONTENTFORMAT_BEGIN
 90
        0
 91
        0
 92
      512
 93
        0
300

 40
0.0
140
1.0
 94
        5
 62
     0
340
11
144
0.18
309
CONTENTFORMAT_END
171
     0
 94
        0
309
TABLEFORMAT_END
  1
CELLSTYLE_BEGIN
 90
        2
 91
        1
300
_HEADER
309
CELLSTYLE_END
300
CELLSTYLE
  1
TABLEFORMAT_BEGIN
 90
        5
170
     1
 91
        0
 92
        0
 62
   257
 93
        1
300
CONTENTFORMAT
  1
CONTENTFORMAT_BEGIN
 90
        0
 91
        0
 92
      512
 93
        0
300

 40
0.0
140
1.0
 94
        2
 62
     0
340
11
144
0.18
309
CONTENTFORMAT_END
171
     0
 94
        0
309
TABLEFORMAT_END
  1
CELLSTYLE_BEGIN
 90
        3
 91
        2
300
_DATA
309
CELLSTYLE_END
  0
XRECORD
  5
5CA
102
{ACAD_REACTORS
330
427
102
}
330
427
100
AcDbXrecord
280
     1
102
ACAD_ROUNDTRIP_PRE2007_TABLESTYLE
 90
      512
 91
        0
  1

 92
      512
 93
        0
  2

 94
      512
 95
        0
  3

  0
ENDSEC
  0
EOF
