  0
SECTION
  2
HEADER
  9
$ACADVER
  1
AC1015
  9
$ACADMAINTVER
 70
    13
  9
$DWGCODEPAGE
  3
ANSI_1252
  9
$INSBASE
 10
0.0
 20
0.0
 30
0.0
  9
$EXTMIN
 10
19.41243179213073
 20
1.897298729554573
 30
0.0
  9
$EXTMAX
 10
35.90243179213073
 20
12.33729872955457
 30
0.03
  9
$LIMMIN
 10
0.0
 20
0.0
  9
$LIMMAX
 10
12.0
 20
9.0
  9
$ORTHOMODE
 70
     1
  9
$REGENMODE
 70
     1
  9
$FILLMODE
 70
     1
  9
$QTEXTMODE
 70
     0
  9
$MIRRTEXT
 70
     0
  9
$LTSCALE
 40
1.0
  9
$ATTMODE
 70
     1
  9
$TEXTSIZE
 40
0.1
  9
$TRACEWID
 40
0.05
  9
$TEXTSTYLE
  7
L200
  9
$CLAYER
  8
TITLE
  9
$CELTYPE
  6
ByLayer
  9
$CECOLOR
 62
   256
  9
$CELTSCALE
 40
1.0
  9
$DISPSILH
 70
     0
  9
$DIMSCALE
 40
1.0
  9
$DIMASZ
 40
0.1
  9
$DIMEXO
 40
0.0625
  9
$DIMDLI
 40
0.38
  9
$DIMRND
 40
0.0
  9
$DIMDLE
 40
0.0
  9
$DIMEXE
 40
0.18
  9
$DIMTP
 40
0.0
  9
$DIMTM
 40
0.0
  9
$DIMTXT
 40
0.18
  9
$DIMCEN
 40
0.09
  9
$DIMTSZ
 40
0.0
  9
$DIMTOL
 70
     0
  9
$DIMLIM
 70
     0
  9
$DIMTIH
 70
     1
  9
$DIMTOH
 70
     1
  9
$DIMSE1
 70
     0
  9
$DIMSE2
 70
     0
  9
$DIMTAD
 70
     0
  9
$DIMZIN
 70
     0
  9
$DIMBLK
  1

  9
$DIMASO
 70
     1
  9
$DIMSHO
 70
     0
  9
$DIMPOST
  1

  9
$DIMAPOST
  1

  9
$DIMALT
 70
     0
  9
$DIMALTD
 70
     2
  9
$DIMALTF
 40
25.4
  9
$DIMLFAC
 40
1.0
  9
$DIMTOFL
 70
     0
  9
$DIMTVP
 40
0.0
  9
$DIMTIX
 70
     0
  9
$DIMSOXD
 70
     0
  9
$DIMSAH
 70
     0
  9
$DIMBLK1
  1

  9
$DIMBLK2
  1

  9
$DIMSTYLE
  2
Standard
  9
$DIMCLRD
 70
     0
  9
$DIMCLRE
 70
     0
  9
$DIMCLRT
 70
     0
  9
$DIMTFAC
 40
1.0
  9
$DIMGAP
 40
0.09
  9
$DIMJUST
 70
     0
  9
$DIMSD1
 70
     0
  9
$DIMSD2
 70
     0
  9
$DIMTOLJ
 70
     1
  9
$DIMTZIN
 70
     0
  9
$DIMALTZ
 70
     0
  9
$DIMALTTZ
 70
     0
  9
$DIMUPT
 70
     0
  9
$DIMDEC
 70
     4
  9
$DIMTDEC
 70
     4
  9
$DIMALTU
 70
     2
  9
$DIMALTTD
 70
     2
  9
$DIMTXSTY
  7
STANDARD
  9
$DIMAUNIT
 70
     0
  9
$DIMADEC
 70
     0
  9
$DIMALTRND
 40
0.0
  9
$DIMAZIN
 70
     0
  9
$DIMDSEP
 70
    46
  9
$DIMATFIT
 70
     3
  9
$DIMFRAC
 70
     0
  9
$DIMLDRBLK
  1

  9
$DIMLUNIT
 70
     2
  9
$DIMLWD
 70
    -2
  9
$DIMLWE
 70
    -2
  9
$DIMTMOVE
 70
     2
  9
$LUNITS
 70
     2
  9
$LUPREC
 70
     4
  9
$SKETCHINC
 40
0.1
  9
$FILLETRAD
 40
0.0
  9
$AUNITS
 70
     0
  9
$AUPREC
 70
     0
  9
$MENU
  1
acad
  9
$ELEVATION
 40
0.0
  9
$PELEVATION
 40
0.0
  9
$THICKNESS
 40
0.0
  9
$LIMCHECK
 70
     0
  9
$CHAMFERA
 40
0.0
  9
$CHAMFERB
 40
0.0
  9
$CHAMFERC
 40
0.0
  9
$CHAMFERD
 40
0.0
  9
$SKPOLY
 70
     0
  9
$TDCREATE
 40
2450450.382087268
  9
$TDUCREATE
 40
2450450.673753935
  9
$TDUPDATE
 40
2453021.563238333
  9
$TDUUPDATE
 40
2453021.854905000
  9
$TDINDWG
 40
0.4078204630
  9
$TDUSRTIMER
 40
0.4078204630
  9
$USRTIMER
 70
     1
  9
$ANGBASE
 50
0.0
  9
$ANGDIR
 70
     0
  9
$PDMODE
 70
     0
  9
$PDSIZE
 40
0.0
  9
$PLINEWID
 40
0.018
  9
$SPLFRAME
 70
     0
  9
$SPLINETYPE
 70
     6
  9
$SPLINESEGS
 70
     8
  9
$HANDSEED
  5
2D5
  9
$SURFTAB1
 70
     6
  9
$SURFTAB2
 70
     6
  9
$SURFTYPE
 70
     6
  9
$SURFU
 70
     6
  9
$SURFV
 70
     6
  9
$UCSBASE
  2

  9
$UCSNAME
  2

  9
$UCSORG
 10
0.0
 20
0.0
 30
0.0
  9
$UCSXDIR
 10
1.0
 20
0.0
 30
0.0
  9
$UCSYDIR
 10
0.0
 20
1.0
 30
0.0
  9
$UCSORTHOREF
  2

  9
$UCSORTHOVIEW
 70
     0
  9
$UCSORGTOP
 10
0.0
 20
0.0
 30
0.0
  9
$UCSORGBOTTOM
 10
0.0
 20
0.0
 30
0.0
  9
$UCSORGLEFT
 10
0.0
 20
0.0
 30
0.0
  9
$UCSORGRIGHT
 10
0.0
 20
0.0
 30
0.0
  9
$UCSORGFRONT
 10
0.0
 20
0.0
 30
0.0
  9
$UCSORGBACK
 10
0.0
 20
0.0
 30
0.0
  9
$PUCSBASE
  2

  9
$PUCSNAME
  2

  9
$PUCSORG
 10
0.0
 20
0.0
 30
0.0
  9
$PUCSXDIR
 10
1.0
 20
0.0
 30
0.0
  9
$PUCSYDIR
 10
0.0
 20
1.0
 30
0.0
  9
$PUCSORTHOREF
  2

  9
$PUCSORTHOVIEW
 70
     0
  9
$PUCSORGTOP
 10
0.0
 20
0.0
 30
0.0
  9
$PUCSORGBOTTOM
 10
0.0
 20
0.0
 30
0.0
  9
$PUCSORGLEFT
 10
0.0
 20
0.0
 30
0.0
  9
$PUCSORGRIGHT
 10
0.0
 20
0.0
 30
0.0
  9
$PUCSORGFRONT
 10
0.0
 20
0.0
 30
0.0
  9
$PUCSORGBACK
 10
0.0
 20
0.0
 30
0.0
  9
$USERI1
 70
     0
  9
$USERI2
 70
     0
  9
$USERI3
 70
     0
  9
$USERI4
 70
     0
  9
$USERI5
 70
     0
  9
$USERR1
 40
1.0
  9
$USERR2
 40
1.0
  9
$USERR3
 40
0.0
  9
$USERR4
 40
0.0
  9
$USERR5
 40
0.0
  9
$WORLDVIEW
 70
     1
  9
$SHADEDGE
 70
     3
  9
$SHADEDIF
 70
    70
  9
$TILEMODE
 70
     1
  9
$MAXACTVP
 70
    16
  9
$PINSBASE
 10
0.0
 20
0.0
 30
0.0
  9
$PLIMCHECK
 70
     0
  9
$PEXTMIN
 10
1.000000000000000E+20
 20
1.000000000000000E+20
 30
1.000000000000000E+20
  9
$PEXTMAX
 10
-1.000000000000000E+20
 20
-1.000000000000000E+20
 30
-1.000000000000000E+20
  9
$PLIMMIN
 10
0.0
 20
0.0
  9
$PLIMMAX
 10
12.0
 20
9.0
  9
$UNITMODE
 70
     0
  9
$VISRETAIN
 70
     0
  9
$PLINEGEN
 70
     1
  9
$PSLTSCALE
 70
     0
  9
$TREEDEPTH
 70
  3020
  9
$CMLSTYLE
  2
Standard
  9
$CMLJUST
 70
     0
  9
$CMLSCALE
 40
1.0
  9
$PROXYGRAPHICS
 70
     1
  9
$MEASUREMENT
 70
     0
  9
$CELWEIGHT
370
    -1
  9
$ENDCAPS
280
     0
  9
$JOINSTYLE
280
     0
  9
$LWDISPLAY
290
     0
  9
$INSUNITS
 70
     0
  9
$HYPERLINKBASE
  1

  9
$STYLESHEET
  1
8500ColorShaded.ctb
  9
$XEDIT
290
     1
  9
$CEPSNTYPE
380
     0
  9
$PSTYLEMODE
290
     1
  9
$FINGERPRINTGUID
  2
{F8001074-C320-4A67-8977-AB6ABBF184D2}
  9
$VERSIONGUID
  2
{750400F4-EEB1-4C2A-89FB-EA9AE5CD6CE9}
  9
$EXTNAMES
290
     1
  9
$PSVPSCALE
 40
0.0
  9
$OLESTARTUP
290
     0
  0
ENDSEC
  0
SECTION
  2
CLASSES
  0
CLASS
  1
ACDBDICTIONARYWDFLT
  2
AcDbDictionaryWithDefault
  3
AutoCAD 2000
 90
        0
280
     0
281
     0
  0
CLASS
  1
ACDBPLACEHOLDER
  2
AcDbPlaceHolder
  3
AutoCAD 2000
 90
        0
280
     0
281
     0
  0
CLASS
  1
LAYOUT
  2
AcDbLayout
  3
AutoCAD 2000
 90
        0
280
     0
281
     0
  0
CLASS
  1
DICTIONARYVAR
  2
AcDbDictionaryVar
  3
AutoCAD 2000
 90
        0
280
     0
281
     0
  0
CLASS
  1
PLOTSETTINGS
  2
AcDbPlotSettings
  3
AutoCAD 2000
 90
    32768
280
     0
281
     0
  0
ENDSEC
  0
SECTION
  2
TABLES
  0
TABLE
  2
VPORT
  5
19
330
0
100
AcDbSymbolTable
 70
     4
  0
VPORT
  5
2D4
330
19
100
AcDbSymbolTableRecord
100
AcDbViewportTableRecord
  2
*Active
 70
     0
 10
0.0
 20
0.0
 11
1.0
 21
1.0
 12
27.65743179213074
 22
7.117298729554574
 13
0.0
 23
0.0
 14
1.0
 24
1.0
 15
0.0
 25
0.0
 16
0.0
 26
0.0
 36
1.0
 17
0.0
 27
0.0
 37
0.0
 40
10.52628099173553
 41
1.609655172413793
 42
50.0
 43
0.0
 44
0.0
 50
0.0
 51
0.0
 71
     0
 72
  1000
 73
     1
 74
     0
 75
     0
 76
     0
 77
     0
 78
     1
281
     0
 65
     1
110
0.0
120
0.0
130
0.0
111
1.0
121
0.0
131
0.0
112
0.0
122
1.0
132
0.0
 79
     0
146
0.0
  0
ENDTAB
  0
TABLE
  2
LTYPE
  5
14
330
0
100
AcDbSymbolTable
 70
     2
  0
LTYPE
  5
15
330
14
100
AcDbSymbolTableRecord
100
AcDbLinetypeTableRecord
  2
ByBlock
 70
     0
  3

 72
    65
 73
     0
 40
0.0
  0
LTYPE
  5
16
330
14
100
AcDbSymbolTableRecord
100
AcDbLinetypeTableRecord
  2
ByLayer
 70
     0
  3

 72
    65
 73
     0
 40
0.0
  0
LTYPE
  5
8
330
14
100
AcDbSymbolTableRecord
100
AcDbLinetypeTableRecord
  2
CONTINUOUS
 70
     0
  3
Solid line
 72
    65
 73
     0
 40
0.0
  0
ENDTAB
  0
TABLE
  2
LAYER
  5
10
102
{ACAD_XDICTIONARY
360
295
102
}
330
0
100
AcDbSymbolTable
 70
     5
  0
LAYER
  5
4
330
10
100
AcDbSymbolTableRecord
100
AcDbLayerTableRecord
  2
0
 70
     0
 62
     7
  6
CONTINUOUS
370
    -3
390
5
  0
LAYER
  5
22
330
10
100
AcDbSymbolTableRecord
100
AcDbLayerTableRecord
  2
TITLE
 70
     0
 62
     7
  6
CONTINUOUS
370
    -3
390
5
  0
LAYER
  5
27
330
10
100
AcDbSymbolTableRecord
100
AcDbLayerTableRecord
  2
IMAGE
 70
     0
 62
     7
  6
CONTINUOUS
370
    -3
390
5
  0
LAYER
  5
2C
330
10
100
AcDbSymbolTableRecord
100
AcDbLayerTableRecord
  2
TEXT_BUBBLES
 70
     0
 62
     7
  6
CONTINUOUS
370
    -3
390
5
  0
ENDTAB
  0
TABLE
  2
STYLE
  5
11
330
0
100
AcDbSymbolTable
 70
     5
  0
STYLE
  5
12
330
11
100
AcDbSymbolTableRecord
100
AcDbTextStyleTableRecord
  2
STANDARD
 70
     0
 40
0.0
 41
1.0
 50
0.0
 71
     0
 42
0.2
  3
txt
  4

  0
STYLE
  5
3A
330
11
100
AcDbSymbolTableRecord
100
AcDbTextStyleTableRecord
  2
L100
 70
     0
 40
0.07
 41
1.0
 50
0.0
 71
     0
 42
0.07
  3
SIMPLEX
  4

  0
STYLE
  5
23
330
11
100
AcDbSymbolTableRecord
100
AcDbTextStyleTableRecord
  2
L200
 70
     0
 40
0.2
 41
1.0
 50
0.0
 71
     0
 42
0.1
  3
ARIAL.TTF
  4

1001
ACAD
1000
Arial
1071
       34
  0
STYLE
  5
3D
330
11
100
AcDbSymbolTableRecord
100
AcDbTextStyleTableRecord
  2
L80
 70
     0
 40
0.08
 41
1.0
 50
0.0
 71
     0
 42
0.08
  3
ROMANS
  4

  0
STYLE
  5
2B
330
11
100
AcDbSymbolTableRecord
100
AcDbTextStyleTableRecord
  2
ROMANS
 70
     0
 40
0.0
 41
1.0
 50
0.0
 71
     0
 42
0.1
  3
romans
  4

  0
ENDTAB
  0
TABLE
  2
VIEW
  5
17
330
0
100
AcDbSymbolTable
 70
     0
  0
ENDTAB
  0
TABLE
  2
UCS
  5
18
330
0
100
AcDbSymbolTable
 70
     0
  0
ENDTAB
  0
TABLE
  2
APPID
  5
1B
330
0
100
AcDbSymbolTable
 70
     1
  0
APPID
  5
1C
330
1B
100
AcDbSymbolTableRecord
100
AcDbRegAppTableRecord
  2
ACAD
 70
     0
  0
ENDTAB
  0
TABLE
  2
DIMSTYLE
  5
1D
330
0
100
AcDbSymbolTable
 70
     1
100
AcDbDimStyleTable
 71
     0
  0
DIMSTYLE
105
25
330
1D
100
AcDbSymbolTableRecord
100
AcDbDimStyleTableRecord
  2
Standard
 70
     0
340
12
  0
ENDTAB
  0
TABLE
  2
BLOCK_RECORD
  5
1
330
0
100
AcDbSymbolTable
 70
     4
  0
BLOCK_RECORD
  5
2
330
1
100
AcDbSymbolTableRecord
100
AcDbBlockTableRecord
  2
*Model_Space
340
A
  0
BLOCK_RECORD
  5
C
330
1
100
AcDbSymbolTableRecord
100
AcDbBlockTableRecord
  2
*Paper_Space
340
F
  0
BLOCK_RECORD
  5
41
330
1
100
AcDbSymbolTableRecord
100
AcDbBlockTableRecord
  2
TITLBLK
340
0
102
{BLKREFS
331
36
102
}
  0
BLOCK_RECORD
  5
E2
330
1
100
AcDbSymbolTableRecord
100
AcDbBlockTableRecord
  2
IDAEP
340
0
102
{BLKREFS
331
E1
331
273
331
E8
331
254
102
}
  0
BLOCK_RECORD
  5
2D
330
1
100
AcDbSymbolTableRecord
100
AcDbBlockTableRecord
  2
bubble
340
0
310
2800000020000000200000000100080000000000000400000000000000000000000000000000000000000000000080000080000000808000800000008000800080800000C0C0C000C0DCC000F0CAA6000020400000206000002080000020A0000020C0000020E00000400000004020000040400000406000004080000040A0
310
000040C0000040E00000600000006020000060400000606000006080000060A0000060C0000060E00000800000008020000080400000806000008080000080A0000080C0000080E00000A0000000A0200000A0400000A0600000A0800000A0A00000A0C00000A0E00000C0000000C0200000C0400000C0600000C0800000C0
310
A00000C0C00000C0E00000E0000000E0200000E0400000E0600000E0800000E0A00000E0C00000E0E00040000000400020004000400040006000400080004000A0004000C0004000E00040200000402020004020400040206000402080004020A0004020C0004020E000404000004040200040404000404060004040800040
310
40A0004040C0004040E00040600000406020004060400040606000406080004060A0004060C0004060E00040800000408020004080400040806000408080004080A0004080C0004080E00040A0000040A0200040A0400040A0600040A0800040A0A00040A0C00040A0E00040C0000040C0200040C0400040C0600040C08000
310
40C0A00040C0C00040C0E00040E0000040E0200040E0400040E0600040E0800040E0A00040E0C00040E0E00080000000800020008000400080006000800080008000A0008000C0008000E00080200000802020008020400080206000802080008020A0008020C0008020E00080400000804020008040400080406000804080
310
008040A0008040C0008040E00080600000806020008060400080606000806080008060A0008060C0008060E00080800000808020008080400080806000808080008080A0008080C0008080E00080A0000080A0200080A0400080A0600080A0800080A0A00080A0C00080A0E00080C0000080C0200080C0400080C0600080C0
310
800080C0A00080C0C00080C0E00080E0000080E0200080E0400080E0600080E0800080E0A00080E0C00080E0E000C0000000C0002000C0004000C0006000C0008000C000A000C000C000C000E000C0200000C0202000C0204000C0206000C0208000C020A000C020C000C020E000C0400000C0402000C0404000C0406000C0
310
408000C040A000C040C000C040E000C0600000C0602000C0604000C0606000C0608000C060A000C060C000C060E000C0800000C0802000C0804000C0806000C0808000C080A000C080C000C080E000C0A00000C0A02000C0A04000C0A06000C0A08000C0A0A000C0A0C000C0A0E000C0C00000C0C02000C0C04000C0C06000
310
C0C08000C0C0A000F0FBFF00A4A0A000808080000000FF0000FF000000FFFF00FF000000FF00FF00FFFF0000FFFFFF0008080808080808080808080808080808080808080808080808080808080808080808080808080808080808080808080808080808080808080808080808080808080808080808080808080808FDFDFD
310
08080808080808080808080808080808080808080808080808080808FD080808FDFDFDFDFDFD0808080808080808080808080808080808080808FDFD08080808080808080808FDFDFDFD080808080808080808080808080808FD08080808080808080808080808080808FD08080808080808080808080808FD080808080808
310
0808080808080808080808FD0808080808080808080808FDFD08080808080808080808080808080808080808FD080808080808080808FD080808080808080808080808080808080808080808FD0808080808080808FD08FD0808080808080808FD0808FD0808080808080808FDFD08080808080808FD0808FD080808080808
310
FD08080808FD080808080808FD08FD08080808080808FD0808FD080808080808FD08080808FD080808080808FD0808FD080808080808FD080808FD08080808FD080808080808FD08080808FD080808FD080808080808FD08080808FD0808FD0808080808080808FD0808FD0808080808FD0808080808FD08080808FD0808FD
310
0808080808080808FD0808FD0808080808FD0808080808FD0808080808FDFD08080808080808080808FDFD08080808080808FD08080808FD0808080808FDFD08080808080808080808FDFD08080808080808FD08080808FD08080808FD0808FD0808080808080808FD0808FD0808080808FD0808080808FD08080808FD0808
310
FD0808080808080808FD0808FD0808080808FD0808080808FD080808FD08080808FD080808080808FD08080808FD080808FD080808080808FD0808FD080808080808FD08080808FD080808080808FD0808FD080808080808FD0808FD080808080808FD08080808FD080808080808FD08FD08080808080808FD08FD08080808
310
08080808FD0808FD0808080808080808FDFD0808080808080808FD080808080808080808080808080808080808080808FD08080808080808080808FDFD08080808080808080808080808080808080808FD080808080808080808080808FD0808080808080808080808080808080808FD0808080808080808080808080808FD
310
08080808080808080808080808080808FD080808080808080808080808080808FDFD0808080808080808080808FDFDFD080808080808080808080808080808080808FD08080808FDFDFDFDFDFD08080808080808080808080808080808080808080808FDFDFDFD080808080808080808080808080808080808080808080808
310
0808080808080808080808080808080808080808080808080808080808080808080808080808080808080808080808080808080808080808
102
{BLKREFS
331
27F
331
279
331
27C
331
276
331
51
331
29
331
13D
331
17F
331
2B8
331
2BC
102
}
  0
BLOCK_RECORD
  5
2BB
330
1
100
AcDbSymbolTableRecord
100
AcDbBlockTableRecord
  2
A$C0109281F
340
0
102
{BLKREFS
331
2C3
102
}
  0
ENDTAB
  0
ENDSEC
  0
SECTION
  2
BLOCKS
  0
BLOCK
  5
3
330
2
100
AcDbEntity
  8
0
100
AcDbBlockBegin
  2
*Model_Space
 70
     0
 10
0.0
 20
0.0
 30
0.0
  3
*Model_Space
  1

  0
ENDBLK
  5
9
330
2
100
AcDbEntity
  8
0
100
AcDbBlockEnd
  0
BLOCK
  5
D
330
C
100
AcDbEntity
 67
     1
  8
0
100
AcDbBlockBegin
  2
*Paper_Space
 70
     0
 10
0.0
 20
0.0
 30
0.0
  3
*Paper_Space
  1

  0
ENDBLK
  5
E
330
C
100
AcDbEntity
 67
     1
  8
0
100
AcDbBlockEnd
  0
BLOCK
  5
4A
330
41
100
AcDbEntity
  8
0
100
AcDbBlockBegin
  2
TITLBLK
 70
     2
 10
0.0
 20
0.0
 30
0.0
  3
TITLBLK
  1

  0
LWPOLYLINE
  5
42
330
41
100
AcDbEntity
  8
0
100
AcDbPolyline
 90
        2
 70
     0
 43
0.04
 39
0.03
 10
0.3424999999999994
 20
-0.0000000000000003
 10
7.654581983261419
 20
-0.0000000000000003
  0
ATTDEF
  5
43
330
41
100
AcDbEntity
  8
0
100
AcDbText
 10
0.625
 20
0.0999999999999998
 30
0.0
 40
0.2
  1
TITLE
  7
L200
100
AcDbAttributeDefinition
  3
DETAIL TITLE
  2
TITLE
 70
     0
  0
LWPOLYLINE
  5
44
330
41
100
AcDbEntity
  8
0
100
AcDbPolyline
 90
        2
 70
     1
 43
0.03
 10
0.0
 20
-0.3425000000000002
 42
0.9999999999999998
 10
0.0
 20
0.3425000000000002
 42
0.9999999999999998
  0
ATTDEF
  5
45
330
41
100
AcDbEntity
  8
0
100
AcDbText
 10
-0.0776944065484311
 20
-0.1000000000000003
 30
0.0
 40
0.2
  1
#
  7
L200
 72
     4
 11
0.0
 21
-0.0000000000000003
 31
0.0
100
AcDbAttributeDefinition
  3
#
  2
#
 70
     0
  0
ATTDEF
  5
46
330
41
100
AcDbEntity
  8
0
100
AcDbText
 10
0.625
 20
-0.1836633170828782
 30
0.0
 40
0.1
  1
N.T.S.
  7
L100
100
AcDbAttributeDefinition
  3
SCALE
  2
SCALE
 70
     0
  0
ATTDEF
  5
47
330
41
100
AcDbEntity
  8
0
100
AcDbText
 10
2.107203380653828
 20
-0.2914343300200487
 30
0.0
 40
0.2
  1
TITLE2
  7
L200
100
AcDbAttributeDefinition
  3
DETAIL TITLE2
  2
TITLE2
 70
     0
  0
ATTDEF
  5
48
330
41
100
AcDbEntity
  8
0
100
AcDbText
 10
7.570772459451895
 20
-0.1618486459795794
 30
0.0
 40
0.08
  1
-
  7
L80
 72
     2
 11
7.654581983261419
 21
-0.1618486459795794
 31
0.0
100
AcDbAttributeDefinition
  3
DWG-NAME
  2
DWG-NAME
 70
     0
  0
ATTDEF
  5
49
330
41
100
AcDbEntity
  8
0
100
AcDbText
 10
7.570772459451895
 20
0.0853756950662722
 30
0.0
 40
0.08
  1
-
  7
L80
 72
     2
 11
7.654581983261419
 21
0.0853756950662722
 31
0.0
100
AcDbAttributeDefinition
  3
REVISION DATE
  2
REVISED
 70
     0
  0
ENDBLK
  5
4B
330
41
100
AcDbEntity
  8
0
100
AcDbBlockEnd
  0
BLOCK
  5
E4
330
E2
100
AcDbEntity
  8
0
100
AcDbBlockBegin
  2
IDAEP
 70
     0
 10
0.0
 20
0.0
 30
0.0
  3
IDAEP
  1

  0
LWPOLYLINE
  5
E3
330
E2
100
AcDbEntity
  8
0
100
AcDbPolyline
 90
        3
 70
     0
 43
0.0016666666666667
 10
0.0
 20
0.4999999999999981
 42
0.9999999999999998
 10
0.0
 20
0.0
 42
-0.9999999999999998
 10
0.0
 20
-0.4999999999999981
 42
5441543991412035
  0
ENDBLK
  5
E5
330
E2
100
AcDbEntity
  8
0
100
AcDbBlockEnd
  0
BLOCK
  5
30
330
2D
100
AcDbEntity
  8
0
100
AcDbBlockBegin
  2
bubble
 70
     2
 10
0.0
 20
0.0
 30
0.0
  3
bubble
  1

  0
CIRCLE
  5
2E
330
2D
100
AcDbEntity
  8
0
100
AcDbCircle
 10
0.0
 20
0.0
 30
0.0
 40
0.1398891854377198
  0
ATTDEF
  5
2F
330
2D
100
AcDbEntity
  8
0
100
AcDbText
 10
0.0
 20
0.0
 30
0.0
 40
0.125
  1

  7
ROMANS
 72
     4
 11
0.0
 21
0.0
 31
0.0
100
AcDbAttributeDefinition
  3
Number
  2
XX
 70
     0
  0
ENDBLK
  5
31
330
2D
100
AcDbEntity
  8
0
100
AcDbBlockEnd
  0
BLOCK
  5
2C1
330
2BB
100
AcDbEntity
  8
0
 62
     7
100
AcDbBlockBegin
  2
A$C0109281F
 70
     0
 10
0.0
 20
0.0
 30
0.0
  3
A$C0109281F
  1

  0
INSERT
  5
2BC
330
2BB
100
AcDbEntity
  8
0
100
AcDbBlockReference
 66
     1
  2
bubble
 10
0.4315355895568063
 20
0.4321897707575593
 30
0.0
  0
ATTRIB
  5
2BD
330
2BC
100
AcDbEntity
  8
0
100
AcDbText
 10
0.3720117800329968
 20
0.3696897707575593
 30
0.0
 40
0.125
  1
5
  7
ROMANS
 72
     4
 11
0.4315355895568063
 21
0.4321897707575593
 31
0.0
100
AcDbAttribute
  2
XX
 70
     0
  0
SEQEND
  5
2BE
330
2BC
100
AcDbEntity
  8
0
  0
LINE
  5
2BF
330
2BB
100
AcDbEntity
  8
0
100
AcDbLine
 10
0.0921024351219988
 20
0.0927631182366957
 30
0.0
 11
0.3368288290296322
 21
0.3292353453408898
 31
0.0
  0
SOLID
  5
2C0
330
2BB
100
AcDbEntity
  8
0
100
AcDbTrace
 10
0.1065790041173404
 20
0.0777812382511689
 30
0.0
 11
0.07762586612665
 21
0.107744998222226
 31
0.0
 12
0.0022111552088238
 22
0.0059037042646279
 32
0.0
 13
0.0022111552088238
 23
0.0059037042646279
 33
0.0
  0
ENDBLK
  5
2C2
330
2BB
100
AcDbEntity
  8
0
 62
     7
100
AcDbBlockEnd
  0
ENDSEC
  0
SECTION
  2
ENTITIES
  0
LWPOLYLINE
  5
26
330
2
100
AcDbEntity
  8
IMAGE
100
AcDbPolyline
 90
        2
 70
     0
 43
0.018
 10
21.85919592724008
 20
6.717004913717206
 10
21.85919592724008
 20
5.867584413147047
  0
LWPOLYLINE
  5
28
330
2
100
AcDbEntity
  8
IMAGE
100
AcDbPolyline
 90
        2
 70
     0
 43
0.018
 10
21.45810160050494
 20
6.414070928516043
 10
21.45810160050494
 20
5.86964047831471
  0
INSERT
  5
29
330
2
100
AcDbEntity
  8
TEXT_BUBBLES
100
AcDbBlockReference
 66
     1
  2
bubble
 10
25.18979731966709
 20
6.263240913874925
 30
0.0
  0
ATTRIB
  5
2A
330
29
100
AcDbEntity
  8
TEXT_BUBBLES
100
AcDbText
 10
25.13027351014328
 20
6.200740913874925
 30
0.0
 40
0.125
  1
2
  7
ROMANS
 72
     4
 11
25.18979731966709
 21
6.263240913874925
 31
0.0
100
AcDbAttribute
  2
XX
 70
     0
  0
SEQEND
  5
32
330
29
100
AcDbEntity
  8
TEXT_BUBBLES
  0
LWPOLYLINE
  5
33
330
2
100
AcDbEntity
  8
IMAGE
100
AcDbPolyline
 90
        4
 70
     1
 43
0.0
 10
19.41243179213073
 20
1.897298729554573
 10
35.90243179213073
 20
1.897298729554573
 10
35.90243179213073
 20
12.33729872955457
 10
19.41243179213073
 20
12.33729872955457
  0
LINE
  5
34
330
2
100
AcDbEntity
  8
IMAGE
100
AcDbLine
 10
26.89161119663946
 20
6.060543731172197
 30
0.0
 11
27.97243462590165
 21
6.700161826908943
 31
0.0
  0
LINE
  5
35
330
2
100
AcDbEntity
  8
IMAGE
100
AcDbLine
 10
28.10241180258512
 20
6.51564742929548
 30
0.0
 11
26.99652953784564
 21
5.8901439525044
 31
0.0
  0
INSERT
  5
36
330
2
100
AcDbEntity
  8
TEXT_BUBBLES
100
AcDbBlockReference
 66
     1
  2
TITLBLK
 10
20.01887416264521
 20
2.78152582603294
 30
0.0
  0
ATTRIB
  5
37
330
36
100
AcDbEntity
  8
TITLE
100
AcDbText
 10
20.64387416264521
 20
2.88152582603294
 30
0.0
 40
0.2
  1
VARIABLE WIND SPEED DETECTION
  7
L200
100
AcDbAttribute
  2
TITLE2
 70
     0
  0
ATTRIB
  5
38
330
36
100
AcDbEntity
  8
TITLE
100
AcDbText
 10
19.78579094299992
 20
2.681116549088875
 30
0.0
 40
0.2
  1
421
  7
L200
 72
     4
 11
20.01887416264521
 21
2.78152582603294
 31
0.0
100
AcDbAttribute
  2
#
 70
     0
  0
ATTRIB
  5
39
330
36
100
AcDbEntity
  8
TITLE
 62
     7
100
AcDbText
 10
20.64387416264521
 20
2.597862508950062
 30
0.0
 40
0.1
  1
N.T.S.
  7
L100
100
AcDbAttribute
  2
SCALE
 70
     0
  0
ATTRIB
  5
3B
330
36
100
AcDbEntity
  8
TITLE
100
AcDbText
 10
22.12607754329904
 20
2.490091496012892
 30
0.0
 40
0.2
  1
TWO-WIRE COMMUNICATION
  7
L200
100
AcDbAttribute
  2
TITLE3
 70
     0
  0
ATTRIB
  5
3C
330
36
100
AcDbEntity
  8
TITLE
 62
     7
100
AcDbText
 10
19.67337684142221
 20
1.93214334572814
 30
0.0
 40
0.08
  1
421-WIND-322-TW.DWG
  7
L80
 72
     2
 11
21.1438530318984
 21
1.93214334572814
 31
0.0
100
AcDbAttribute
  2
DWG-NAME
 70
     0
  0
ATTRIB
  5
3E
330
36
100
AcDbEntity
  8
TITLE
 62
     7
100
AcDbText
 10
27.10202757447806
 20
2.866901521099213
 30
0.0
 40
0.08
  1
1-16-04
  7
L80
 72
     2
 11
27.67345614590664
 21
2.866901521099213
 31
0.0
100
AcDbAttribute
  2
REVISED
 70
     0
  0
ATTRIB
  5
3F
330
36
100
AcDbEntity
  8
TITLE
100
AcDbText
 10
20.64387416264521
 20
3.241011032301323
 30
0.0
 40
0.2
  1
MAXICOM PULSE DECODER FOR 
  7
L200
100
AcDbAttribute
  2
TITLE1
 70
     0
  0
ATTRIB
  5
40
330
36
100
AcDbEntity
  8
TITLE
100
AcDbText
 10
22.12607754329904
 20
2.166554810371347
 30
0.0
 40
0.2
  1

  7
L200
100
AcDbAttribute
  2
TITLE4
 70
     0
  0
SEQEND
  5
4C
330
36
100
AcDbEntity
  8
TEXT_BUBBLES
  0
LWPOLYLINE
  5
4D
330
2
100
AcDbEntity
  8
IMAGE
100
AcDbPolyline
 90
        4
 70
     1
 43
0.0
 10
20.89971483833051
 20
5.867584413147047
 10
22.37640733973196
 20
5.867584413147047
 10
22.37640733973196
 20
5.017475527222857
 10
20.89971483833051
 20
5.017475527222857
  0
MTEXT
  5
4E
330
2
100
AcDbEntity
  8
IMAGE
100
AcDbMText
 10
21.67770717140787
 20
5.706774084834585
 30
0.0
 40
0.125
 41
1.421
 71
     2
 72
     5
  1
PTPWRSUPP POWER SUPPLY
  7
L100
 73
     1
 44
1.0
  0
LINE
  5
4F
330
2
100
AcDbEntity
  8
TEXT_BUBBLES
100
AcDbLine
 10
22.4642571404283
 20
5.522526185996899
 30
0.0
 11
22.70898353433593
 21
5.758998413101093
 31
0.0
  0
SOLID
  5
50
330
2
100
AcDbEntity
  8
TEXT_BUBBLES
100
AcDbTrace
 10
22.47873370942364
 20
5.507544306011372
 30
0.0
 11
22.44978057143295
 21
5.53750806598243
 31
0.0
 12
22.37436586051513
 22
5.435666772024831
 32
0.0
 13
22.37436586051513
 23
5.435666772024831
 33
0.0
  0
INSERT
  5
51
330
2
100
AcDbEntity
  8
TEXT_BUBBLES
100
AcDbBlockReference
 66
     1
  2
bubble
 10
22.80369029486311
 20
5.861952838517763
 30
0.0
  0
ATTRIB
  5
52
330
51
100
AcDbEntity
  8
TEXT_BUBBLES
100
AcDbText
 10
22.74119029486311
 20
5.799452838517763
 30
0.0
 40
0.125
  1
4
  7
ROMANS
 72
     4
 11
22.80369029486311
 21
5.861952838517763
 31
0.0
100
AcDbAttribute
  2
XX
 70
     0
  0
SEQEND
  5
53
330
51
100
AcDbEntity
  8
TEXT_BUBBLES
  0
LINE
  5
54
330
2
100
AcDbEntity
  8
IMAGE
100
AcDbLine
 10
26.40383759866164
 20
5.575480027750622
 30
0.0
 11
25.14345036759642
 21
5.575480027750622
 31
0.0
  0
LINE
  5
55
330
2
100
AcDbEntity
  8
IMAGE
100
AcDbLine
 10
26.32368578746512
 20
5.758774840488834
 30
0.0
 11
26.7819537679812
 21
6.010859630454213
 31
0.0
  0
LINE
  5
56
330
2
100
AcDbEntity
  8
IMAGE
100
AcDbLine
 10
24.32990948395179
 20
4.943120523031525
 30
0.0
 11
24.28402257204179
 21
5.836954847381994
 31
0.0
  0
LINE
  5
57
330
2
100
AcDbEntity
  8
IMAGE
100
AcDbLine
 10
25.14345036759642
 20
4.943120523031525
 30
0.0
 11
25.22360217879294
 21
5.573405061212087
 31
0.0
  0
LINE
  5
58
330
2
100
AcDbEntity
  8
IMAGE
100
AcDbLine
 10
25.01564953663345
 20
4.71106319479051
 30
0.0
 11
24.81703211649861
 21
4.71106319479051
 31
0.0
  0
LINE
  5
59
330
2
100
AcDbEntity
  8
IMAGE
100
AcDbLine
 10
24.32990948395179
 20
4.943120523031525
 30
0.0
 11
25.14345036759642
 21
4.943120523031525
 31
0.0
  0
LINE
  5
5A
330
2
100
AcDbEntity
  8
IMAGE
100
AcDbLine
 10
24.33592086979153
 20
4.8715731416539
 30
0.0
 11
25.13026662664446
 21
4.8715731416539
 31
0.0
  0
LINE
  5
5B
330
2
100
AcDbEntity
  8
IMAGE
100
AcDbLine
 10
24.69099339339209
 20
4.825713156835789
 30
0.0
 11
24.69099339339209
 21
4.71106319479051
 31
0.0
  0
LINE
  5
5C
330
2
100
AcDbEntity
  8
IMAGE
100
AcDbLine
 10
24.2998525547531
 20
4.720496419515755
 30
0.0
 11
24.25416602237108
 21
4.789286396742922
 31
0.0
  0
LINE
  5
5D
330
2
100
AcDbEntity
  8
IMAGE
100
AcDbLine
 10
24.41446964476412
 20
4.754891408129338
 30
0.0
 11
24.2998525547531
 21
4.720496419515755
 31
0.0
  0
LINE
  5
5E
330
2
100
AcDbEntity
  8
IMAGE
100
AcDbLine
 10
24.45033758027456
 20
4.71106319479051
 30
0.0
 11
24.33592086979153
 21
4.8715731416539
 31
0.0
  0
LINE
  5
5F
330
2
100
AcDbEntity
  8
IMAGE
100
AcDbLine
 10
24.81703211649861
 20
4.298613584495977
 30
0.0
 11
24.81703211649861
 21
4.825713156835789
 31
0.0
  0
LINE
  5
60
330
2
100
AcDbEntity
  8
IMAGE
100
AcDbLine
 10
24.28843092165759
 20
4.735009072939208
 30
0.0
 11
23.85686235174859
 21
4.513918511692423
 31
0.0
  0
LINE
  5
61
330
2
100
AcDbEntity
  8
IMAGE
100
AcDbLine
 10
24.2651868964106
 20
4.77767627400416
 30
0.0
 11
23.83098287445204
 21
4.555235582990281
 31
0.0
  0
LWPOLYLINE
  5
62
330
2
100
AcDbEntity
  8
IMAGE
100
AcDbPolyline
 90
       16
 70
     1
 43
0.0
 10
23.85901759317226
 20
4.509482438738747
 42
0.0699425913417638
 10
23.82068039666294
 20
4.56773383902987
 42
0.081759191418949
 10
23.7744335460933
 20
4.605586214189163
 42
0.1069227059840843
 10
23.72016614575167
 20
4.622952794024071
 42
0.1355964443898175
 10
23.67560186866553
 20
4.615171524597737
 42
0.1355964443898256
 10
23.64135265333789
 20
4.585616251032142
 42
0.1069227059840869
 10
23.62041681713404
 20
4.532623425126677
 42
0.0817591914189586
 10
23.62041341048735
 20
4.472860782270071
 42
0.0699425913417775
 10
23.64120504624573
 20
4.406297472897997
 42
0.0699425913417639
 10
23.67954224275504
 20
4.348046072606877
 42
0.081759191418953
 10
23.72578909332468
 20
4.310193697447582
 42
0.1069227059840858
 10
23.78005649366631
 20
4.292827117612673
 42
0.1355964443898162
 10
23.82462077075246
 20
4.300608387039007
 42
0.135596444389826
 10
23.85886998608009
 20
4.330163660604602
 42
0.1069227059840884
 10
23.87980582228395
 20
4.383156486510066
 42
0.0817591914189625
 10
23.87980922893063
 20
4.442919129366676
 42
0.0699425913417759
  0
LWPOLYLINE
  5
63
330
2
100
AcDbEntity
  8
IMAGE
100
AcDbPolyline
 90
       16
 70
     1
 43
0.0
 10
23.83048892502004
 20
4.499415133402218
 42
0.0699425913417638
 10
23.8015672874772
 20
4.543360075624934
 42
0.081759191418949
 10
23.76667859525507
 20
4.571915963226854
 42
0.1069227059840843
 10
23.72573918846533
 20
4.585017336646845
 42
0.1355964443898175
 10
23.69211983215869
 20
4.579147135524627
 42
0.1355964443898256
 10
23.66628217364363
 20
4.556850593592147
 42
0.1069227059840869
 10
23.65048814795901
 20
4.51687272763535
 42
0.0817591914189586
 10
23.65048557797973
 20
4.471787701794166
 42
0.0699425913417775
 10
23.66617081863578
 20
4.421572243111803
 42
0.0699425913417639
 10
23.69509245617862
 20
4.377627300889088
 42
0.081759191418953
 10
23.72998114840076
 20
4.349071413287166
 42
0.1069227059840858
 10
23.7709205551905
 20
4.335970039867176
 42
0.1355964443898162
 10
23.80453991149714
 20
4.341840240989393
 42
0.135596444389826
 10
23.83037757001219
 20
4.364136782921873
 42
0.1069227059840884
 10
23.84617159569681
 20
4.404114648878669
 42
0.0817591914189625
 10
23.84617416567609
 20
4.449199674719856
 42
0.0699425913417759
  0
ARC
  5
64
330
2
100
AcDbEntity
  8
IMAGE
100
AcDbCircle
 10
24.79905466073434
 20
4.518602554162333
 30
0.0
 40
0.2207223044701681
100
AcDbArc
 50
119.3129922933967
 51
274.6718187349709
  0
LINE
  5
65
330
2
100
AcDbEntity
  8
IMAGE
100
AcDbLine
 10
24.69099339339209
 20
4.71106319479051
 30
0.0
 11
24.44813340546665
 21
4.71106319479051
 31
0.0
  0
LINE
  5
66
330
2
100
AcDbEntity
  8
IMAGE
100
AcDbLine
 10
24.25416602237108
 20
4.789286396742922
 30
0.0
 11
24.36341742304604
 21
4.832999490277486
 31
0.0
  0
LINE
  5
67
330
2
100
AcDbEntity
  8
IMAGE
100
AcDbLine
 10
24.33592086979153
 20
4.8715731416539
 30
0.0
 11
24.32990948395179
 21
4.943120523031525
 31
0.0
  0
LINE
  5
68
330
2
100
AcDbEntity
  8
IMAGE
100
AcDbLine
 10
24.81703211649861
 20
4.825713156835789
 30
0.0
 11
24.69099339339209
 21
4.825713156835789
 31
0.0
  0
LINE
  5
69
330
2
100
AcDbEntity
  8
IMAGE
100
AcDbLine
 10
25.13026662664447
 20
4.8715731416539
 30
0.0
 11
25.01440595157004
 21
4.709321676379696
 31
0.0
  0
LINE
  5
6A
330
2
100
AcDbEntity
  8
IMAGE
100
AcDbLine
 10
25.1745813982405
 20
4.753105841844732
 30
0.0
 11
25.6456014647426
 21
4.511804463286501
 31
0.0
  0
LINE
  5
6B
330
2
100
AcDbEntity
  8
IMAGE
100
AcDbLine
 10
25.20162563601119
 20
4.793826211795686
 30
0.0
 11
25.66884548998959
 21
4.554471664351452
 31
0.0
  0
LWPOLYLINE
  5
6C
330
2
100
AcDbEntity
  8
IMAGE
100
AcDbPolyline
 90
       16
 70
     1
 43
0.0
 10
25.669721783279
 20
4.50333354982655
 42
-0.0699425913417638
 10
25.69864342082184
 20
4.547278492049267
 42
-0.081759191418949
 10
25.73353211304398
 20
4.575834379651187
 42
-0.1069227059840843
 10
25.77447151983372
 20
4.588935753071178
 42
-0.1355964443898175
 10
25.80809087614036
 20
4.583065551948959
 42
-0.1355964443898256
 10
25.83392853465542
 20
4.56076901001648
 42
-0.1069227059840869
 10
25.84972256034003
 20
4.520791144059683
 42
-0.0817591914189586
 10
25.84972513031932
 20
4.475706118218498
 42
-0.0699425913417775
 10
25.83403988966327
 20
4.425490659536135
 42
-0.0699425913417639
 10
25.80511825212043
 20
4.38154571731342
 42
-0.081759191418953
 10
25.77022955989829
 20
4.352989829711498
 42
-0.1069227059840858
 10
25.72929015310855
 20
4.339888456291508
 42
-0.1355964443898162
 10
25.69567079680192
 20
4.345758657413725
 42
-0.135596444389826
 10
25.66983313828686
 20
4.368055199346205
 42
-0.1069227059840884
 10
25.65403911260224
 20
4.408033065303001
 42
-0.0817591914189625
 10
25.65403654262296
 20
4.453118091144188
 42
-0.0699425913417759
  0
LWPOLYLINE
  5
6D
330
2
100
AcDbEntity
  8
IMAGE
100
AcDbPolyline
 90
       16
 70
     1
 43
0.0
 10
25.64119311512679
 20
4.513400855163079
 42
-0.0699425913417638
 10
25.67953031163611
 20
4.571652255454202
 42
-0.081759191418949
 10
25.72577716220575
 20
4.609504630613495
 42
-0.1069227059840843
 10
25.78004456254738
 20
4.626871210448403
 42
-0.1355964443898175
 10
25.82460883963352
 20
4.619089941022069
 42
-0.1355964443898256
 10
25.85885805496116
 20
4.589534667456474
 42
-0.1069227059840869
 10
25.87979389116501
 20
4.536541841551009
 42
-0.0817591914189586
 10
25.8797972978117
 20
4.476779198694403
 42
-0.0699425913417775
 10
25.85900566205332
 20
4.410215889322329
 42
-0.0699425913417639
 10
25.820668465544
 20
4.351964489031209
 42
-0.081759191418953
 10
25.77442161497437
 20
4.314112113871914
 42
-0.1069227059840858
 10
25.72015421463273
 20
4.296745534037005
 42
-0.1355964443898162
 10
25.67558993754659
 20
4.304526803463339
 42
-0.135596444389826
 10
25.64134072221896
 20
4.334082077028934
 42
-0.1069227059840884
 10
25.6204048860151
 20
4.3870749029344
 42
-0.0817591914189625
 10
25.62040147936841
 20
4.446837545791008
 42
-0.0699425913417759
  0
LINE
  5
6E
330
2
100
AcDbEntity
  8
IMAGE
100
AcDbLine
 10
25.14345036759642
 20
4.943120523031525
 30
0.0
 11
25.13069711399011
 21
4.8715731416539
 31
0.0
  0
LINE
  5
6F
330
2
100
AcDbEntity
  8
IMAGE
100
AcDbLine
 10
25.05770419273495
 20
4.769956599042552
 30
0.0
 11
25.16449021803552
 21
4.737911603623898
 31
0.0
  0
LINE
  5
70
330
2
100
AcDbEntity
  8
IMAGE
100
AcDbLine
 10
25.16449021803552
 20
4.737911603623898
 30
0.0
 11
25.21017675041753
 21
4.806701580851066
 31
0.0
  0
LINE
  5
71
330
2
100
AcDbEntity
  8
IMAGE
100
AcDbLine
 10
25.21017675041753
 20
4.806701580851066
 30
0.0
 11
25.111995009118
 21
4.845985540729818
 31
0.0
  0
LINE
  5
72
330
2
100
AcDbEntity
  8
TEXT_BUBBLES
100
AcDbLine
 10
24.85036416523229
 20
5.923814261354062
 30
0.0
 11
25.09509055913992
 21
6.160286488458256
 31
0.0
  0
LINE
  5
73
330
2
100
AcDbEntity
  8
IMAGE
100
AcDbLine
 10
24.28402257204179
 20
5.836954847381994
 30
0.0
 11
25.22660787171281
 21
5.836954847381994
 31
0.0
  0
SOLID
  5
74
330
2
100
AcDbEntity
  8
TEXT_BUBBLES
100
AcDbTrace
 10
24.86484073422763
 20
5.908832381368535
 30
0.0
 11
24.83588759623694
 21
5.938796141339592
 31
0.0
 12
24.76047288531911
 22
5.836954847381994
 32
0.0
 13
24.76047288531911
 23
5.836954847381994
 33
0.0
  0
ARC
  5
75
330
2
100
AcDbEntity
  8
IMAGE
100
AcDbCircle
 10
25.17394612524288
 20
5.665052467581193
 30
0.0
 40
0.0965879823198247
100
AcDbArc
 50
107.2810529169091
 51
251.5950899068437
  0
LINE
  5
76
330
2
100
AcDbEntity
  8
IMAGE
100
AcDbLine
 10
26.32368578746512
 20
5.758774840488834
 30
0.0
 11
25.14345036759642
 21
5.758774840488834
 31
0.0
  0
LINE
  5
77
330
2
100
AcDbEntity
  8
IMAGE
100
AcDbLine
 10
25.22660787171281
 20
5.836954847381994
 30
0.0
 11
25.22660787171281
 21
5.756699873950299
 31
0.0
  0
LINE
  5
78
330
2
100
AcDbEntity
  8
IMAGE
100
AcDbLine
 10
26.40383759866164
 20
5.575480027750622
 30
0.0
 11
26.88514922489672
 21
5.83902981392053
 31
0.0
  0
ARC
  5
79
330
2
100
AcDbEntity
  8
IMAGE
100
AcDbCircle
 10
26.96234454802783
 20
5.921324050880672
 30
0.0
 40
0.0462689103351143
100
AcDbArc
 50
313.6413736147513
 51
91.30905160826099
  0
ARC
  5
7A
330
2
100
AcDbEntity
  8
IMAGE
100
AcDbCircle
 10
26.82212986334346
 20
5.972198720237935
 30
0.0
 40
0.0557564760122799
100
AcDbArc
 50
136.1010441955253
 51
287.8949546092734
  0
LWPOLYLINE
  5
7B
330
2
100
AcDbEntity
  8
IMAGE
100
AcDbPolyline
 90
        2
 70
     0
 43
0.0264178667818252
 10
26.80147584334513
 20
5.923113225414031
 10
26.89517266257278
 20
5.976802211417078
  0
ARC
  5
7C
330
2
100
AcDbEntity
  8
IMAGE
100
AcDbCircle
 10
26.85433998244052
 20
5.873287168049043
 30
0.0
 40
0.0462689103351143
100
AcDbArc
 50
313.6413736147513
 51
91.30905160826099
  0
ARC
  5
7D
330
2
100
AcDbEntity
  8
IMAGE
100
AcDbCircle
 10
26.85433998244052
 20
5.873287168049043
 30
0.0
 40
0.0462689103351143
100
AcDbArc
 50
305.4784981758793
 51
310.7734830800823
  0
LINE
  5
7E
330
2
100
AcDbEntity
  8
IMAGE
100
AcDbLine
 10
26.83926231298671
 20
5.91913966081799
 30
0.0
 11
26.85300339921014
 21
5.919536769224265
 31
0.0
  0
LINE
  5
7F
330
2
100
AcDbEntity
  8
IMAGE
100
AcDbLine
 10
26.94726687857402
 20
5.967176543649619
 30
0.0
 11
26.96100796479744
 21
5.967573652055895
 31
0.0
  0
ARC
  5
80
330
2
100
AcDbEntity
  8
IMAGE
100
AcDbCircle
 10
26.93013442893076
 20
6.020235603069565
 30
0.0
 40
0.0557564760122799
100
AcDbArc
 50
133.70293337925
 51
287.8949546092734
  0
POLYLINE
  5
81
330
2
100
AcDbEntity
  8
IMAGE
100
AcDb2dPolyline
 66
     1
 10
0.0
 20
0.0
 30
0.0
 70
     4
 40
0.018
 41
0.018
 75
     6
  0
VERTEX
  5
82
330
81
100
AcDbEntity
  8
IMAGE
100
AcDbVertex
100
AcDb2dVertex
 10
29.02780751770758
 20
6.721254015532238
 30
0.0
 70
    16
  0
VERTEX
  5
83
330
81
100
AcDbEntity
  8
IMAGE
100
AcDbVertex
100
AcDb2dVertex
 10
29.02780751770758
 20
6.721254015532238
 30
0.0
 70
     8
  0
VERTEX
  5
84
330
81
100
AcDbEntity
  8
IMAGE
100
AcDbVertex
100
AcDb2dVertex
 10
29.06366853908066
 20
6.694315138823505
 30
0.0
 70
     8
  0
VERTEX
  5
85
330
81
100
AcDbEntity
  8
IMAGE
100
AcDbVertex
100
AcDb2dVertex
 10
29.09434082650431
 20
6.673119247876736
 30
0.0
 70
     8
  0
VERTEX
  5
86
330
81
100
AcDbEntity
  8
IMAGE
100
AcDbVertex
100
AcDb2dVertex
 10
29.1205531039651
 20
6.656973873701434
 30
0.0
 70
     8
  0
VERTEX
  5
87
330
81
100
AcDbEntity
  8
IMAGE
100
AcDbVertex
100
AcDb2dVertex
 10
29.14303409544957
 20
6.645186547307101
 30
0.0
 70
     8
  0
VERTEX
  5
88
330
81
100
AcDbEntity
  8
IMAGE
100
AcDbVertex
100
AcDb2dVertex
 10
29.1625125249443
 20
6.637064799703238
 30
0.0
 70
     8
  0
VERTEX
  5
89
330
81
100
AcDbEntity
  8
IMAGE
100
AcDbVertex
100
AcDb2dVertex
 10
29.17971711643585
 20
6.631916161899348
 30
0.0
 70
     8
  0
VERTEX
  5
8A
330
81
100
AcDbEntity
  8
IMAGE
100
AcDbVertex
100
AcDb2dVertex
 10
29.19537659391078
 20
6.629048164904933
 30
0.0
 70
     8
  0
VERTEX
  5
8B
330
81
100
AcDbEntity
  8
IMAGE
100
AcDbVertex
100
AcDb2dVertex
 10
29.21021968135565
 20
6.627768339729494
 30
0.0
 70
     8
  0
VERTEX
  5
8C
330
81
100
AcDbEntity
  8
IMAGE
100
AcDbVertex
100
AcDb2dVertex
 10
29.22482560084356
 20
6.627492117449003
 30
0.0
 70
     8
  0
VERTEX
  5
8D
330
81
100
AcDbEntity
  8
IMAGE
100
AcDbVertex
100
AcDb2dVertex
 10
29.23917556679377
 20
6.628066529405304
 30
0.0
 70
     8
  0
VERTEX
  5
8E
330
81
100
AcDbEntity
  8
IMAGE
100
AcDbVertex
100
AcDb2dVertex
 10
29.25310129171205
 20
6.629446507006712
 30
0.0
 70
     8
  0
VERTEX
  5
8F
330
81
100
AcDbEntity
  8
IMAGE
100
AcDbVertex
100
AcDb2dVertex
 10
29.26643448810421
 20
6.63158698166154
 30
0.0
 70
     8
  0
VERTEX
  5
90
330
81
100
AcDbEntity
  8
IMAGE
100
AcDbVertex
100
AcDb2dVertex
 10
29.27900686847602
 20
6.634442884778103
 30
0.0
 70
     8
  0
VERTEX
  5
91
330
81
100
AcDbEntity
  8
IMAGE
100
AcDbVertex
100
AcDb2dVertex
 10
29.29065014533328
 20
6.637969147764713
 30
0.0
 70
     8
  0
VERTEX
  5
92
330
81
100
AcDbEntity
  8
IMAGE
100
AcDbVertex
100
AcDb2dVertex
 10
29.30119603118177
 20
6.642120702029686
 30
0.0
 70
     8
  0
VERTEX
  5
93
330
81
100
AcDbEntity
  8
IMAGE
100
AcDbVertex
100
AcDb2dVertex
 10
29.31047623852729
 20
6.646852478981335
 30
0.0
 70
     8
  0
VERTEX
  5
94
330
81
100
AcDbEntity
  8
IMAGE
100
AcDbVertex
100
AcDb2dVertex
 10
29.31836553016484
 20
6.652115819657987
 30
0.0
 70
     8
  0
VERTEX
  5
95
330
81
100
AcDbEntity
  8
IMAGE
100
AcDbVertex
100
AcDb2dVertex
 10
29.32491087004629
 20
6.657847703618015
 30
0.0
 70
     8
  0
VERTEX
  5
96
330
81
100
AcDbEntity
  8
IMAGE
100
AcDbVertex
100
AcDb2dVertex
 10
29.33020227241273
 20
6.663981520049811
 30
0.0
 70
     8
  0
VERTEX
  5
97
330
81
100
AcDbEntity
  8
IMAGE
100
AcDbVertex
100
AcDb2dVertex
 10
29.33432975150525
 20
6.670450658141762
 30
0.0
 70
     8
  0
VERTEX
  5
98
330
81
100
AcDbEntity
  8
IMAGE
100
AcDbVertex
100
AcDb2dVertex
 10
29.33738332156495
 20
6.677188507082257
 30
0.0
 70
     8
  0
VERTEX
  5
99
330
81
100
AcDbEntity
  8
IMAGE
100
AcDbVertex
100
AcDb2dVertex
 10
29.33945299683291
 20
6.684128456059684
 30
0.0
 70
     8
  0
VERTEX
  5
9A
330
81
100
AcDbEntity
  8
IMAGE
100
AcDbVertex
100
AcDb2dVertex
 10
29.34062879155022
 20
6.691203894262431
 30
0.0
 70
     8
  0
VERTEX
  5
9B
330
81
100
AcDbEntity
  8
IMAGE
100
AcDbVertex
100
AcDb2dVertex
 10
29.34100071995797
 20
6.698348210878887
 30
0.0
 70
     8
  0
VERTEX
  5
9C
330
81
100
AcDbEntity
  8
IMAGE
100
AcDbVertex
100
AcDb2dVertex
 10
29.34065866584183
 20
6.705505849657666
 30
0.0
 70
     8
  0
VERTEX
  5
9D
330
81
100
AcDbEntity
  8
IMAGE
100
AcDbVertex
100
AcDb2dVertex
 10
29.33969199116577
 20
6.712665472588279
 30
0.0
 70
     8
  0
VERTEX
  5
9E
330
81
100
AcDbEntity
  8
IMAGE
100
AcDbVertex
100
AcDb2dVertex
 10
29.33818992743837
 20
6.719826796220467
 30
0.0
 70
     8
  0
VERTEX
  5
9F
330
81
100
AcDbEntity
  8
IMAGE
100
AcDbVertex
100
AcDb2dVertex
 10
29.33624170616818
 20
6.726989537103965
 30
0.0
 70
     8
  0
VERTEX
  5
A0
330
81
100
AcDbEntity
  8
IMAGE
100
AcDbVertex
100
AcDb2dVertex
 10
29.33393655886374
 20
6.734153411788511
 30
0.0
 70
     8
  0
VERTEX
  5
A1
330
81
100
AcDbEntity
  8
IMAGE
100
AcDbVertex
100
AcDb2dVertex
 10
29.33136371703364
 20
6.741318136823845
 30
0.0
 70
     8
  0
VERTEX
  5
A2
330
81
100
AcDbEntity
  8
IMAGE
100
AcDbVertex
100
AcDb2dVertex
 10
29.32861241218641
 20
6.748483428759701
 30
0.0
 70
     8
  0
VERTEX
  5
A3
330
81
100
AcDbEntity
  8
IMAGE
100
AcDbVertex
100
AcDb2dVertex
 10
29.32577187583063
 20
6.755649004145821
 30
0.0
 70
     8
  0
VERTEX
  5
A4
330
81
100
AcDbEntity
  8
IMAGE
100
AcDbVertex
100
AcDb2dVertex
 10
29.32290524839047
 20
6.762814626773651
 30
0.0
 70
     8
  0
VERTEX
  5
A5
330
81
100
AcDbEntity
  8
IMAGE
100
AcDbVertex
100
AcDb2dVertex
 10
29.31997130595263
 20
6.769980249401481
 30
0.0
 70
     8
  0
VERTEX
  5
A6
330
81
100
AcDbEntity
  8
IMAGE
100
AcDbVertex
100
AcDb2dVertex
 10
29.31690273351942
 20
6.77714587202931
 30
0.0
 70
     8
  0
VERTEX
  5
A7
330
81
100
AcDbEntity
  8
IMAGE
100
AcDbVertex
100
AcDb2dVertex
 10
29.31363221609315
 20
6.784311494657141
 30
0.0
 70
     8
  0
VERTEX
  5
A8
330
81
100
AcDbEntity
  8
IMAGE
100
AcDbVertex
100
AcDb2dVertex
 10
29.31009243867615
 20
6.791477117284971
 30
0.0
 70
     8
  0
VERTEX
  5
A9
330
81
100
AcDbEntity
  8
IMAGE
100
AcDbVertex
100
AcDb2dVertex
 10
29.30621608627073
 20
6.798642739912801
 30
0.0
 70
     8
  0
VERTEX
  5
AA
330
81
100
AcDbEntity
  8
IMAGE
100
AcDbVertex
100
AcDb2dVertex
 10
29.30193584387919
 20
6.805808362540631
 30
0.0
 70
     8
  0
VERTEX
  5
AB
330
81
100
AcDbEntity
  8
IMAGE
100
AcDbVertex
100
AcDb2dVertex
 10
29.29718439650387
 20
6.81297398516846
 30
0.0
 70
     8
  0
VERTEX
  5
AC
330
81
100
AcDbEntity
  8
IMAGE
100
AcDbVertex
100
AcDb2dVertex
 10
29.29191686747963
 20
6.820147024744817
 30
0.0
 70
     8
  0
VERTEX
  5
AD
330
81
100
AcDbEntity
  8
IMAGE
100
AcDbVertex
100
AcDb2dVertex
 10
29.2861781334716
 20
6.827364566012336
 30
0.0
 70
     8
  0
VERTEX
  5
AE
330
81
100
AcDbEntity
  8
IMAGE
100
AcDbVertex
100
AcDb2dVertex
 10
29.28003550947746
 20
6.834671110662179
 30
0.0
 70
     8
  0
VERTEX
  5
AF
330
81
100
AcDbEntity
  8
IMAGE
100
AcDbVertex
100
AcDb2dVertex
 10
29.2735563104949
 20
6.842111160385505
 30
0.0
 70
     8
  0
VERTEX
  5
B0
330
81
100
AcDbEntity
  8
IMAGE
100
AcDbVertex
100
AcDb2dVertex
 10
29.2668078515216
 20
6.84972921687348
 30
0.0
 70
     8
  0
VERTEX
  5
B1
330
81
100
AcDbEntity
  8
IMAGE
100
AcDbVertex
100
AcDb2dVertex
 10
29.25985744755525
 20
6.857569781817264
 30
0.0
 70
     8
  0
VERTEX
  5
B2
330
81
100
AcDbEntity
  8
IMAGE
100
AcDbVertex
100
AcDb2dVertex
 10
29.25277241359352
 20
6.865677356908017
 30
0.0
 70
     8
  0
VERTEX
  5
B3
330
81
100
AcDbEntity
  8
IMAGE
100
AcDbVertex
100
AcDb2dVertex
 10
29.24562006463411
 20
6.874096443836903
 30
0.0
 70
     8
  0
VERTEX
  5
B4
330
81
100
AcDbEntity
  8
IMAGE
100
AcDbVertex
100
AcDb2dVertex
 10
29.2384527785289
 20
6.882849293449503
 30
0.0
 70
     8
  0
VERTEX
  5
B5
330
81
100
AcDbEntity
  8
IMAGE
100
AcDbVertex
100
AcDb2dVertex
 10
29.23126318454655
 20
6.891869153209072
 30
0.0
 70
     8
  0
VERTEX
  5
B6
330
81
100
AcDbEntity
  8
IMAGE
100
AcDbVertex
100
AcDb2dVertex
 10
29.22402897480992
 20
6.901067019733289
 30
0.0
 70
     8
  0
VERTEX
  5
B7
330
81
100
AcDbEntity
  8
IMAGE
100
AcDbVertex
100
AcDb2dVertex
 10
29.21672784144187
 20
6.910353889639829
 30
0.0
 70
     8
  0
VERTEX
  5
B8
330
81
100
AcDbEntity
  8
IMAGE
100
AcDbVertex
100
AcDb2dVertex
 10
29.20933747656526
 20
6.91964075954637
 30
0.0
 70
     8
  0
VERTEX
  5
B9
330
81
100
AcDbEntity
  8
IMAGE
100
AcDbVertex
100
AcDb2dVertex
 10
29.20183557230295
 20
6.928838626070588
 30
0.0
 70
     8
  0
VERTEX
  5
BA
330
81
100
AcDbEntity
  8
IMAGE
100
AcDbVertex
100
AcDb2dVertex
 10
29.19419982077781
 20
6.937858485830157
 30
0.0
 70
     8
  0
VERTEX
  5
BB
330
81
100
AcDbEntity
  8
IMAGE
100
AcDbVertex
100
AcDb2dVertex
 10
29.18640791411268
 20
6.946611335442756
 30
0.0
 70
     8
  0
VERTEX
  5
BC
330
81
100
AcDbEntity
  8
IMAGE
100
AcDbVertex
100
AcDb2dVertex
 10
29.17843747920274
 20
6.955049082847236
 30
0.0
 70
     8
  0
VERTEX
  5
BD
330
81
100
AcDbEntity
  8
IMAGE
100
AcDbVertex
100
AcDb2dVertex
 10
29.17026588203226
 20
6.963287281267143
 30
0.0
 70
     8
  0
VERTEX
  5
BE
330
81
100
AcDbEntity
  8
IMAGE
100
AcDbVertex
100
AcDb2dVertex
 10
29.16187042335786
 20
6.971482395247199
 30
0.0
 70
     8
  0
VERTEX
  5
BF
330
81
100
AcDbEntity
  8
IMAGE
100
AcDbVertex
100
AcDb2dVertex
 10
29.15322840393613
 20
6.979790889332126
 30
0.0
 70
     8
  0
VERTEX
  5
C0
330
81
100
AcDbEntity
  8
IMAGE
100
AcDbVertex
100
AcDb2dVertex
 10
29.14431712452365
 20
6.988369228066645
 30
0.0
 70
     8
  0
VERTEX
  5
C1
330
81
100
AcDbEntity
  8
IMAGE
100
AcDbVertex
100
AcDb2dVertex
 10
29.13511388587704
 20
6.997373875995479
 30
0.0
 70
     8
  0
VERTEX
  5
C2
330
81
100
AcDbEntity
  8
IMAGE
100
AcDbVertex
100
AcDb2dVertex
 10
29.12559598875288
 20
7.006961297663347
 30
0.0
 70
     8
  0
VERTEX
  5
C3
330
81
100
AcDbEntity
  8
IMAGE
100
AcDbVertex
100
AcDb2dVertex
 10
29.11574073390776
 20
7.017287957614973
 30
0.0
 70
     8
  0
VERTEX
  5
C4
330
81
100
AcDbEntity
  8
IMAGE
100
AcDbVertex
100
AcDb2dVertex
 10
29.10543234215477
 20
7.028495368393747
 30
0.0
 70
     8
  0
VERTEX
  5
C5
330
81
100
AcDbEntity
  8
IMAGE
100
AcDbVertex
100
AcDb2dVertex
 10
29.09418271453301
 20
7.040665234537743
 30
0.0
 70
     8
  0
VERTEX
  5
C6
330
81
100
AcDbEntity
  8
IMAGE
100
AcDbVertex
100
AcDb2dVertex
 10
29.08141067213803
 20
7.053864308583704
 30
0.0
 70
     8
  0
VERTEX
  5
C7
330
81
100
AcDbEntity
  8
IMAGE
100
AcDbVertex
100
AcDb2dVertex
 10
29.06653503606539
 20
7.06815934306837
 30
0.0
 70
     8
  0
VERTEX
  5
C8
330
81
100
AcDbEntity
  8
IMAGE
100
AcDbVertex
100
AcDb2dVertex
 10
29.0489746274107
 20
7.083617090528486
 30
0.0
 70
     8
  0
VERTEX
  5
C9
330
81
100
AcDbEntity
  8
IMAGE
100
AcDbVertex
100
AcDb2dVertex
 10
29.0281482672695
 20
7.100304303500794
 30
0.0
 70
     8
  0
VERTEX
  5
CA
330
81
100
AcDbEntity
  8
IMAGE
100
AcDbVertex
100
AcDb2dVertex
 10
29.00347477673738
 20
7.118287734522037
 30
0.0
 70
     8
  0
VERTEX
  5
CB
330
81
100
AcDbEntity
  8
IMAGE
100
AcDbVertex
100
AcDb2dVertex
 10
28.9743729769099
 20
7.137634136128957
 30
0.0
 70
     8
  0
VERTEX
  5
CC
330
81
100
AcDbEntity
  8
IMAGE
100
AcDbVertex
100
AcDb2dVertex
 10
28.93869433221659
 20
7.158235135837982
 30
0.0
 70
     8
  0
VERTEX
  5
CD
330
81
100
AcDbEntity
  8
IMAGE
100
AcDbVertex
100
AcDb2dVertex
 10
28.88802088042278
 20
7.17928186108428
 30
0.0
 70
     8
  0
VERTEX
  5
CE
330
81
100
AcDbEntity
  8
IMAGE
100
AcDbVertex
100
AcDb2dVertex
 10
28.81236730262774
 20
7.199790314282703
 30
0.0
 70
     8
  0
VERTEX
  5
CF
330
81
100
AcDbEntity
  8
IMAGE
100
AcDbVertex
100
AcDb2dVertex
 10
28.70174827993075
 20
7.218776497848106
 30
0.0
 70
     8
  0
VERTEX
  5
D0
330
81
100
AcDbEntity
  8
IMAGE
100
AcDbVertex
100
AcDb2dVertex
 10
28.54617849343109
 20
7.235256414195343
 30
0.0
 70
     8
  0
VERTEX
  5
D1
330
81
100
AcDbEntity
  8
IMAGE
100
AcDbVertex
100
AcDb2dVertex
 10
28.33567262422804
 20
7.248246065739264
 30
0.0
 70
     8
  0
VERTEX
  5
D2
330
81
100
AcDbEntity
  8
IMAGE
100
AcDbVertex
100
AcDb2dVertex
 10
28.06024535342087
 20
7.256761454894726
 30
0.0
 70
     8
  0
VERTEX
  5
D3
330
81
100
AcDbEntity
  8
IMAGE
100
AcDbVertex
100
AcDb2dVertex
 10
27.70991136210886
 20
7.259818584076579
 30
0.0
 70
     8
  0
VERTEX
  5
D4
330
81
100
AcDbEntity
  8
IMAGE
100
AcDbVertex
100
AcDb2dVertex
 10
29.13100297462309
 20
6.641144168634776
 30
0.0
 70
    16
  0
VERTEX
  5
D5
330
81
100
AcDbEntity
  8
IMAGE
100
AcDbVertex
100
AcDb2dVertex
 10
29.21115478581961
 20
6.618214176225722
 30
0.0
 70
    16
  0
VERTEX
  5
D6
330
81
100
AcDbEntity
  8
IMAGE
100
AcDbVertex
100
AcDb2dVertex
 10
29.32577187583063
 20
6.641144168634776
 30
0.0
 70
    16
  0
VERTEX
  5
D7
330
81
100
AcDbEntity
  8
IMAGE
100
AcDbVertex
100
AcDb2dVertex
 10
29.34861514202164
 20
6.698324023123181
 30
0.0
 70
    16
  0
VERTEX
  5
D8
330
81
100
AcDbEntity
  8
IMAGE
100
AcDbVertex
100
AcDb2dVertex
 10
29.32577187583063
 20
6.755649004145821
 30
0.0
 70
    16
  0
VERTEX
  5
D9
330
81
100
AcDbEntity
  8
IMAGE
100
AcDbVertex
100
AcDb2dVertex
 10
29.30292860963962
 20
6.81297398516846
 30
0.0
 70
    16
  0
VERTEX
  5
DA
330
81
100
AcDbEntity
  8
IMAGE
100
AcDbVertex
100
AcDb2dVertex
 10
29.24562006463411
 20
6.8702989661911
 30
0.0
 70
    16
  0
VERTEX
  5
DB
330
81
100
AcDbEntity
  8
IMAGE
100
AcDbVertex
100
AcDb2dVertex
 10
29.1883115196286
 20
6.95040881308856
 30
0.0
 70
    16
  0
VERTEX
  5
DC
330
81
100
AcDbEntity
  8
IMAGE
100
AcDbVertex
100
AcDb2dVertex
 10
29.11958134152759
 20
7.007733794111199
 30
0.0
 70
    16
  0
VERTEX
  5
DD
330
81
100
AcDbEntity
  8
IMAGE
100
AcDbVertex
100
AcDb2dVertex
 10
29.02780751770758
 20
7.122383756156478
 30
0.0
 70
    16
  0
VERTEX
  5
DE
330
81
100
AcDbEntity
  8
IMAGE
100
AcDbVertex
100
AcDb2dVertex
 10
28.75288680530353
 20
7.259818584076579
 30
0.0
 70
    16
  0
VERTEX
  5
DF
330
81
100
AcDbEntity
  8
IMAGE
100
AcDbVertex
100
AcDb2dVertex
 10
27.70991136210886
 20
7.259818584076579
 30
0.0
 70
    16
  0
SEQEND
  5
E0
330
81
100
AcDbEntity
  8
IMAGE
  0
INSERT
  5
E1
330
2
100
AcDbEntity
  8
IMAGE
100
AcDbBlockReference
  2
IDAEP
 10
26.50851398952256
 20
10.05791078072564
 30
0.0
 41
0.1875
 42
0.1875
 43
0.1875
 50
180.0
  0
LWPOLYLINE
  5
E6
330
2
100
AcDbEntity
  8
IMAGE
100
AcDbPolyline
 90
        5
 70
     0
 43
0.01875
 10
23.48385367644768
 20
9.288572306699638
 10
23.60298111263575
 20
9.323912511834411
 10
24.07207791563741
 20
9.323912511834411
 10
24.07207791563741
 20
10.05791078072564
 10
24.07207791563741
 20
10.13855632696919
  0
LWPOLYLINE
  5
E7
330
2
100
AcDbEntity
  8
IMAGE
100
AcDbPolyline
 90
        7
 70
     0
 43
0.01875
 10
24.29283402169392
 20
10.71945306958632
 10
24.29283402169392
 20
10.63880752334277
 10
24.29283402169392
 20
10.09961732771454
 42
-1.0
 10
24.29283402169392
 20
10.01620423373675
 10
24.29283402169392
 20
9.263703279183911
 10
23.60298111263575
 20
9.263703279183911
 10
23.48385367644768
 20
9.237525360908968
  0
INSERT
  5
E8
330
2
100
AcDbEntity
  8
IMAGE
100
AcDbBlockReference
  2
IDAEP
 10
21.87743491607438
 20
10.05791078072564
 30
0.0
 41
0.1875
 42
0.1875
 43
0.1875
  0
TEXT
  5
E9
330
2
100
AcDbEntity
  8
IMAGE
100
AcDbText
 10
23.01607537300272
 20
9.723557536707591
 30
0.0
 40
0.125
  1
BLACK
  7
ROMANS
 72
     2
 11
23.58155156347891
 21
9.723557536707591
 31
0.0
100
AcDbText
  0
LWPOLYLINE
  5
EA
330
2
100
AcDbEntity
  8
IMAGE
100
AcDbPolyline
 90
        5
 70
     0
 43
0.0
 10
22.96814433842989
 20
7.898845269974964
 10
22.96814433842989
 20
8.143071146299652
 42
-0.4142135623730951
 10
23.05314433842989
 20
8.228071146299649
 10
24.15285745082139
 20
8.228071146299651
 42
-0.3027931766997644
 10
24.23132109006686
 20
8.175758411654141
  0
LINE
  5
EB
330
2
100
AcDbEntity
  8
IMAGE
100
AcDbLine
 10
23.72004208178494
 20
8.239508411654137
 30
0.0
 11
22.49310381276378
 21
8.239508411654137
 31
0.0
  0
LINE
  5
EC
330
2
100
AcDbEntity
  8
IMAGE
100
AcDbLine
 10
24.09116911832374
 20
8.282008411654135
 30
0.0
 11
23.49124646738434
 21
8.282008411654135
 31
0.0
  0
LWPOLYLINE
  5
ED
330
2
100
AcDbEntity
  8
IMAGE
100
AcDbPolyline
 90
       13
 70
     0
 43
0.0
 10
24.23785745082138
 20
7.886758411654138
 10
24.23785745082138
 20
7.809514952036606
 42
0.4142135623730951
 10
24.32285745082138
 20
7.724514952036606
 10
24.62374445474432
 20
7.724514952036607
 42
-0.4142135623730951
 10
24.70874445474433
 20
7.639514952036607
 10
24.70874445474433
 20
7.515324105362801
 42
-0.4142135623730951
 10
24.62374445474432
 20
7.430324105362801
 10
24.32285745082138
 20
7.430324105362802
 42
0.4142135623731064
 10
24.23785745082138
 20
7.3453241053628
 10
24.23785745082138
 20
6.926989699870667
 42
-0.4142135623730951
 10
24.15285745082138
 20
6.841989699870667
 10
23.05314433842989
 20
6.841989699870666
 42
-0.3080685491568047
 10
22.97406445857802
 20
6.895822848848856
 42
-0.3080685491568047
  0
LINE
  5
EE
330
2
100
AcDbEntity
  8
IMAGE
100
AcDbLine
 10
23.12433377955771
 20
6.832758411654136
 30
0.0
 11
24.64870381276378
 21
6.832758411654136
 31
0.0
  0
LINE
  5
EF
330
2
100
AcDbEntity
  8
IMAGE
100
AcDbLine
 10
22.95804506580121
 20
6.790258411654138
 30
0.0
 11
24.64870381276378
 21
6.790258411654138
 31
0.0
  0
TEXT
  5
F0
330
2
100
AcDbEntity
  8
IMAGE
100
AcDbText
 10
23.54335948996022
 20
7.408941008796664
 30
0.0
 40
0.03825
  1
Input LED
  7
ROMANS
100
AcDbText
  0
TEXT
  5
F1
330
2
100
AcDbEntity
  8
IMAGE
100
AcDbText
 10
23.54335948996022
 20
7.829786201561315
 30
0.0
 40
0.03825
  1
Output LED
  7
ROMANS
100
AcDbText
  0
LINE
  5
F2
330
2
100
AcDbEntity
  8
IMAGE
100
AcDbLine
 10
23.54770295813719
 20
7.810258411654141
 30
0.0
 11
23.6922029581372
 21
7.810258411654141
 31
0.0
  0
LINE
  5
F3
330
2
100
AcDbEntity
  8
IMAGE
100
AcDbLine
 10
23.5477029581372
 20
7.470258411654136
 30
0.0
 11
23.6922029581372
 21
7.470258411654136
 31
0.0
  0
LINE
  5
F4
330
2
100
AcDbEntity
  8
IMAGE
100
AcDbLine
 10
23.064635160042
 20
7.296366510976895
 30
0.0
 11
23.591635160042
 21
7.296366510976895
 31
0.0
  0
TEXT
  5
F5
330
2
100
AcDbEntity
  8
IMAGE
100
AcDbText
 10
23.56708972359627
 20
6.912400702141734
 30
0.0
 40
0.053125
  1
Power In
 50
90.0
  7
ROMANS
100
AcDbText
  0
LWPOLYLINE
  5
F6
330
2
100
AcDbEntity
  8
IMAGE
100
AcDbPolyline
 90
        5
 70
     0
 43
0.002125
 10
23.15971224445453
 20
6.896872391162629
 10
23.591635160042
 20
6.897015932225684
 10
23.591635160042
 20
7.296366510976895
 10
23.064635160042
 20
7.296366510976895
 10
23.06463598638519
 20
7.295728720040646
  0
TEXT
  5
F7
330
2
100
AcDbEntity
  8
IMAGE
100
AcDbText
 10
23.05643564414162
 20
8.00763205135618
 30
0.0
 40
0.0425
  1
S/N 332-00139
  7
ROMANS
100
AcDbText
  0
LWPOLYLINE
  5
F8
330
2
100
AcDbEntity
  8
IMAGE
100
AcDbPolyline
 90
        8
 70
     0
 43
0.018
 10
25.08633982868044
 20
7.205178345816972
 10
24.92996279998052
 20
7.205178345816972
 10
24.92996279998052
 20
7.439133494276828
 10
23.84955075679818
 20
7.439133494276828
 10
23.84955075679818
 20
7.815883197519585
 10
22.71274353316169
 20
7.815883197519585
 10
22.71274353316169
 20
7.691288809908386
 10
22.91754693977772
 20
7.691288809908386
  0
LWPOLYLINE
  5
F9
330
2
100
AcDbEntity
  8
IMAGE
100
AcDbPolyline
 90
        6
 70
     0
 43
0.018
 10
25.08633982868044
 20
7.137538354265889
 10
24.84216431807965
 20
7.137538354265889
 10
24.84216431807965
 20
7.340833357681311
 10
22.71062594496582
 20
7.340833357681311
 10
22.71062594496582
 20
7.565385476414225
 10
22.92954068175905
 20
7.565385476414225
  0
LWPOLYLINE
  5
FA
330
2
100
AcDbEntity
  8
IMAGE
100
AcDbPolyline
 90
        3
 70
     0
 10
23.48385367644768
 20
9.125409495801211
 40
0.0188
 41
0.0188
 10
24.90175413290684
 20
9.125409495801211
 40
0.0188
 41
0.0188
 10
24.90175413290684
 20
9.044791904725496
 40
0.0
 41
0.0
  0
LWPOLYLINE
  5
FB
330
2
100
AcDbEntity
  8
IMAGE
100
AcDbPolyline
 90
        3
 70
     0
 10
25.20217887895285
 20
9.273667078428008
 40
0.0188
 41
0.0188
 10
25.20217887895285
 20
9.193049487352293
 40
0.0188
 41
0.0188
 10
23.48274499563321
 20
9.193049487352293
 40
0.0
 41
0.0
  0
TEXT
  5
FC
330
2
100
AcDbEntity
  8
IMAGE
100
AcDbText
 10
23.05643564414162
 20
8.093643956118084
 30
0.0
 40
0.0425
  1
M80201
  7
ROMANS
100
AcDbText
  0
LINE
  5
FD
330
2
100
AcDbEntity
  8
IMAGE
100
AcDbLine
 10
22.42935381276378
 20
8.175758411654141
 30
0.0
 11
22.42935381276378
 21
8.103969535150865
 31
0.0
  0
LINE
  5
FE
330
2
100
AcDbEntity
  8
IMAGE
100
AcDbLine
 10
22.38685381276379
 20
8.181477879879924
 30
0.0
 11
22.38685381276379
 21
8.103969535150865
 31
0.0
  0
CIRCLE
  5
FF
330
2
100
AcDbEntity
  8
IMAGE
100
AcDbCircle
 10
22.66140381276378
 20
8.067808411654139
 30
0.0
 40
0.1062500000000012
  0
LINE
  5
100
330
2
100
AcDbEntity
  8
IMAGE
100
AcDbLine
 10
22.90637079329017
 20
7.259472036544165
 30
0.0
 11
22.90637079329017
 21
7.107761608077418
 31
0.0
  0
LINE
  5
101
330
2
100
AcDbEntity
  8
IMAGE
100
AcDbLine
 10
22.70269827906675
 20
7.107761608077419
 30
0.0
 11
22.70269827906675
 21
7.259472036544165
 31
0.0
  0
LINE
  5
102
330
2
100
AcDbEntity
  8
IMAGE
100
AcDbLine
 10
22.42935381276378
 20
7.994121080644239
 30
0.0
 11
22.42935381276378
 21
6.896508411654139
 31
0.0
  0
LINE
  5
103
330
2
100
AcDbEntity
  8
IMAGE
100
AcDbLine
 10
22.38685381276379
 20
7.94422250590081
 30
0.0
 11
22.38685381276379
 21
6.896508411654139
 31
0.0
  0
LWPOLYLINE
  5
104
330
2
100
AcDbEntity
  8
IMAGE
100
AcDbPolyline
 90
        6
 70
     0
 43
0.0
 10
23.09099322988501
 20
6.895822848848856
 10
23.15971224445453
 20
6.895822848848856
 10
23.15971224445453
 20
7.295728720040646
 10
22.64971224445453
 20
7.295728720040652
 10
22.64971224445453
 20
6.895822848848851
 10
23.09099322988501
 20
6.895822848848856
  0
LWPOLYLINE
  5
105
330
2
100
AcDbEntity
  8
IMAGE
100
AcDbPolyline
 90
        2
 70
     0
 43
0.002125
 10
23.48964915834386
 20
7.296295311641419
 10
23.48964915834386
 20
6.897015932225684
  0
LWPOLYLINE
  5
106
330
2
100
AcDbEntity
  8
IMAGE
100
AcDbPolyline
 90
        3
 70
     0
 43
0.018
 10
22.79508268962206
 20
7.176837614530844
 10
21.45810160050494
 20
7.176837614530844
 10
21.45810160050494
 20
6.479417264921075
  0
TEXT
  5
107
330
2
100
AcDbEntity
  8
IMAGE
100
AcDbText
 10
21.89274593309399
 20
6.446430114845034
 30
0.0
 40
0.125
  1
BLACK
  7
ROMANS
100
AcDbText
  0
LWPOLYLINE
  5
108
330
2
100
AcDbEntity
  8
IMAGE
100
AcDbPolyline
 90
        3
 70
     0
 43
0.018
 10
22.7892697703358
 20
6.996734895692373
 10
21.85919592724008
 20
6.996734895692373
 10
21.85919592724008
 20
6.782351250122238
  0
LWPOLYLINE
  5
109
330
2
100
AcDbEntity
  8
IMAGE
100
AcDbPolyline
 90
        3
 70
     0
 43
0.0
 10
21.37839196685595
 20
6.414492844403817
 42
-0.5291747719520333
 10
21.45778180906333
 20
6.414492844403817
 42
0.5001668032613813
 10
21.53717165127071
 20
6.414492844403817
  0
LWPOLYLINE
  5
10A
330
2
100
AcDbEntity
  8
IMAGE
100
AcDbPolyline
 90
        3
 70
     0
 43
0.0
 10
21.37839196685595
 20
6.479839180808848
 42
-0.5291747719520333
 10
21.45778180906333
 20
6.479839180808848
 42
0.5001668032613813
 10
21.53717165127071
 20
6.479839180808848
  0
LWPOLYLINE
  5
10B
330
2
100
AcDbEntity
  8
IMAGE
100
AcDbPolyline
 90
        3
 70
     0
 43
0.0
 10
21.78819979537852
 20
6.707606395496718
 42
-0.5291747719520333
 10
21.8675896375859
 20
6.707606395496718
 42
0.5001668032613813
 10
21.94697947979328
 20
6.707606395496718
  0
LWPOLYLINE
  5
10C
330
2
100
AcDbEntity
  8
IMAGE
100
AcDbPolyline
 90
        3
 70
     0
 43
0.0
 10
21.78819979537852
 20
6.772952731901749
 42
-0.5291747719520333
 10
21.8675896375859
 20
6.772952731901749
 42
0.5001668032613813
 10
21.94697947979328
 20
6.772952731901749
  0
LINE
  5
10D
330
2
100
AcDbEntity
  8
IMAGE
100
AcDbLine
 10
22.70269827906675
 20
6.932194786764119
 30
0.0
 11
22.90637079329016
 21
6.93219478676412
 31
0.0
  0
LINE
  5
10E
330
2
100
AcDbEntity
  8
IMAGE
100
AcDbLine
 10
22.90637079329017
 20
7.083905215230865
 30
0.0
 11
22.70269827906675
 21
7.083905215230865
 31
0.0
  0
LINE
  5
10F
330
2
100
AcDbEntity
  8
IMAGE
100
AcDbLine
 10
22.90637079329017
 20
7.107761608077418
 30
0.0
 11
22.70269827906675
 21
7.107761608077419
 31
0.0
  0
LINE
  5
110
330
2
100
AcDbEntity
  8
IMAGE
100
AcDbLine
 10
22.49310381276378
 20
6.832758411654136
 30
0.0
 11
23.12433377955771
 21
6.832758411654136
 31
0.0
  0
LINE
  5
111
330
2
100
AcDbEntity
  8
IMAGE
100
AcDbLine
 10
22.49310381276378
 20
6.790258411654138
 30
0.0
 11
22.95804506580121
 21
6.790258411654138
 31
0.0
  0
ARC
  5
112
330
2
100
AcDbEntity
  8
IMAGE
100
AcDbCircle
 10
22.49310381276378
 20
6.896508411654139
 30
0.0
 40
0.06375
100
AcDbArc
 50
180.0
 51
270.0
  0
ARC
  5
113
330
2
100
AcDbEntity
  8
IMAGE
100
AcDbCircle
 10
22.49310381276378
 20
6.896508411654139
 30
0.0
 40
0.10625
100
AcDbArc
 50
180.0
 51
270.0
  0
LINE
  5
114
330
2
100
AcDbEntity
  8
IMAGE
100
AcDbLine
 10
22.70269827906675
 20
7.083905215230865
 30
0.0
 11
22.70269827906675
 21
6.932194786764119
 31
0.0
  0
TEXT
  5
115
330
2
100
AcDbEntity
  8
IMAGE
100
AcDbText
 10
23.06814395347472
 20
6.976129095893826
 30
0.0
 40
0.053125
  1
   C/DC -
 41
0.8
  7
ROMANS
100
AcDbText
  0
LWPOLYLINE
  5
116
330
2
100
AcDbEntity
  8
IMAGE
100
AcDbPolyline
 90
        2
 70
     0
 43
0.002125
 10
23.15971224445453
 20
7.096921487543031
 10
23.48964915834386
 20
7.096655621933555
  0
LINE
  5
117
330
2
100
AcDbEntity
  8
IMAGE
100
AcDbLine
 10
22.90637079329016
 20
6.93219478676412
 30
0.0
 11
22.90637079329017
 21
7.083905215230865
 31
0.0
  0
TEXT
  5
118
330
2
100
AcDbEntity
  8
IMAGE
100
AcDbText
 10
21.54561671637316
 20
7.209951497153219
 30
0.0
 40
0.125
  1
WHITE
  7
ROMANS
100
AcDbText
  0
LINE
  5
119
330
2
100
AcDbEntity
  8
IMAGE
100
AcDbLine
 10
22.99899417481211
 20
7.521109376555929
 30
0.0
 11
22.99899417481211
 21
7.628522400626462
 31
0.0
  0
LWPOLYLINE
  5
11A
330
2
100
AcDbEntity
  8
IMAGE
100
AcDbPolyline
 90
        4
 70
     0
 43
0.0
 10
22.99899417481211
 20
7.628522400626462
 10
22.86109437042945
 20
7.628522400626462
 10
22.86109437042945
 20
7.521109376555928
 10
22.99899417481211
 20
7.521109376555929
  0
LINE
  5
11B
330
2
100
AcDbEntity
  8
IMAGE
100
AcDbLine
 10
22.84318510800265
 20
7.898845269974965
 30
0.0
 11
22.84318510800265
 21
7.517135819939605
 31
0.0
  0
LWPOLYLINE
  5
11C
330
2
100
AcDbEntity
  8
IMAGE
100
AcDbPolyline
 90
        6
 70
     0
 43
0.0
 10
22.64081264551151
 20
7.463530958084258
 10
22.64081264551151
 20
7.898845269974965
 10
23.01332152753452
 20
7.898845269974965
 10
23.01332152753452
 20
7.374311524361839
 10
22.64081264551151
 20
7.374311524361839
 10
22.64081264551151
 20
7.463530958084258
  0
LINE
  5
11D
330
2
100
AcDbEntity
  8
IMAGE
100
AcDbLine
 10
23.54770295813719
 20
7.810258411654141
 30
0.0
 11
23.5477029581372
 21
7.470258411654136
 31
0.0
  0
TEXT
  5
11E
330
2
100
AcDbEntity
  8
IMAGE
100
AcDbText
 10
23.49908972359627
 20
7.420269446168145
 30
0.0
 40
0.053125
  1
Flow Input
 50
90.0
  7
ROMANS
100
AcDbText
  0
LWPOLYLINE
  5
11F
330
2
100
AcDbEntity
  8
IMAGE
100
AcDbPolyline
 90
        2
 70
     0
 43
0.002125
 10
23.42164915834386
 20
7.899437212318663
 10
23.42164915834386
 20
7.379596047347582
  0
LWPOLYLINE
  5
120
330
2
100
AcDbEntity
  8
IMAGE
100
AcDbPolyline
 90
        4
 70
     1
 43
0.002125
 10
23.064635160042
 20
7.899588320136386
 10
23.064635160042
 20
7.379596047347582
 10
23.523635160042
 20
7.379596047347582
 10
23.523635160042
 20
7.899508411654139
  0
LINE
  5
121
330
2
100
AcDbEntity
  8
IMAGE
100
AcDbLine
 10
22.70269827906675
 20
7.259472036544165
 30
0.0
 11
22.90637079329017
 21
7.259472036544165
 31
0.0
  0
LWPOLYLINE
  5
122
330
2
100
AcDbEntity
  8
IMAGE
100
AcDbPolyline
 90
        2
 70
     0
 43
0.0
 10
22.64081264551151
 20
7.596193270671772
 10
22.64081264551151
 20
7.611968671656214
  0
LINE
  5
123
330
2
100
AcDbEntity
  8
IMAGE
100
AcDbLine
 10
22.84318510800265
 20
7.517135819939605
 30
0.0
 11
22.84318510800265
 21
7.374311524361839
 31
0.0
  0
LWPOLYLINE
  5
124
330
2
100
AcDbEntity
  8
IMAGE
100
AcDbPolyline
 90
        2
 70
     0
 43
0.0
 10
22.96814433842989
 20
7.295728720040648
 10
22.96814433842989
 20
7.37431152436184
  0
TEXT
  5
125
330
2
100
AcDbEntity
  8
IMAGE
100
AcDbText
 10
23.06814395347472
 20
7.174472680189004
 30
0.0
 40
0.053125
  1
   L/DC +
 41
0.8
  7
ROMANS
100
AcDbText
  0
TEXT
  5
126
330
2
100
AcDbEntity
  8
IMAGE
100
AcDbText
 10
23.09482384354491
 20
7.420269454472782
 30
0.0
 40
0.053125
  1
Red
  7
ROMANS
100
AcDbText
  0
TEXT
  5
127
330
2
100
AcDbEntity
  8
IMAGE
100
AcDbText
 10
23.09482384354491
 20
7.544813491775038
 30
0.0
 40
0.053125
  1
Black
  7
ROMANS
100
AcDbText
  0
LWPOLYLINE
  5
128
330
2
100
AcDbEntity
  8
IMAGE
100
AcDbPolyline
 90
        2
 70
     0
 43
0.002125
 10
23.064635160042
 20
7.509488518567106
 10
23.42164915834386
 20
7.509488518567106
  0
LINE
  5
129
330
2
100
AcDbEntity
  8
IMAGE
100
AcDbLine
 10
22.86109437042945
 20
7.522130494236463
 30
0.0
 11
22.86109437042945
 21
7.521109376555929
 31
0.0
  0
LWPOLYLINE
  5
12A
330
2
100
AcDbEntity
  8
IMAGE
100
AcDbPolyline
 90
        4
 70
     1
 43
0.0
 10
22.86109437042945
 20
7.39221382661777
 10
22.99899417481211
 20
7.39221382661777
 10
22.99899417481211
 20
7.499626850688303
 10
22.86109437042945
 20
7.499626850688303
  0
TEXT
  5
12B
330
2
100
AcDbEntity
  8
IMAGE
100
AcDbText
 10
23.32189526334048
 20
7.544813491775038
 30
0.0
 40
0.053125
  1
-
  7
ROMANS
100
AcDbText
  0
LWPOLYLINE
  5
12C
330
2
100
AcDbEntity
  8
IMAGE
100
AcDbPolyline
 90
        4
 70
     1
 43
0.0
 10
22.86109437042945
 20
7.880942967719034
 10
22.99899417481211
 20
7.880942967719034
 10
22.99899417481211
 20
7.773529943648501
 10
22.86109437042945
 20
7.773529943648501
  0
TEXT
  5
12D
330
2
100
AcDbEntity
  8
IMAGE
100
AcDbText
 10
23.09482384354491
 20
7.68401697311048
 30
0.0
 40
0.053125
  1
Red
  7
ROMANS
100
AcDbText
  0
LWPOLYLINE
  5
12E
330
2
100
AcDbEntity
  8
IMAGE
100
AcDbPolyline
 90
        2
 70
     0
 43
0.002125
 10
23.064635160042
 20
7.639380989786631
 10
23.42164915834386
 20
7.639380989786631
  0
LWPOLYLINE
  5
12F
330
2
100
AcDbEntity
  8
IMAGE
100
AcDbPolyline
 90
        2
 70
     0
 43
0.002125
 10
23.064635160042
 20
7.769273461006156
 10
23.42164915834386
 20
7.769273461006156
  0
LINE
  5
130
330
2
100
AcDbEntity
  8
IMAGE
100
AcDbLine
 10
22.86109437042945
 20
7.757418147930871
 30
0.0
 11
22.86109437042945
 21
7.650005123860339
 31
0.0
  0
LINE
  5
131
330
2
100
AcDbEntity
  8
IMAGE
100
AcDbLine
 10
22.99899417481211
 20
7.757418147930871
 30
0.0
 11
22.86109437042945
 21
7.757418147930871
 31
0.0
  0
LINE
  5
132
330
2
100
AcDbEntity
  8
IMAGE
100
AcDbLine
 10
22.99899417481211
 20
7.650005123860339
 30
0.0
 11
22.99899417481211
 21
7.757418147930871
 31
0.0
  0
LINE
  5
133
330
2
100
AcDbEntity
  8
IMAGE
100
AcDbLine
 10
22.86109437042945
 20
7.650005123860339
 30
0.0
 11
22.99899417481211
 21
7.650005123860339
 31
0.0
  0
TEXT
  5
134
330
2
100
AcDbEntity
  8
IMAGE
100
AcDbText
 10
23.32189526334048
 20
7.68401697311048
 30
0.0
 40
0.053125
  1
+
  7
ROMANS
100
AcDbText
  0
LINE
  5
135
330
2
100
AcDbEntity
  8
IMAGE
100
AcDbLine
 10
23.32963004465324
 20
8.810133551026215
 30
0.0
 11
23.32963004465324
 21
9.607803818960686
 31
0.0
  0
LINE
  5
136
330
2
100
AcDbEntity
  8
IMAGE
100
AcDbLine
 10
23.29998467206309
 20
8.810133551026215
 30
0.0
 11
23.29998467206308
 21
9.607803818960686
 31
0.0
  0
LINE
  5
137
330
2
100
AcDbEntity
  8
IMAGE
100
AcDbLine
 10
23.20887153820397
 20
8.810133551026215
 30
0.0
 11
23.20887153820397
 21
9.607803818960693
 31
0.0
  0
LINE
  5
138
330
2
100
AcDbEntity
  8
IMAGE
100
AcDbLine
 10
23.09020010117539
 20
8.868225364841496
 30
0.0
 11
23.09020010117539
 21
9.549712005145401
 31
0.0
  0
LINE
  5
139
330
2
100
AcDbEntity
  8
IMAGE
100
AcDbLine
 10
23.07973760127826
 20
9.539249505248271
 30
0.0
 11
23.07973760127826
 21
8.87868786473863
 31
0.0
  0
LINE
  5
13A
330
2
100
AcDbEntity
  8
IMAGE
100
AcDbLine
 10
21.60200726268256
 20
8.939991758183271
 30
0.0
 11
21.60200726268256
 21
9.47794561180363
 31
0.0
  0
LINE
  5
13B
330
2
100
AcDbEntity
  8
TEXT_BUBBLES
100
AcDbLine
 10
22.34136974318615
 20
8.789551941410042
 30
0.0
 11
22.10278765301145
 21
8.546881983824597
 31
0.0
  0
LINE
  5
13C
330
2
100
AcDbEntity
  8
IMAGE
100
AcDbLine
 10
23.07973760127826
 20
8.87868786473863
 30
0.0
 11
21.6633111561272
 21
8.87868786473863
 31
0.0
  0
INSERT
  5
13D
330
2
100
AcDbEntity
  8
TEXT_BUBBLES
100
AcDbBlockReference
 66
     1
  2
bubble
 10
22.01351993517689
 20
8.439177486448494
 30
0.0
  0
ATTRIB
  5
13E
330
13D
100
AcDbEntity
  8
TEXT_BUBBLES
100
AcDbText
 10
21.96292469708166
 20
8.376677486448494
 30
0.0
 40
0.125
  1
1
  7
ROMANS
 72
     4
 11
22.01351993517689
 21
8.439177486448494
 31
0.0
100
AcDbAttribute
  2
XX
 70
     0
  0
SEQEND
  5
13F
330
13D
100
AcDbEntity
  8
TEXT_BUBBLES
  0
ARC
  5
140
330
2
100
AcDbEntity
  8
IMAGE
100
AcDbCircle
 10
21.6633111561272
 20
8.939991758183271
 30
0.0
 40
0.0613038934446429
100
AcDbArc
 50
180.0000000000002
 51
270.0
  0
LINE
  5
141
330
2
100
AcDbEntity
  8
IMAGE
100
AcDbLine
 10
23.49124646738434
 20
8.282008411654135
 30
0.0
 11
22.49310381276378
 21
8.282008411654141
 31
0.0
  0
ARC
  5
142
330
2
100
AcDbEntity
  8
IMAGE
100
AcDbCircle
 10
22.49310381276378
 20
8.175758411654141
 30
0.0
 40
0.06375
100
AcDbArc
 50
90.0
 51
180.0
  0
ARC
  5
143
330
2
100
AcDbEntity
  8
IMAGE
100
AcDbCircle
 10
22.49010959081141
 20
8.178760285002667
 30
0.0
 40
0.1032915341261759
100
AcDbArc
 50
88.33887338371695
 51
178.4923770614876
  0
SOLID
  5
144
330
2
100
AcDbEntity
  8
TEXT_BUBBLES
100
AcDbTrace
 10
22.32651375596472
 20
8.80415767389611
 30
0.0
 11
22.35622573040758
 21
8.77494620892398
 31
0.0
 12
22.42900413810253
 22
8.87868786473863
 32
0.0
 13
22.42900413810253
 23
8.87868786473863
 33
0.0
  0
LINE
  5
145
330
2
100
AcDbEntity
  8
IMAGE
100
AcDbLine
 10
23.32963004465324
 20
8.810133551026215
 30
0.0
 11
23.20887153820397
 21
8.810133551026215
 31
0.0
  0
LINE
  5
146
330
2
100
AcDbEntity
  8
IMAGE
100
AcDbLine
 10
23.32963004465324
 20
8.889879071909923
 30
0.0
 11
23.20887153820397
 21
8.889879071909923
 31
0.0
  0
LINE
  5
147
330
2
100
AcDbEntity
  8
IMAGE
100
AcDbLine
 10
23.09020010117539
 20
8.865747552480097
 30
0.0
 11
23.09020010117539
 21
8.868225364841496
 31
0.0
  0
LINE
  5
148
330
2
100
AcDbEntity
  8
IMAGE
100
AcDbLine
 10
23.19342551082343
 20
8.851983550614736
 30
0.0
 11
23.10396410304076
 21
8.851983550614736
 31
0.0
  0
LINE
  5
149
330
2
100
AcDbEntity
  8
IMAGE
100
AcDbLine
 10
23.20887153820397
 20
8.829938494206974
 30
0.0
 11
23.20166891226811
 21
8.829938494206974
 31
0.0
  0
LINE
  5
14A
330
2
100
AcDbEntity
  8
IMAGE
100
AcDbLine
 10
23.20887153820397
 20
8.870074128729164
 30
0.0
 11
23.20166891226811
 21
8.870074128729164
 31
0.0
  0
ARC
  5
14B
330
2
100
AcDbEntity
  8
IMAGE
100
AcDbCircle
 10
23.22173672952921
 20
8.850006311468067
 30
0.0
 40
0.0283801793378639
100
AcDbArc
 50
134.9999999999998
 51
224.9999999999998
  0
ARC
  5
14C
330
2
100
AcDbEntity
  8
IMAGE
100
AcDbCircle
 10
23.10396410304076
 20
8.865747552480097
 30
0.0
 40
0.0137640018653639
100
AcDbArc
 50
180.0000000000003
 51
270.0
  0
ARC
  5
14D
330
2
100
AcDbEntity
  8
IMAGE
100
AcDbCircle
 10
23.07973760127826
 20
8.868225364841496
 30
0.0
 40
0.0104624998971306
100
AcDbArc
 50
0.0
 51
90.0
  0
LINE
  5
14E
330
2
100
AcDbEntity
  8
IMAGE
100
AcDbLine
 10
23.34741472500091
 20
8.824086031311143
 30
0.0
 11
23.34741472500091
 21
8.875926591624995
 31
0.0
  0
LINE
  5
14F
330
2
100
AcDbEntity
  8
IMAGE
100
AcDbLine
 10
23.32963004465324
 20
8.824086031311143
 30
0.0
 11
23.34741472500091
 21
8.824086031311143
 31
0.0
  0
LINE
  5
150
330
2
100
AcDbEntity
  8
IMAGE
100
AcDbLine
 10
23.36801692905432
 20
8.841112125703777
 30
0.0
 11
23.36801692905432
 21
8.858900497232355
 31
0.0
  0
LINE
  5
151
330
2
100
AcDbEntity
  8
IMAGE
100
AcDbLine
 10
23.34741472500091
 20
8.858900497232355
 30
0.0
 11
23.36801692905432
 21
8.858900497232355
 31
0.0
  0
LINE
  5
152
330
2
100
AcDbEntity
  8
IMAGE
100
AcDbLine
 10
23.34741472500091
 20
8.841112125703777
 30
0.0
 11
23.36801692905432
 21
8.841112125703777
 31
0.0
  0
LINE
  5
153
330
2
100
AcDbEntity
  8
IMAGE
100
AcDbLine
 10
23.34741472500091
 20
8.864277174192491
 30
0.0
 11
23.32963004465324
 21
8.864277174192491
 31
0.0
  0
LINE
  5
154
330
2
100
AcDbEntity
  8
IMAGE
100
AcDbLine
 10
23.34741472500091
 20
8.835735448743644
 30
0.0
 11
23.32963004465324
 21
8.835735448743644
 31
0.0
  0
LINE
  5
155
330
2
100
AcDbEntity
  8
IMAGE
100
AcDbLine
 10
23.32963004465324
 20
8.875926591624995
 30
0.0
 11
23.34741472500091
 21
8.875926591624995
 31
0.0
  0
LINE
  5
156
330
2
100
AcDbEntity
  8
IMAGE
100
AcDbLine
 10
23.07973760127826
 20
9.539249505248271
 30
0.0
 11
21.6633111561272
 21
9.539249505248271
 31
0.0
  0
ARC
  5
157
330
2
100
AcDbEntity
  8
IMAGE
100
AcDbCircle
 10
21.6633111561272
 20
9.47794561180363
 30
0.0
 40
0.0613038934446429
100
AcDbArc
 50
90.0
 51
180.0
  0
LINE
  5
158
330
2
100
AcDbEntity
  8
IMAGE
100
AcDbLine
 10
23.34741472500091
 20
9.593851338675758
 30
0.0
 11
23.34741472500091
 21
9.542010778361905
 31
0.0
  0
ARC
  5
159
330
2
100
AcDbEntity
  8
IMAGE
100
AcDbCircle
 10
23.07973760127826
 20
9.549712005145401
 30
0.0
 40
0.0104624998971306
100
AcDbArc
 50
270.0
 51
0.0
  0
LINE
  5
15A
330
2
100
AcDbEntity
  8
IMAGE
100
AcDbLine
 10
23.48385367644768
 20
9.314011567796679
 30
0.0
 11
23.48385367644768
 21
9.103925802190214
 31
0.0
  0
LINE
  5
15B
330
2
100
AcDbEntity
  8
IMAGE
100
AcDbLine
 10
23.32963004465324
 20
9.103925802190214
 30
0.0
 11
23.48385367644768
 21
9.103925802190214
 31
0.0
  0
LINE
  5
15C
330
2
100
AcDbEntity
  8
IMAGE
100
AcDbLine
 10
23.32963004465324
 20
9.528058298076977
 30
0.0
 11
23.20887153820397
 21
9.528058298076977
 31
0.0
  0
LINE
  5
15D
330
2
100
AcDbEntity
  8
IMAGE
100
AcDbLine
 10
23.32963004465324
 20
9.542010778361905
 30
0.0
 11
23.34741472500091
 21
9.542010778361905
 31
0.0
  0
LINE
  5
15E
330
2
100
AcDbEntity
  8
IMAGE
100
AcDbLine
 10
23.32963004465324
 20
9.314011567796679
 30
0.0
 11
23.48385367644768
 21
9.314011567796679
 31
0.0
  0
LINE
  5
15F
330
2
100
AcDbEntity
  8
IMAGE
100
AcDbLine
 10
23.32963004465324
 20
9.607803818960686
 30
0.0
 11
23.20887153820397
 21
9.607803818960693
 31
0.0
  0
LINE
  5
160
330
2
100
AcDbEntity
  8
IMAGE
100
AcDbLine
 10
23.19342551082343
 20
9.565953819372165
 30
0.0
 11
23.10396410304076
 21
9.565953819372165
 31
0.0
  0
LINE
  5
161
330
2
100
AcDbEntity
  8
IMAGE
100
AcDbLine
 10
23.20887153820397
 20
9.587998875779927
 30
0.0
 11
23.20166891226811
 21
9.587998875779927
 31
0.0
  0
LINE
  5
162
330
2
100
AcDbEntity
  8
IMAGE
100
AcDbLine
 10
23.20887153820397
 20
9.54786324125774
 30
0.0
 11
23.20166891226811
 21
9.54786324125774
 31
0.0
  0
ARC
  5
163
330
2
100
AcDbEntity
  8
IMAGE
100
AcDbCircle
 10
23.22173672952921
 20
9.567931058518833
 30
0.0
 40
0.0283801793378639
100
AcDbArc
 50
134.9999999999998
 51
224.9999999999998
  0
ARC
  5
164
330
2
100
AcDbEntity
  8
IMAGE
100
AcDbCircle
 10
23.10396410304076
 20
9.552189817506803
 30
0.0
 40
0.0137640018653639
100
AcDbArc
 50
90.0
 51
180.0
  0
LINE
  5
165
330
2
100
AcDbEntity
  8
IMAGE
100
AcDbLine
 10
23.09020010117539
 20
9.552189817506803
 30
0.0
 11
23.09020010117539
 21
9.549712005145401
 31
0.0
  0
LINE
  5
166
330
2
100
AcDbEntity
  8
IMAGE
100
AcDbLine
 10
23.32963004465324
 20
9.593851338675758
 30
0.0
 11
23.34741472500091
 21
9.593851338675758
 31
0.0
  0
LINE
  5
167
330
2
100
AcDbEntity
  8
IMAGE
100
AcDbLine
 10
23.34741472500091
 20
9.58220192124326
 30
0.0
 11
23.32963004465324
 21
9.58220192124326
 31
0.0
  0
LINE
  5
168
330
2
100
AcDbEntity
  8
IMAGE
100
AcDbLine
 10
23.34741472500091
 20
9.55366019579441
 30
0.0
 11
23.32963004465324
 21
9.55366019579441
 31
0.0
  0
LINE
  5
169
330
2
100
AcDbEntity
  8
IMAGE
100
AcDbLine
 10
23.34741472500091
 20
9.576825244283121
 30
0.0
 11
23.36801692905432
 21
9.576825244283121
 31
0.0
  0
LINE
  5
16A
330
2
100
AcDbEntity
  8
IMAGE
100
AcDbLine
 10
23.34741472500091
 20
9.559036872754546
 30
0.0
 11
23.36801692905432
 21
9.559036872754546
 31
0.0
  0
LINE
  5
16B
330
2
100
AcDbEntity
  8
IMAGE
100
AcDbLine
 10
23.36801692905432
 20
9.576825244283121
 30
0.0
 11
23.36801692905432
 21
9.559036872754546
 31
0.0
  0
LWPOLYLINE
  5
16C
330
2
100
AcDbEntity
  8
IMAGE
100
AcDbPolyline
 90
        2
 70
     0
 43
0.002125
 10
24.18418591468354
 20
8.004594725932244
 10
24.18418591468354
 20
8.100549281299478
  0
LWPOLYLINE
  5
16D
330
2
100
AcDbEntity
  8
IMAGE
100
AcDbPolyline
 90
        6
 70
     0
 43
0.002125
 10
23.82717191638168
 20
7.886758411654138
 10
23.82717191638168
 20
8.17548277556073
 10
23.72518591468353
 20
8.175445654816066
 10
23.72518591468353
 20
7.886758411654138
 10
24.18418591468354
 20
7.886758411654138
 10
24.18418591468354
 20
7.957982631747494
  0
LINE
  5
16E
330
2
100
AcDbEntity
  8
IMAGE
100
AcDbLine
 10
24.20256894704472
 20
7.886758411654138
 30
0.0
 11
24.20256894704472
 21
8.175758411654141
 31
0.0
  0
LINE
  5
16F
330
2
100
AcDbEntity
  8
IMAGE
100
AcDbLine
 10
24.52970381276379
 20
8.175758411654141
 30
0.0
 11
24.52970381276379
 21
7.886758411654138
 31
0.0
  0
TEXT
  5
170
330
2
100
AcDbEntity
  8
IMAGE
100
AcDbText
 10
23.80153797405219
 20
7.897057732172926
 30
0.0
 40
0.053125
  1
Output
 50
90.0
  7
ROMANS
100
AcDbText
  0
LINE
  5
171
330
2
100
AcDbEntity
  8
IMAGE
100
AcDbLine
 10
24.71245381276378
 20
6.896508411654139
 30
0.0
 11
24.71245381276378
 21
8.175758411654141
 31
0.0
  0
LINE
  5
172
330
2
100
AcDbEntity
  8
IMAGE
100
AcDbLine
 10
24.75495381276378
 20
6.896508411654139
 30
0.0
 11
24.75495381276378
 21
8.175758411654141
 31
0.0
  0
LWPOLYLINE
  5
173
330
2
100
AcDbEntity
  8
IMAGE
100
AcDbPolyline
 90
        5
 70
     0
 43
0.018
 10
24.20256894704472
 20
8.126694141360211
 10
23.87549115541364
 20
8.126694141360211
 10
23.87549115541364
 20
8.198949646435307
 10
25.08462924540272
 20
8.198949646435307
 10
25.08633982868044
 20
7.685891787060834
  0
LWPOLYLINE
  5
174
330
2
100
AcDbEntity
  8
IMAGE
100
AcDbPolyline
 90
        5
 70
     0
 43
0.018
 10
26.11488712209953
 20
8.105327715032192
 10
26.11488712209953
 20
8.025813735062813
 10
25.77687988231937
 20
7.717398410487426
 10
25.73212771740744
 20
7.685891787060834
 10
25.08633982868044
 20
7.685891787060834
  0
LWPOLYLINE
  5
175
330
2
100
AcDbEntity
  8
IMAGE
100
AcDbPolyline
 90
        4
 70
     0
 43
0.018
 10
26.20435962674722
 20
8.178129634476238
 10
26.20435962674722
 20
7.98601820931115
 10
25.78682127172466
 20
7.627858477546184
 10
25.08633982868044
 20
7.627858477546184
  0
LWPOLYLINE
  5
176
330
2
100
AcDbEntity
  8
IMAGE
100
AcDbPolyline
 90
        3
 70
     0
 43
0.0188
 10
26.67107905402209
 20
7.285795936892687
 10
26.67107905402209
 20
7.205178345816972
 10
25.08633982868044
 20
7.205178345816972
  0
LINE
  5
177
330
2
100
AcDbEntity
  8
IMAGE
100
AcDbLine
 10
26.3389865817225
 20
7.037750521279279
 30
0.0
 11
26.47846092337396
 21
7.037671281011253
 31
0.0
  0
LINE
  5
178
330
2
100
AcDbEntity
  8
IMAGE
100
AcDbLine
 10
26.33899750696894
 20
7.05698053644333
 30
0.0
 11
26.47847184862041
 21
7.056901296175312
 31
0.0
  0
LINE
  5
179
330
2
100
AcDbEntity
  8
IMAGE
100
AcDbLine
 10
26.35341490547526
 20
7.037742324042228
 30
0.0
 11
26.37015513950815
 21
6.874277124724334
 31
0.0
  0
LWPOLYLINE
  5
17A
330
2
100
AcDbEntity
  8
IMAGE
100
AcDbPolyline
 90
        3
 70
     0
 10
25.08633982868044
 20
7.137538354265889
 40
0.0188
 41
0.0188
 10
26.37065430797608
 20
7.137538354265889
 40
0.0188
 41
0.0188
 10
26.37065430797608
 20
7.056920763190174
 40
0.0
 41
0.0
  0
LWPOLYLINE
  5
17B
330
2
100
AcDbEntity
  8
IMAGE
100
AcDbPolyline
 90
        4
 70
     1
 43
0.0085
 10
24.56370381276379
 20
6.922858411654144
 10
24.56370381276379
 20
7.376758411654137
 10
24.32400381276378
 20
7.376758411654137
 10
24.32400381276378
 20
6.922858411654144
  0
TEXT
  5
17C
330
2
100
AcDbEntity
  8
IMAGE
100
AcDbText
 10
23.85785610135114
 20
7.083745605081692
 30
0.0
 40
0.053125
  1
Comm
  7
ROMANS
100
AcDbText
  0
LWPOLYLINE
  5
17D
330
2
100
AcDbEntity
  8
IMAGE
100
AcDbPolyline
 90
        4
 70
     1
 43
0.002125
 10
23.79700381276378
 20
7.376758411654137
 10
23.7975214513698
 20
6.923110477211721
 10
24.16075344696774
 20
6.92328544324178
 10
24.16075344696774
 20
7.376758411654137
  0
LINE
  5
17E
330
2
100
AcDbEntity
  8
TEXT_BUBBLES
100
AcDbLine
 10
23.88043103702118
 20
6.674790056970568
 30
0.0
 11
24.05199159667764
 21
6.380890250170676
 31
0.0
  0
INSERT
  5
17F
330
2
100
AcDbEntity
  8
TEXT_BUBBLES
100
AcDbBlockReference
 66
     1
  2
bubble
 10
24.18853039083341
 20
6.350932686282221
 30
0.0
  0
ATTRIB
  5
180
330
17F
100
AcDbEntity
  8
TEXT_BUBBLES
100
AcDbText
 10
24.12900658130959
 20
6.288432686282221
 30
0.0
 40
0.125
  1
3
  7
ROMANS
 72
     4
 11
24.18853039083341
 21
6.350932686282221
 31
0.0
100
AcDbAttribute
  2
XX
 70
     0
  0
SEQEND
  5
181
330
17F
100
AcDbEntity
  8
TEXT_BUBBLES
  0
SOLID
  5
182
330
2
100
AcDbEntity
  8
TEXT_BUBBLES
100
AcDbTrace
 10
23.86243881491985
 20
6.664287308681016
 30
0.0
 11
23.89842325912252
 21
6.685292805260134
 31
0.0
 12
23.81741454728384
 22
6.782743389578612
 32
0.0
 13
23.81741454728384
 23
6.782743389578612
 33
0.0
  0
TEXT
  5
183
330
2
100
AcDbEntity
  8
IMAGE
100
AcDbText
 10
23.89591274720822
 20
6.99695989014382
 30
0.0
 40
0.053125
  1
Port
  7
ROMANS
100
AcDbText
  0
ARC
  5
184
330
2
100
AcDbEntity
  8
IMAGE
100
AcDbCircle
 10
24.64870381276378
 20
6.896508411654139
 30
0.0
 40
0.06375
100
AcDbArc
 50
270.0
 51
0.0
  0
ARC
  5
185
330
2
100
AcDbEntity
  8
IMAGE
100
AcDbCircle
 10
24.64870381276378
 20
6.896508411654139
 30
0.0
 40
0.10625
100
AcDbArc
 50
270.0
 51
0.0
  0
TEXT
  5
186
330
2
100
AcDbEntity
  8
IMAGE
100
AcDbText
 10
25.14423550201067
 20
6.938322264202529
 30
0.0
 40
0.125
  1
BLACK
  7
L100
100
AcDbText
  0
LINE
  5
187
330
2
100
AcDbEntity
  8
IMAGE
100
AcDbLine
 10
26.3389865817225
 20
7.037750521279279
 30
0.0
 11
26.33899750696894
 21
7.05698053644333
 31
0.0
  0
LWPOLYLINE
  5
188
330
2
100
AcDbEntity
  8
IMAGE
100
AcDbPolyline
 90
        6
 70
     0
 43
0.018
 10
24.20256894704472
 20
7.987529122935725
 10
23.93172177589268
 20
7.987529122935725
 10
23.93172177589268
 20
7.729215700891521
 10
24.97819551039273
 20
7.729215700891521
 10
24.97819551039273
 20
7.62805802818345
 10
25.08633982868044
 20
7.627858477546184
  0
HATCH
  5
189
330
2
100
AcDbEntity
  8
IMAGE
100
AcDbHatch
 10
0.0
 20
0.0
 30
0.0
210
0.0
220
0.0
230
1.0
  2
SOLID
 70
     1
 71
     0
 91
        2
 92
        7
 72
     0
 73
     1
 93
      102
 10
24.51221030092973
 20
7.587115474540777
 10
24.51250946376912
 20
7.587115474540771
 10
24.51280726677742
 20
7.587414637380166
 10
24.52922586733562
 20
7.593683458696483
 10
24.53579385149135
 20
7.600549245860521
 10
24.53579385149135
 20
7.600848408699909
 10
24.53579385149135
 20
7.601146211708216
 10
24.53609165449965
 20
7.60114621170821
 10
24.53609165449965
 20
7.601445374547599
 10
24.53609165449965
 20
7.601743177555905
 10
24.53639081733904
 20
7.601743177555912
 10
24.53639081733904
 20
7.602042340395294
 10
24.53668862034735
 20
7.602340143403594
 10
24.53668862034735
 20
7.60263930624299
 10
24.53698778318673
 20
7.60293710925129
 10
24.53698778318673
 20
7.603236272090678
 10
24.53728558619503
 20
7.603534075098979
 10
24.53847951789042
 20
7.606520264168525
 10
24.53937564657751
 20
7.608011998872229
 10
24.5396748094169
 20
7.609802896415303
 10
24.54027177526459
 20
7.611295990950094
 10
24.5405695782729
 20
7.613086888493168
 10
24.54086874111229
 20
7.614877786036248
 10
24.54116654412059
 20
7.616668683579322
 10
24.54116654412059
 20
7.618161778114107
 10
24.54116654412059
 20
7.619952675657193
 10
24.54116654412059
 20
7.621743573200285
 10
24.54086874111229
 20
7.623534470743347
 10
24.54027177526458
 20
7.625027565278193
 10
24.5396748094169
 20
7.626818462821272
 10
24.53907784356921
 20
7.62831155735598
 10
24.53818171488213
 20
7.630102454899084
 10
24.53310682526118
 20
7.634282575664027
 10
24.53041979903092
 20
7.635475147528227
 10
24.52743496979257
 20
7.636669079223708
 10
24.52445014055408
 20
7.637565207910792
 10
24.52116614847623
 20
7.637864370750174
 10
24.51788215639837
 20
7.638162173758481
 10
24.51459952415159
 20
7.63846133659787
 10
24.51131553207377
 20
7.638162173758487
 10
24.50803153999581
 20
7.638162173758481
 10
24.50474754791762
 20
7.637864370750138
 10
24.50116575283185
 20
7.637565207910786
 10
24.497881760754
 20
7.637565207910786
 10
24.49459776867614
 20
7.637565207910786
 10
24.49161293943769
 20
7.637565207910792
 10
24.4886281101992
 20
7.637864370750174
 10
24.48833030719089
 20
7.637565207910786
 10
24.48803114435151
 20
7.637565207910786
 10
24.48773198151212
 20
7.637565207910786
 10
24.48743417850382
 20
7.637565207910786
 10
24.48594108396904
 20
7.635475147528311
 10
24.48534411812136
 20
7.63458037867234
 10
24.48474715227365
 20
7.633386446976925
 10
24.48415018642596
 20
7.632490318289853
 10
24.48385238341765
 20
7.631595549433827
 10
24.48325541756997
 20
7.630401617738466
 10
24.48265845172226
 20
7.629505489051377
 10
24.48206148587458
 20
7.628311557355992
 10
24.48146316019578
 20
7.627415428668895
 10
24.48086755417919
 20
7.626221496973517
 10
24.48026922850039
 20
7.625325368286421
 10
24.47967226265271
 20
7.624132796422136
 10
24.47907529680502
 20
7.623236667735053
 10
24.47847833095733
 20
7.622042736039674
 10
24.47788136510963
 20
7.621146607352584
 10
24.47429957002348
 20
7.613386051332587
 10
24.472209509641
 20
7.609802896415303
 10
24.47041861209792
 20
7.605923298320854
 10
24.46832991154653
 20
7.6023401434036
 10
24.46653765417235
 20
7.598460545309122
 10
24.464448953621
 20
7.594877390391916
 10
24.4623588932385
 20
7.59099643246632
 10
24.46056799569549
 20
7.58741463738028
 10
24.45847793531298
 20
7.583533679454641
 10
24.45668703776987
 20
7.579951884368451
 10
24.45519394323509
 20
7.576070926442909
 10
24.45340304569201
 20
7.572489131356749
 10
24.45191131098836
 20
7.568608173431285
 10
24.45071737929294
 20
7.565026378345028
 10
24.44952208776646
 20
7.561443223427774
 10
24.47340344133638
 20
7.562638514954247
 10
24.47519433887947
 20
7.565623344192736
 10
24.47609046756653
 20
7.567414241735767
 10
24.47698659625363
 20
7.568907336270571
 10
24.47758356210134
 20
7.570698233813681
 10
24.47847833095732
 20
7.572489131356743
 10
24.47937445964441
 20
7.574280028899822
 10
24.4799714254921
 20
7.575773123434602
 10
24.48086755417918
 20
7.577564020977658
 10
24.48176232303518
 20
7.579055755681373
 10
24.48265845172227
 20
7.580548850216146
 10
24.48355322057826
 20
7.582041944750926
 10
24.48474715227363
 20
7.583533679454581
 10
24.48564328096073
 20
7.584727611150002
 10
24.48683721265612
 20
7.585922902676462
 10
24.48833030719089
 20
7.587115474540771
 10
24.49937485528878
 20
7.561443223427774
 10
24.52027001978914
 20
7.561742386267175
 10
24.51221030092973
 20
7.586220705684787
 10
24.51221030092973
 20
7.586519868524176
 10
24.51221030092973
 20
7.586817671532476
 97
        0
 92
       22
 72
     0
 73
     1
 93
       75
 10
24.50086794982356
 20
7.60472800679437
 10
24.49967265829708
 20
7.60472800679437
 10
24.49877788944108
 20
7.604728006794376
 10
24.49847872660169
 20
7.605027169633764
 10
24.49818092359339
 20
7.605324972642065
 10
24.497881760754
 20
7.60562413548146
 10
24.49750925231602
 20
7.606370853309177
 10
24.49788176075399
 20
7.607115870185139
 10
24.49788176075399
 20
7.607714195863922
 10
24.49818092359339
 20
7.608311161711617
 10
24.49818092359339
 20
7.608908127559307
 10
24.49847872660147
 20
7.609505093406918
 10
24.49877788944108
 20
7.610102059254703
 10
24.49907705228056
 20
7.610699025102393
 10
24.49937485528878
 20
7.611295990950083
 10
24.49997182113648
 20
7.612192119637184
 10
24.50026962414473
 20
7.612789085484813
 10
24.50056878698416
 20
7.613386051332563
 10
24.500867949824
 20
7.613983017181055
 10
24.50116575283187
 20
7.61457998302796
 10
24.50146355584017
 20
7.614877786036267
 10
24.50176271867955
 20
7.615474751883944
 10
24.50176271867955
 20
7.616073077562727
 10
24.50206188151894
 20
7.61666868357934
 10
24.50235968452724
 20
7.616967846418717
 10
24.50265884736662
 20
7.617564812266412
 10
24.50295665037494
 20
7.617863975105819
 10
24.50325581321433
 20
7.618460940953502
 10
24.50385277906202
 20
7.618758743961815
 10
24.50415058207032
 20
7.619056546970109
 10
24.5053445137657
 20
7.619952675657181
 10
24.51101636923435
 20
7.621146607352578
 10
24.51131553207374
 20
7.620848804344284
 10
24.51161333508204
 20
7.620848804344277
 10
24.51191249792143
 20
7.620848804344277
 10
24.51221030092973
 20
7.620848804344277
 10
24.51250946376913
 20
7.620848804344277
 10
24.51310642961681
 20
7.620848804344277
 10
24.5134055924562
 20
7.620848804344277
 10
24.51370339546452
 20
7.620549641504883
 10
24.5140025583039
 20
7.620549641504883
 10
24.5143003613122
 20
7.620549641504888
 10
24.5148973271599
 20
7.620251838496582
 10
24.51519648999928
 20
7.620251838496588
 10
24.51549429300895
 20
7.619952675656469
 10
24.51579345584697
 20
7.619654872648893
 10
24.51668822470297
 20
7.619355709809504
 10
24.51668822470297
 20
7.618161778114107
 10
24.51668822470297
 20
7.61726564942703
 10
24.51668822470297
 20
7.616668683579334
 10
24.51639042169468
 20
7.615773914723338
 10
24.51639042169468
 20
7.614877786036248
 10
24.51609125885528
 20
7.614282180019641
 10
24.5154942930076
 20
7.613386051332563
 10
24.5151964899993
 20
7.612789085484892
 10
24.51459952415158
 20
7.611892956797765
 10
24.51430036131221
 20
7.611295990950094
 10
24.51370339546451
 20
7.610699025102399
 10
24.51310642961681
 20
7.610102059254703
 10
24.51250946376913
 20
7.609505093407008
 10
24.51191249792142
 20
7.608908127559307
 10
24.51101636923435
 20
7.607714195863922
 10
24.51012160037834
 20
7.607115870185151
 10
24.50952463453065
 20
7.606520264168538
 10
24.50892766868293
 20
7.606221101329131
 10
24.50803153999588
 20
7.605923298320842
 10
24.50743457414819
 20
7.605624135481466
 10
24.50653844546109
 20
7.605324972642053
 10
24.50594283944449
 20
7.605027169633759
 10
24.50534451376571
 20
7.605027169633759
 10
24.5044497449097
 20
7.604728006794376
 10
24.50385277906202
 20
7.60472800679437
 10
24.50295665037494
 20
7.60472800679437
 10
24.50235968452724
 20
7.60472800679437
 10
24.50146355584016
 20
7.60472800679437
 97
        0
 75
     0
 76
     1
 47
0.000561511643593
 98
        2
 10
24.50085917566899
 20
7.592967739019733
 10
24.50085917566899
 20
7.592967739019733
  0
HATCH
  5
18A
330
2
100
AcDbEntity
  8
IMAGE
100
AcDbHatch
 10
0.0
 20
0.0
 30
0.0
210
0.0
220
0.0
230
1.0
  2
SOLID
 70
     1
 71
     0
 91
        1
 92
        7
 72
     0
 73
     1
 93
       11
 10
24.4707177749373
 20
7.637864370750174
 10
24.44713422437568
 20
7.637864370750174
 10
24.44683642136738
 20
7.637565207910792
 10
24.446537258528
 20
7.637565207910786
 10
24.40922349346942
 20
7.563235480801949
 10
24.40922349346942
 20
7.562936317962554
 10
24.40922349346942
 20
7.562638514954259
 10
24.40952129647773
 20
7.562339352114864
 10
24.40952129647773
 20
7.562041549106558
 10
24.40982045931698
 20
7.562041549106558
 10
24.43280568419996
 20
7.562638514954253
 97
        0
 75
     0
 76
     1
 47
0.000561511643593
 98
        1
 10
24.44833758216299
 20
7.613013701078255
  0
HATCH
  5
18B
330
2
100
AcDbEntity
  8
IMAGE
100
AcDbHatch
 10
0.0
 20
0.0
 30
0.0
210
0.0
220
0.0
230
1.0
  2
SOLID
 70
     1
 71
     0
 91
        3
 92
        7
 72
     0
 73
     1
 93
      110
 10
24.426836025723
 20
7.629206326211976
 10
24.42773079457904
 20
7.63129638659451
 10
24.4286269232661
 20
7.633684249985232
 10
24.42892472627441
 20
7.636073473207101
 10
24.4295216921221
 20
7.638162173758481
 10
24.4295216921221
 20
7.640550037149274
 10
24.42982085496149
 20
7.642939260371107
 10
24.4295216921221
 20
7.645327123761871
 10
24.42952169212209
 20
7.647714987152682
 10
24.42892472627442
 20
7.649805047535145
 10
24.42832912025779
 20
7.652192910925847
 10
24.42773079457904
 20
7.653983808469006
 10
24.42683602572301
 20
7.656073868851481
 10
24.42564209402763
 20
7.657864766394543
 10
24.42444680250117
 20
7.659655663937622
 10
24.41847714402423
 20
7.662043527328404
 10
24.41549231478575
 20
7.662939656015476
 10
24.41250612571679
 20
7.663536621863159
 10
24.40922349346932
 20
7.664133587710873
 10
24.4059395013916
 20
7.664431390719173
 10
24.40265550931371
 20
7.664431390719173
 10
24.39937151723585
 20
7.664431390719173
 10
24.39608888498908
 20
7.664431390719173
 10
24.39280489291117
 20
7.664431390719173
 10
24.38952090083335
 20
7.664133587710873
 10
24.38623826858659
 20
7.664133587710873
 10
24.38295427650873
 20
7.664133587710873
 10
24.37996944727026
 20
7.664133587710873
 10
24.37668545519238
 20
7.664133587710873
 10
24.37369926612284
 20
7.664431390719173
 10
24.37340146311455
 20
7.664133587710873
 10
24.37310366010624
 20
7.664133587710873
 10
24.37280449726685
 20
7.664133587710873
 10
24.37250533442746
 20
7.664133587710873
 10
24.37220753141916
 20
7.664133587710873
 10
24.36563954726349
 20
7.651296782238921
 10
24.36205775217732
 20
7.645027960922567
 10
24.35877376009945
 20
7.638759139606231
 10
24.35519196501341
 20
7.632490318290125
 10
24.35161016992715
 20
7.625923693965331
 10
24.34832617784923
 20
7.619654872648887
 10
24.34504218577138
 20
7.613386051332575
 10
24.34146039068515
 20
7.606818067176718
 10
24.33817639860736
 20
7.600549245860515
 10
24.33519156936887
 20
7.593982621535872
 10
24.33190757729102
 20
7.587713800219554
 10
24.32922191089196
 20
7.581444978903249
 10
24.32623572182241
 20
7.575176157586943
 10
24.32384785843161
 20
7.568907336270583
 10
24.32145999504085
 20
7.562638514954247
 10
24.33190757729125
 20
7.562936317962548
 10
24.33728026992016
 20
7.562936317962559
 10
24.3429534852233
 20
7.562638514954138
 10
24.34832617785109
 20
7.562339352114798
 10
24.35399803331787
 20
7.562041549106558
 10
24.35966988878654
 20
7.561742386267169
 10
24.36504258141575
 20
7.561742386267169
 10
24.37041663387609
 20
7.561742386267169
 10
24.37578932650533
 20
7.562041549106552
 10
24.38086421612585
 20
7.562936317962548
 10
24.38564130273892
 20
7.563832446649656
 10
24.39041702952049
 20
7.565623344192748
 10
24.3948949532937
 20
7.567713404575211
 10
24.39907371422754
 20
7.570698233813663
 10
24.4029546721531
 20
7.574280028899853
 10
24.40355163800079
 20
7.574876994747524
 10
24.40384944100909
 20
7.575473960595213
 10
24.4038494410091
 20
7.575773123434608
 10
24.40414860384848
 20
7.576370089282285
 10
24.40444640685708
 20
7.576667892290912
 10
24.40474556969617
 20
7.576965695298893
 10
24.40504337270448
 20
7.577564020977682
 10
24.40504337270448
 20
7.577861823985976
 10
24.40534253554387
 20
7.578160986825372
 10
24.40564169838327
 20
7.578757952673079
 10
24.40593950139157
 20
7.579055755681367
 10
24.40593950139157
 20
7.579652721529063
 10
24.40623866423096
 20
7.579951884368464
 10
24.40653646723927
 20
7.580548850216165
 10
24.40713343308695
 20
7.581145816063836
 10
24.40862652762172
 20
7.584727611149983
 10
24.40922349346942
 20
7.58681767153247
 10
24.40952129647773
 20
7.588907731914975
 10
24.40952129647773
 20
7.590698629458031
 10
24.40952129647773
 20
7.592788689840499
 10
24.40952129647773
 20
7.59487739039188
 10
24.40952129647773
 20
7.596668287934996
 10
24.40922349346946
 20
7.598758348317133
 10
24.40892433063003
 20
7.600549245860521
 10
24.40862652762174
 20
7.602340143403613
 10
24.40802956177404
 20
7.604132400777762
 10
24.4077303989346
 20
7.605923298321018
 10
24.40743259592633
 20
7.60741503302463
 10
24.40713343308695
 20
7.609205930567584
 10
24.40683563007865
 20
7.610699025102399
 10
24.40922349346942
 20
7.611892956797784
 10
24.4104174251648
 20
7.612489922645467
 10
24.41161135686019
 20
7.613386051332557
 10
24.41310445139499
 20
7.613983017180258
 10
24.41429838309037
 20
7.614877786036248
 10
24.41549231478575
 20
7.615773914723338
 10
24.41668624648115
 20
7.616668683579328
 10
24.41758101533713
 20
7.617564812266406
 10
24.41877630686361
 20
7.618460940953502
 10
24.419970238559
 20
7.619355709809486
 10
24.420865007415
 20
7.620549641504883
 10
24.42205893911038
 20
7.621445770191979
 10
24.42295506779746
 20
7.622639701887357
 10
24.42384983665347
 20
7.623833633582742
 10
24.42504376834885
 20
7.625325368286439
 97
        0
 92
       22
 72
     0
 73
     1
 93
       34
 10
24.40384944100909
 20
7.636073473207071
 10
24.40355163800078
 20
7.634878181680604
 10
24.40325383499249
 20
7.633983412824639
 10
24.40265550931371
 20
7.633087284137536
 10
24.40205854346601
 20
7.632192515281534
 10
24.40176074045771
 20
7.631296386594462
 10
24.40116377461002
 20
7.63040161773846
 10
24.40056680876232
 20
7.62950548905137
 10
24.39996984291463
 20
7.628012394516597
 10
24.39877455138822
 20
7.627116265829579
 10
24.39787978253212
 20
7.62652065981287
 10
24.39668585083677
 20
7.625923693965217
 10
24.39549191914138
 20
7.625325368286433
 10
24.394297987446
 20
7.624728402438744
 10
24.39310405575069
 20
7.624430599430443
 10
24.39161096121583
 20
7.624132796422112
 10
24.39041702952053
 20
7.62383363358276
 10
24.38892393498567
 20
7.623534470743353
 10
24.38743084045088
 20
7.623236667735053
 10
24.38623826858659
 20
7.623236667735053
 10
24.38474517405179
 20
7.623236667735053
 10
24.38325207951704
 20
7.622938864726746
 10
24.38205814782164
 20
7.622938864726746
 10
24.37937112159148
 20
7.623236667735053
 10
24.39161096121583
 20
7.643534866387721
 10
24.39190876422413
 20
7.643534866387721
 10
24.39220792706358
 20
7.643534866387716
 10
24.40355163800079
 20
7.642939260371107
 10
24.40384944100909
 20
7.641743968844635
 10
24.40414860384866
 20
7.640849199987685
 10
24.40444640685679
 20
7.639953071301555
 10
24.40444640685679
 20
7.638759139606171
 10
24.40444640685679
 20
7.637864370750168
 10
24.40414860384813
 20
7.636968242062112
 97
        0
 92
       22
 72
     0
 73
     1
 93
       32
 10
24.38295427650873
 20
7.60293710925129
 10
24.38355124235643
 20
7.6020423403953
 10
24.38414820820412
 20
7.601445374547605
 10
24.38444601121243
 20
7.600848408699903
 10
24.38504297706009
 20
7.59995228001288
 10
24.3853421398995
 20
7.599355314165136
 10
24.3853421398995
 20
7.598460545309128
 10
24.38564130273889
 20
7.597564416622056
 10
24.38564130273889
 20
7.596967450774354
 10
24.38564130273889
 20
7.596071322087277
 10
24.3853421398995
 20
7.595176553231275
 10
24.3853421398995
 20
7.594280424544185
 10
24.38504297706011
 20
7.593384295857107
 10
24.38474517405181
 20
7.592489527001111
 10
24.38444601121242
 20
7.591593398314021
 10
24.38355124235642
 20
7.590101663610342
 10
24.38235731066104
 20
7.588310766067255
 10
24.38116337896511
 20
7.587115474539678
 10
24.37996944727026
 20
7.585922902676481
 10
24.37877415574378
 20
7.584727611149996
 10
24.37728242104013
 20
7.584132005133424
 10
24.37578932650531
 20
7.583235876446311
 10
24.37399842896229
 20
7.582638910598627
 10
24.37250533442743
 20
7.582339747759227
 10
24.37071443688441
 20
7.581742781911543
 10
24.3689235393413
 20
7.58144497890323
 10
24.36743044480651
 20
7.58144497890323
 10
24.36563954726347
 20
7.581444978903236
 10
24.36384864972036
 20
7.581145816063848
 10
24.36205775217726
 20
7.581444978903224
 10
24.35877376009941
 20
7.581742781911531
 10
24.36952050518898
 20
7.603236272090678
 97
        0
 75
     0
 76
     1
 47
0.000561511643593
 98
        3
 10
24.41443727551226
 20
7.633059668977483
 10
24.41443727551226
 20
7.633059668977483
 10
24.41443727551226
 20
7.633059668977483
  0
HATCH
  5
18C
330
2
100
AcDbEntity
  8
IMAGE
100
AcDbHatch
 10
0.0
 20
0.0
 30
0.0
210
0.0
220
0.0
230
1.0
  2
SOLID
 70
     1
 71
     0
 91
        1
 92
        7
 72
     0
 73
     1
 93
      410
 10
24.25578695263911
 20
7.612192119637172
 10
24.25548778980017
 20
7.611892956798164
 10
24.25518998679141
 20
7.611593793958389
 10
24.25489082395202
 20
7.611593793958401
 10
24.25489082395202
 20
7.611295990950088
 10
24.25459302094372
 20
7.611295990950088
 10
24.25429385810433
 20
7.611295990950088
 10
24.25399605509603
 20
7.611295990950088
 10
24.24742807094032
 20
7.612789085484868
 10
24.24683110509262
 20
7.612192119637178
 10
24.24683110509262
 20
7.611892956797784
 10
24.24683110509262
 20
7.611593793958395
 10
24.24683110509262
 20
7.6109968281107
 10
24.24683110509262
 20
7.610699025102399
 10
24.24683110509262
 20
7.610399862263005
 10
24.24683110509262
 20
7.610102059254703
 10
24.24683110509262
 20
7.609802896415309
 10
24.24683110509262
 20
7.609505093407008
 10
24.24683110509262
 20
7.60920593056762
 10
24.24653194225323
 20
7.60920593056762
 10
24.24653194225323
 20
7.608908127559319
 10
24.24623413924494
 20
7.608908127559319
 10
24.23369649661227
 20
7.610699025102405
 10
24.23787525754613
 20
7.605324972642065
 10
24.23787525754613
 20
7.604728006794363
 10
24.23757745453782
 20
7.604430203786075
 10
24.23757745453782
 20
7.604132400777769
 10
24.23727829169843
 20
7.604132400777769
 10
24.23727829169844
 20
7.603833237938386
 10
24.23698048869013
 20
7.603833237938386
 10
24.23668132585074
 20
7.603534075098985
 10
24.23638352284243
 20
7.603534075098985
 10
24.23638352284243
 20
7.603236272090684
 10
24.23608436000304
 20
7.603236272090691
 10
24.21966575944484
 20
7.608311161711624
 10
24.21847318758054
 20
7.607115870185145
 10
24.21847318758054
 20
7.605923298320854
 10
24.21877099058884
 20
7.605324972642065
 10
24.21906879359703
 20
7.604728006792504
 10
24.21936795643653
 20
7.60413240077778
 10
24.21996492228422
 20
7.603534075098991
 10
24.22026408512361
 20
7.602937109251308
 10
24.22056188813192
 20
7.60263930624299
 10
24.22115885397962
 20
7.602042340395294
 10
24.22145801681901
 20
7.601743177555917
 10
24.22175581982789
 20
7.601146211706453
 10
24.2220549826667
 20
7.600549245860521
 10
24.222352785675
 20
7.600251442852214
 10
24.2226519485144
 20
7.599654477004518
 10
24.2226519485144
 20
7.599056151325735
 10
24.22294975152269
 20
7.598460545309134
 10
24.2205618881319
 20
7.59875834831744
 10
24.21936795643649
 20
7.599056151325759
 10
24.21847318758054
 20
7.599355314165136
 10
24.21727789605407
 20
7.599952280012825
 10
24.21608396435868
 20
7.600549245860521
 10
24.21489003266329
 20
7.60114621170821
 10
24.2136961009679
 20
7.601743177555899
 10
24.21250216927253
 20
7.602042340395276
 10
24.2113082375771
 20
7.602639306242995
 10
24.21041210889009
 20
7.602937109251296
 10
24.20921817719468
 20
7.603236272090684
 10
24.20802424549927
 20
7.603236272090684
 10
24.20683031380388
 20
7.603236272090678
 10
24.2059341851168
 20
7.60293710925129
 10
24.2050394162608
 20
7.602639306242983
 10
24.21041210889004
 20
7.595474356239588
 10
24.20742727965152
 20
7.596071322087295
 10
24.20563638210849
 20
7.596370484926647
 10
24.20414328757372
 20
7.596967450774354
 10
24.20265155287003
 20
7.59756441662205
 10
24.20115845833527
 20
7.598161382469739
 10
24.1993675607921
 20
7.598758348317489
 10
24.19787446625735
 20
7.599355314165136
 10
24.19638273155363
 20
7.599654477004464
 10
24.19459047417968
 20
7.599952280012783
 10
24.19309873948224
 20
7.600251442851097
 10
24.19160564494107
 20
7.600549245860521
 10
24.19011391023737
 20
7.600549245860521
 10
24.18832301269428
 20
7.600549245860521
 10
24.18682991815952
 20
7.599952280012825
 10
24.18563598646413
 20
7.599654477004518
 10
24.19220261078879
 20
7.595474356239569
 10
24.19548660286662
 20
7.593086492848733
 10
24.19877059494448
 20
7.590996432466331
 10
24.20205458702229
 20
7.588907731914945
 10
24.20533721926912
 20
7.586519868524158
 10
24.20862121134701
 20
7.584429808141731
 10
24.21190520342478
 20
7.582041944750974
 10
24.21518919550267
 20
7.579951884368457
 10
24.21847318758055
 20
7.577861823985995
 10
24.22175581982732
 20
7.575473960595213
 10
24.22533897474455
 20
7.573383900212739
 10
24.22892076983072
 20
7.571295199661352
 10
24.23250256491687
 20
7.569205139278872
 10
24.23608436000327
 20
7.567414241735701
 10
24.24026448076798
 20
7.565623344192724
 10
24.24683110509262
 20
7.565324181353323
 10
24.24981593433105
 20
7.565922507032106
 10
24.25250296056124
 20
7.567115078896403
 10
24.25489082395201
 20
7.568907336270576
 10
24.2569808843345
 20
7.570698233813669
 10
24.25907094471697
 20
7.573086097204432
 10
24.26115964526835
 20
7.575473960595219
 10
24.26295054281143
 20
7.578160986825377
 10
24.26474144035451
 20
7.580848013055542
 10
24.26653369772868
 20
7.583533679454617
 10
24.26832459527175
 20
7.586220705684757
 10
24.27011549281485
 20
7.588609928906662
 10
24.27220555319732
 20
7.590996432466344
 10
24.27429425374869
 20
7.592788689840499
 10
24.27698127997885
 20
7.594579587383574
 10
24.27727908298717
 20
7.59487739039188
 10
24.27757824582614
 20
7.595176553230949
 10
24.27787740866595
 20
7.595474356239575
 10
24.27847437451364
 20
7.595474356239575
 10
24.27877217752194
 20
7.595474356239575
 10
24.27907134036134
 20
7.59577351907897
 10
24.27936914336964
 20
7.59577351907897
 10
24.27966830620903
 20
7.59577351907897
 10
24.27996610921733
 20
7.59577351907897
 10
24.28056307506502
 20
7.59577351907897
 10
24.28086223790442
 20
7.596071322087277
 10
24.28116004091272
 20
7.59607132208727
 10
24.28175700676041
 20
7.59607132208727
 10
24.2820561695998
 20
7.59637048492666
 10
24.28265313544749
 20
7.596668287934966
 10
24.2874288622291
 20
7.596370484926671
 10
24.28951892261152
 20
7.59607132208727
 10
24.29160762316285
 20
7.595773519078976
 10
24.29369768354539
 20
7.595176553231293
 10
24.29578774392791
 20
7.594280424544203
 10
24.29757864147093
 20
7.593384295857107
 10
24.29936953901401
 20
7.592489527001111
 10
24.30116043655709
 20
7.591593398314008
 10
24.3029513341002
 20
7.590399466618636
 10
24.30444442863493
 20
7.588907731914963
 10
24.30623532617803
 20
7.587713800219566
 10
24.30772842071281
 20
7.586220705684781
 10
24.30922151524759
 20
7.584727611150002
 10
24.31071324995128
 20
7.583235876446316
 10
24.31250414749436
 20
7.581742781911531
 10
24.31250414749436
 20
7.582339747759233
 10
24.31250414749436
 20
7.582638910598621
 10
24.31250414749436
 20
7.582936713606922
 10
24.31250414749436
 20
7.583235876446316
 10
24.31250414749436
 20
7.583832842294012
 10
24.31250414749436
 20
7.5841320051334
 10
24.31250414749436
 20
7.584429808141701
 10
24.31280331033375
 20
7.584727611150002
 10
24.31280331033374
 20
7.58502677398939
 10
24.31310111334205
 20
7.585324576997697
 10
24.31340027618144
 20
7.585623739837092
 10
24.31369807918974
 20
7.585623739837092
 10
24.31429504503744
 20
7.585922902676486
 10
24.31489201088513
 20
7.585623739837085
 10
24.31549033656391
 20
7.585623739837092
 10
24.31578813957221
 20
7.585623739837092
 10
24.31638510541991
 20
7.585623739837092
 10
24.31668290842821
 20
7.585623739837092
 10
24.31728123410699
 20
7.585623739837092
 10
24.3175790371153
 20
7.585623739837092
 10
24.31817600296299
 20
7.585623739837092
 10
24.31847516580238
 20
7.585623739837092
 10
24.31877296881068
 20
7.585623739837092
 10
24.31936993465837
 20
7.585623739837092
 10
24.31966909749776
 20
7.585623739837092
 10
24.31996690050553
 20
7.585922902675967
 10
24.32026606334497
 20
7.586220705684165
 10
24.32056522618486
 20
7.586519868524182
 10
24.31757903711528
 20
7.588011603227855
 10
24.31668290842822
 20
7.589205534923269
 10
24.31608730241159
 20
7.590399466618666
 10
24.31519117372452
 20
7.591892561153404
 10
24.31489201088513
 20
7.5930864928488
 10
24.31429504503743
 20
7.594579587383604
 10
24.31399724202914
 20
7.596071322087295
 10
24.31340027618144
 20
7.597564416622068
 10
24.31310111334205
 20
7.599056151325723
 10
24.31250414749434
 20
7.600549245860484
 10
24.31190718164666
 20
7.601743177555905
 10
24.31131021579896
 20
7.602937109251302
 10
24.31041544694297
 20
7.604132400777775
 10
24.30922151524759
 20
7.605027169633764
 10
24.30802622372108
 20
7.605923298320854
 10
24.30742925787342
 20
7.606221101329149
 10
24.30713145486511
 20
7.606221101329155
 10
24.30683229202572
 20
7.606520264168538
 10
24.30653448901741
 20
7.606520264168538
 10
24.30623532617802
 20
7.606520264168538
 10
24.30593752316974
 20
7.606818067176845
 10
24.30563836033034
 20
7.606818067176845
 10
24.30534055732204
 20
7.606818067176851
 10
24.30504139448264
 20
7.607115870185151
 10
24.30444442863495
 20
7.607115870185145
 10
24.30414662562665
 20
7.607115870185145
 10
24.30384746278726
 20
7.607115870185145
 10
24.30325049693956
 20
7.607115870185145
 10
24.30295133410017
 20
7.607115870185139
 10
24.30265353109187
 20
7.607415033024533
 10
24.30056483054045
 20
7.607714195863929
 10
24.2996687018534
 20
7.607714195863929
 10
24.29877257316401
 20
7.60801199887238
 10
24.29787780431034
 20
7.608311161711617
 10
24.29698167562321
 20
7.608908127559319
 10
24.29608690676722
 20
7.609205930567632
 10
24.29548994091953
 20
7.609802896415321
 10
24.29459381223248
 20
7.610399862262998
 10
24.29399684638477
 20
7.610699025102411
 10
24.29339988053707
 20
7.611593793958407
 10
24.29280291468533
 20
7.612192119638567
 10
24.29220594884168
 20
7.612789085484862
 10
24.29160762316289
 20
7.613683854340876
 10
24.2913098201546
 20
7.614579983027947
 10
24.2910120171463
 20
7.615474751883944
 10
24.29757864147092
 20
7.629804651890759
 10
24.29787780431059
 20
7.630102454899688
 10
24.29817560731843
 20
7.630401617737953
 10
24.29847477015898
 20
7.630699420747365
 10
24.29877257316631
 20
7.630997223755068
 10
24.2990717360057
 20
7.63129638659445
 10
24.30056483054049
 20
7.633684249985249
 10
24.30145959939648
 20
7.634878181680616
 10
24.30235436825247
 20
7.636073473207089
 10
24.30295133410016
 20
7.637266045071386
 10
24.30384746278724
 20
7.63816217375847
 10
24.30474359147432
 20
7.639356105453854
 10
24.30563836033034
 20
7.640252234140944
 10
24.30623532617803
 20
7.641446165836335
 10
24.30713145486511
 20
7.642340934692336
 10
24.3077284207128
 20
7.643534866387721
 10
24.3086231895688
 20
7.644728798083106
 10
24.30922151524759
 20
7.645924089609584
 10
24.30981848109525
 20
7.647118021304921
 10
24.31041544694297
 20
7.648611115839749
 10
24.31131021579897
 20
7.650102850543434
 10
24.3089223524082
 20
7.658162569402831
 10
24.30713145486508
 20
7.661745724320121
 10
24.30504139448264
 20
7.665327519406251
 10
24.30265353109194
 20
7.668312348644709
 10
24.29996650486176
 20
7.67129717788309
 10
24.29698167562321
 20
7.674283366952781
 10
24.29399684638477
 20
7.676969033351827
 10
24.29101201714639
 20
7.679656059581997
 10
24.28772802506848
 20
7.682343085812155
 10
24.28474319582997
 20
7.685028752211237
 10
24.28175700676036
 20
7.687715778441376
 10
24.27877217752194
 20
7.690700607679871
 10
24.27578734828347
 20
7.693686796749472
 10
24.27339948489271
 20
7.69667162598787
 10
24.27130942451022
 20
7.700253421074054
 10
24.27101026167084
 20
7.700253421074054
 10
24.27071245866254
 20
7.70025342107406
 10
24.27787740866594
 20
7.679356896742596
 10
24.27668211713947
 20
7.678759930894901
 10
24.27608515129178
 20
7.678759930894907
 10
24.27578734828348
 20
7.678759930894907
 10
24.27548954527517
 20
7.678759930894907
 10
24.27489121959638
 20
7.679059093734301
 10
24.27459341658809
 20
7.679356896742602
 10
24.2742942537487
 20
7.679656059581991
 10
24.27369728790101
 20
7.679656059581997
 10
24.27339948489264
 20
7.679955222422007
 10
24.2731003220533
 20
7.680253025429705
 10
24.27250335620561
 20
7.680550828437999
 10
24.27220555319731
 20
7.680550828437993
 10
24.27190639035794
 20
7.680849991277382
 10
24.27130942451023
 20
7.680849991277382
 10
24.27101026167084
 20
7.680849991277382
 10
24.27578734828348
 20
7.667118416949343
 10
24.27489121959639
 20
7.666819254109943
 10
24.27459341658809
 20
7.666819254109954
 10
24.27429425374869
 20
7.667118416949343
 10
24.2739964507404
 20
7.66711841694935
 10
24.273697287901
 20
7.667416219957644
 10
24.27339948489271
 20
7.667416219957644
 10
24.27310032205331
 20
7.667715382797038
 10
24.27280251904501
 20
7.667715382797027
 10
24.27250335620561
 20
7.668014545636415
 10
24.27220555319732
 20
7.668014545636421
 10
24.27190639035792
 20
7.668014545636421
 10
24.27160722751853
 20
7.668312348644722
 10
24.27130942451023
 20
7.668014545636421
 10
24.27101026167084
 20
7.668014545636421
 10
24.27071245866254
 20
7.668014545636421
 10
24.27608515129178
 20
7.653684645629605
 10
24.27489121959639
 20
7.652490713934215
 10
24.27482554059795
 20
7.652425034935776
 10
24.26862239828006
 20
7.656371671859769
 10
24.26832459527176
 20
7.656073868851462
 10
24.26802543243237
 20
7.656073868851462
 10
24.26802543243237
 20
7.65577470601208
 10
24.26772762942407
 20
7.655475543172686
 10
24.27310032205331
 20
7.643534866387727
 10
24.27280251904501
 20
7.642939260371114
 10
24.27280251904501
 20
7.642640097531732
 10
24.27250335620562
 20
7.642640097531732
 10
24.27250335620562
 20
7.642340934692336
 10
24.27250335620562
 20
7.64204313168403
 10
24.27190639035792
 20
7.641743968844629
 10
24.27160722751854
 20
7.641446165836347
 10
24.27130942451023
 20
7.641446165836341
 10
24.27101026167084
 20
7.641446165836341
 10
24.27071245866254
 20
7.641446165836341
 10
24.27041465565423
 20
7.641446165836341
 10
24.27011549281484
 20
7.641446165836341
 10
24.26981632997545
 20
7.641446165836341
 10
24.26951852696714
 20
7.641446165836335
 10
24.26921936412776
 20
7.641147002996946
 10
24.26892156111945
 20
7.641147002996946
 10
24.26892156111946
 20
7.64084919998864
 10
24.26862239828006
 20
7.640849199988645
 10
24.26862239828006
 20
7.64055003714925
 10
24.27071245866254
 20
7.636968242063097
 10
24.27041465565423
 20
7.636371276215395
 10
24.27011549281484
 20
7.636371276215395
 10
24.27011549281484
 20
7.636073473207095
 10
24.27011549281484
 20
7.635774310367706
 10
24.26981632997545
 20
7.635774310367706
 10
24.26981632997545
 20
7.635475147528311
 10
24.26981632997545
 20
7.635177344519998
 10
24.24205537831106
 20
7.651595945078225
 10
24.23877138623323
 20
7.656073868851457
 10
24.23727829169844
 20
7.65846173224222
 10
24.23548739415536
 20
7.660849595633001
 10
24.2339956594517
 20
7.663536621863135
 10
24.23220340207752
 20
7.665924485253916
 10
24.23071166737385
 20
7.668312348644637
 10
24.22892076983074
 20
7.670999374874837
 10
24.22712987228767
 20
7.673387238265594
 10
24.22563677775287
 20
7.675775101656412
 10
24.22384588020978
 20
7.677865162038947
 10
24.22205498266666
 20
7.680253025429705
 10
24.22026408512361
 20
7.682343085812161
 10
24.21847318758056
 20
7.684431786363469
 10
24.21668093020636
 20
7.686224043737691
 10
24.21518919550266
 20
7.688014941280783
 10
24.22056188813193
 20
7.675178135808747
 10
24.22026408512361
 20
7.674581169961052
 10
24.21996492228423
 20
7.674581169961046
 10
24.21996492228423
 20
7.674283366952751
 10
24.21996492228423
 20
7.673984204113362
 10
24.21966575944483
 20
7.673984204113356
 10
24.21966575944484
 20
7.673685041273968
 10
24.21966575944483
 20
7.673387238265661
 10
24.21906879359715
 20
7.673088075426278
 10
24.21877099058884
 20
7.673088075426278
 10
24.21847318758054
 20
7.673088075426273
 10
24.21817402474115
 20
7.672790272417971
 10
24.21787486190176
 20
7.672790272417977
 10
24.21757705889346
 20
7.672491109578583
 10
24.21757705889346
 20
7.672193306570282
 10
24.21757705889346
 20
7.671297177883192
 10
24.21757705889346
 20
7.670999374874892
 10
24.21787486190175
 20
7.670700212035491
 10
24.21787486190176
 20
7.670402409027197
 10
24.21817402474115
 20
7.670103246187814
 10
24.21817402474115
 20
7.669805443179495
 10
24.21847318758054
 20
7.669506280340119
 10
24.21847318758054
 20
7.669207117500723
 10
24.21877099058885
 20
7.669207117500723
 10
24.21877099058884
 20
7.668909314492423
 10
24.21877099058884
 20
7.668611511484116
 10
24.21877099058884
 20
7.668312348644728
 10
24.21877099058884
 20
7.668014545636427
 10
24.21847318758073
 20
7.667715382797075
 10
24.21817402474115
 20
7.66741621995765
 10
24.21787486190175
 20
7.667416219957644
 10
24.21787486190176
 20
7.667118416949343
 10
24.21757705889346
 20
7.667118416949343
 10
24.21727789605407
 20
7.667118416949343
 10
24.21698009304575
 20
7.667118416949343
 10
24.21668093020638
 20
7.667118416949343
 10
24.21608396435868
 20
7.666819254109949
 10
24.21608396435868
 20
7.666521451101654
 10
24.21578616135037
 20
7.666521451101647
 10
24.21578616135038
 20
7.666223648093341
 10
24.21578616135038
 20
7.665924485253952
 10
24.21578616135038
 20
7.665625322414564
 10
24.21578616135038
 20
7.665327519406258
 10
24.21578616135038
 20
7.665028356566868
 10
24.21548699851097
 20
7.66472919372748
 10
24.21160604058544
 20
7.664431390719173
 10
24.21130823757713
 20
7.663834424871478
 10
24.21130823757713
 20
7.663536621863177
 10
24.21130823757713
 20
7.663237459023789
 10
24.21130823757713
 20
7.662939656015482
 10
24.21130823757713
 20
7.662640493176093
 10
24.21100907473774
 20
7.662342690167792
 10
24.21100907473774
 20
7.662043527328398
 10
24.21071127172944
 20
7.661745724320097
 10
24.21041210889001
 20
7.661745724320097
 10
24.20145762117464
 20
7.663834424871484
 10
24.20265155287003
 20
7.660550432793619
 10
24.18026193400378
 20
7.66383442487149
 10
24.22623374360053
 20
7.642640097531732
 10
24.23100947038207
 20
7.639356105453884
 10
24.23309953076457
 20
7.637864370750205
 10
24.23518959114705
 20
7.636073473207095
 10
24.2372782916984
 20
7.634282575664033
 10
24.23906918924154
 20
7.632192515281522
 10
24.24115924962402
 20
7.630401617738448
 10
24.24295014716706
 20
7.628311557355986
 10
24.2447410447101
 20
7.626221496973535
 10
24.24623413924487
 20
7.624132796422191
 10
24.24802503678803
 20
7.622042736039613
 10
24.24951813132278
 20
7.619952675657193
 10
24.25100986602641
 20
7.617863975105758
 10
24.25250296056128
 20
7.616073077562703
 10
24.25399605509605
 20
7.613983017180234
 97
        0
 75
     0
 76
     1
 47
0.0002325663910684
 98
        1
 10
24.27276193899838
 20
7.616715929538595
  0
HATCH
  5
18D
330
2
100
AcDbEntity
  8
IMAGE
100
AcDbHatch
 10
0.0
 20
0.0
 30
0.0
210
0.0
220
0.0
230
1.0
  2
SOLID
 70
     1
 71
     0
 91
        1
 92
        7
 72
     0
 73
     1
 93
       69
 10
24.13011136347318
 20
7.601445374547599
 10
24.13041052631257
 20
7.60114621170821
 10
24.13070968915197
 20
7.60114621170821
 10
24.13100749216027
 20
7.601146211708216
 10
24.13100749216027
 20
7.600848408699915
 10
24.13130665499966
 20
7.600848408699909
 10
24.13130665499966
 20
7.600549245860515
 10
24.13160445800796
 20
7.600549245860521
 10
24.13160445800796
 20
7.600251442852208
 10
24.13190226101626
 20
7.600251442852214
 10
24.13190226101626
 20
7.599952280012825
 10
24.13220142385565
 20
7.599952280012825
 10
24.1360823817812
 20
7.563533283810255
 10
24.15847064081634
 20
7.563832446649637
 10
24.17668013891765
 20
7.597863579461475
 10
24.19697969740139
 20
7.638759139606177
 10
24.17459007853515
 20
7.638759139606171
 10
24.17250137798378
 20
7.636371276215408
 10
24.1716052492967
 20
7.635177344520023
 10
24.171008283449
 20
7.633983412824632
 10
24.17011351459301
 20
7.632789481129254
 10
24.16951518891422
 20
7.631595549433844
 10
24.16891822306654
 20
7.630401617738472
 10
24.16802345421053
 20
7.629206326211988
 10
24.16742648836284
 20
7.627714591508309
 10
24.16682952251514
 20
7.626520659812905
 10
24.16623255666744
 20
7.625325368286415
 10
24.16563559081975
 20
7.623833633582748
 10
24.16473946213268
 20
7.622340539047987
 10
24.164142496285
 20
7.621146607352621
 10
24.16324772742897
 20
7.619654872648863
 10
24.16265076158129
 20
7.618460940953496
 10
24.16175463289419
 20
7.616967846418693
 10
24.16145547005425
 20
7.616370880569856
 10
24.16115766704651
 20
7.615773914723338
 10
24.16056070119882
 20
7.615176948875655
 10
24.16026153836015
 20
7.614579983029349
 10
24.15996373535012
 20
7.613983017178229
 10
24.15966457251184
 20
7.613386051332962
 10
24.15936676950324
 20
7.612789085484541
 10
24.15906760666368
 20
7.612192119636417
 10
24.15876980365573
 20
7.611593793958395
 10
24.15847064081634
 20
7.610699025102399
 10
24.15817283780804
 20
7.610102059254709
 10
24.15787367496865
 20
7.60920593056762
 10
24.15757587196035
 20
7.608311161711624
 10
24.15757587196035
 20
7.607714195863929
 10
24.15697754628157
 20
7.606818067176845
 10
24.15667974327265
 20
7.60652026416887
 10
24.15638194026496
 20
7.606221101329143
 10
24.15608277742557
 20
7.60562413548146
 10
24.15578361458617
 20
7.605324972642065
 10
24.15548581157787
 20
7.60472800679437
 10
24.1551866487376
 20
7.604430203784559
 10
24.15488884573019
 20
7.604132400777769
 10
24.15458968288902
 20
7.603833237937227
 10
24.15414229846296
 20
7.603383810658945
 10
24.15369491403481
 20
7.603833237938386
 10
24.1533957511954
 20
7.603833237938374
 10
24.1530979481871
 20
7.604430203786069
 10
24.1530979481871
 20
7.605027169633794
 10
24.14891782742217
 20
7.638759139606165
 10
24.12533563669163
 20
7.638759139606171
 10
24.12503783368332
 20
7.638759139606171
 10
24.12473867084393
 20
7.638759139606171
 10
24.12443950800455
 20
7.638759139606171
 10
24.12414170499625
 20
7.638759139606171
 10
24.08831967464136
 20
7.563533283810243
 10
24.1110070965159
 20
7.563832446649644
 97
        0
 75
     0
 76
     1
 47
0.000561511643593
 98
        1
 10
24.12996826611747
 20
7.613007766924694
  0
HATCH
  5
18E
330
2
100
AcDbEntity
  8
IMAGE
100
AcDbHatch
 10
0.0
 20
0.0
 30
0.0
210
0.0
220
0.0
230
1.0
  2
SOLID
 70
     1
 71
     0
 91
        1
 92
        7
 72
     0
 73
     1
 93
       37
 10
24.10772310443804
 20
7.638759139606177
 10
24.08503704239459
 20
7.638759139606171
 10
24.0847378795552
 20
7.638759139606171
 10
24.08443871671581
 20
7.638759139606171
 10
24.08414091370751
 20
7.638759139606171
 10
24.08384175086811
 20
7.638759139606171
 10
24.08085692162966
 20
7.633386446976931
 10
24.07966298993429
 20
7.630699420746809
 10
24.07816989539949
 20
7.628012394516622
 10
24.07697596370411
 20
7.62562453112584
 10
24.07548422900042
 20
7.622938864726776
 10
24.07429029730504
 20
7.620251838496637
 10
24.07309500577852
 20
7.617863975105752
 10
24.07160327107487
 20
7.615176948875667
 10
24.07040933937947
 20
7.612489922645491
 10
24.06891624484464
 20
7.609802896415242
 10
24.06772231314933
 20
7.607415033024594
 10
24.06622921861452
 20
7.60472800679437
 10
24.06503528691916
 20
7.60204234039533
 10
24.06354355221547
 20
7.599355314165178
 10
24.06234962052006
 20
7.596967450774361
 10
24.06055872297698
 20
7.592489527001111
 10
24.05966259428989
 20
7.590101663610336
 10
24.0584686625945
 20
7.588011603227867
 10
24.05757253390741
 20
7.585922902676481
 10
24.05637860221204
 20
7.583832842294012
 10
24.05518467051666
 20
7.582041944750938
 10
24.05399073882126
 20
7.579951884368457
 10
24.05279680712588
 20
7.577861823985982
 10
24.05160287543048
 20
7.575773123434584
 10
24.05070674674342
 20
7.573982225891558
 10
24.04951281504802
 20
7.571892165509053
 10
24.04891584920032
 20
7.569802105126573
 10
24.04831888335262
 20
7.567713404575192
 10
24.04772191750493
 20
7.565623344192724
 10
24.04772191750494
 20
7.563533283810249
 10
24.07070714238776
 20
7.563533283810249
 97
        0
 75
     0
 76
     1
 47
0.000561511643593
 98
        1
 10
24.08699604940052
 20
7.61587147495581
  0
HATCH
  5
18F
330
2
100
AcDbEntity
  8
IMAGE
100
AcDbHatch
 10
0.0
 20
0.0
 30
0.0
210
0.0
220
0.0
230
1.0
  2
SOLID
 70
     1
 71
     0
 91
        2
 92
        7
 72
     0
 73
     1
 93
       59
 10
24.02115353770485
 20
7.638759139606171
 10
24.02085573469655
 20
7.638759139606171
 10
23.96025758191576
 20
7.563533283810249
 10
23.98592983302875
 20
7.563533283810249
 10
23.98682460188474
 20
7.56413024965795
 10
23.98712376472414
 20
7.564429412497339
 10
23.98772073057183
 20
7.564727215505627
 10
23.98801853358013
 20
7.565026378345022
 10
23.98831769641951
 20
7.565623344192718
 10
23.98861549942744
 20
7.565922507031762
 10
23.98921246527508
 20
7.566519472879384
 10
23.9895116281149
 20
7.566817275888109
 10
23.9898107909543
 20
7.567414241735804
 10
23.9901085939626
 20
7.567713404575174
 10
23.990407756802
 20
7.568310370422888
 10
23.99070555981029
 20
7.568608173431182
 10
23.99100336281815
 20
7.569205139278002
 10
23.99130252565799
 20
7.569802105126567
 10
23.99189949150567
 20
7.570399070974226
 10
23.99458651773585
 20
7.572788294196137
 10
23.99607825243953
 20
7.573683063052121
 10
23.99757134697434
 20
7.574280028899829
 10
23.99936224451746
 20
7.57487699474753
 10
24.00115314206048
 20
7.575176157586906
 10
24.00294539943467
 20
7.575473960595207
 10
24.00473629697773
 20
7.575473960595207
 10
24.00652719452081
 20
7.575473960595207
 10
24.00831809206387
 20
7.575473960595207
 10
24.01010898960696
 20
7.575176157586906
 10
24.01219904998944
 20
7.575176157586906
 10
24.0139899475325
 20
7.575176157586906
 10
24.01578084507556
 20
7.574876994747518
 10
24.01757174261868
 20
7.574876994747518
 10
24.01966180300115
 20
7.575176157586906
 10
24.01966180300115
 20
7.574876994747518
 10
24.01966180300115
 20
7.574579191739212
 10
24.01996096584054
 20
7.574280028899811
 10
24.01996096584054
 20
7.573982225891522
 10
24.02025876884885
 20
7.573982225891522
 10
24.02025876884885
 20
7.573683063052127
 10
24.02025876884885
 20
7.573383900212733
 10
24.02055657185715
 20
7.573383900212733
 10
24.01996096584057
 20
7.571892165509078
 10
24.01966180300115
 20
7.571295199661352
 10
24.01936264016177
 20
7.570698233813675
 10
24.01906483715346
 20
7.569802105126573
 10
24.01876567431479
 20
7.569205139280237
 10
24.01846787130577
 20
7.568608173431188
 10
24.01846787130577
 20
7.568011207583493
 10
24.01816870846638
 20
7.567115078896403
 10
24.01816870846638
 20
7.566519472879807
 10
24.01816870846638
 20
7.565922507032112
 10
24.01816870846638
 20
7.565324181353329
 10
24.01816870846638
 20
7.564727215505627
 10
24.01846787130577
 20
7.56413024965795
 10
24.01906483715148
 20
7.563832446650206
 10
24.01966180300115
 20
7.563533283810243
 10
24.04085613034091
 20
7.564130249657939
 10
24.05458770466895
 20
7.638759139606171
 97
        0
 92
       22
 72
     0
 73
     1
 93
       17
 10
24.02742235902118
 20
7.6112959909501
 10
24.0241397267744
 20
7.594877390391874
 10
24.02354276092671
 20
7.594280424544197
 10
24.02294579507901
 20
7.59398262153589
 10
24.02264663223962
 20
7.59398262153589
 10
24.02204966639194
 20
7.593683458696496
 10
24.02145270054424
 20
7.593683458696496
 10
24.02085573469655
 20
7.593683458696496
 10
24.02025876884885
 20
7.593683458696496
 10
24.01966180300115
 20
7.593683458696496
 10
24.01906483715346
 20
7.593683458696496
 10
24.01846787130577
 20
7.593683458696496
 10
24.01787090545808
 20
7.593683458696496
 10
24.01697477677099
 20
7.593683458696496
 10
24.0163778109233
 20
7.593683458696496
 10
24.0157808450756
 20
7.593683458696496
 10
24.01458691338022
 20
7.593683458696496
 97
        0
 75
     0
 76
     1
 47
0.000561511643593
 98
        2
 10
24.02826735463177
 20
7.625417174233572
 10
24.02826735463177
 20
7.625417174233572
  0
HATCH
  5
190
330
2
100
AcDbEntity
  8
IMAGE
100
AcDbHatch
 10
0.0
 20
0.0
 30
0.0
210
0.0
220
0.0
230
1.0
  2
SOLID
 70
     1
 71
     0
 91
        2
 92
        7
 72
     0
 73
     1
 93
      126
 10
23.96921206963116
 20
7.665625322414564
 10
23.96563027454491
 20
7.666223648093347
 10
23.96204847945882
 20
7.666521451101647
 10
23.95846668437265
 20
7.666819254109949
 10
23.95488352945541
 20
7.666819254109949
 10
23.95130173436929
 20
7.666819254109949
 10
23.94742077644374
 20
7.666521451101647
 10
23.94383898135745
 20
7.666521451101647
 10
23.93995802343194
 20
7.666223648093341
 10
23.93637622834584
 20
7.666223648093341
 10
23.93279443325964
 20
7.665924485253952
 10
23.92951044118181
 20
7.666223648093341
 10
23.92622644910392
 20
7.666521451101654
 10
23.92592728626456
 20
7.666521451101647
 10
23.92562948325625
 20
7.666521451101647
 10
23.92294245702614
 20
7.663237459023831
 10
23.92174852533068
 20
7.661745724320079
 10
23.9205545936353
 20
7.659953466945911
 10
23.91965982477932
 20
7.658461732242232
 10
23.91876369609223
 20
7.656670834699158
 10
23.91786756740515
 20
7.65487857732499
 10
23.91697279854914
 20
7.65308767978188
 10
23.91607666986208
 20
7.650998979230536
 10
23.91518190100607
 20
7.649206721856356
 10
23.91428577231899
 20
7.647415824313275
 10
23.91338964363191
 20
7.645624926770208
 10
23.91249487477591
 20
7.64353486638774
 10
23.91159874608882
 20
7.641743968844648
 10
23.91040481439345
 20
7.639953071301592
 10
23.90951004553744
 20
7.638162173758481
 10
23.9047329589248
 20
7.62861072019538
 10
23.90234509553407
 20
7.623833633582832
 10
23.89995723214322
 20
7.619355709809426
 10
23.8975693687525
 20
7.614579983028002
 10
23.89488234252231
 20
7.609802896415303
 10
23.89249447913152
 20
7.605027169633734
 10
23.88980745290137
 20
7.600549245860521
 10
23.88741958951059
 20
7.59577351907897
 10
23.88503172611983
 20
7.590996432466368
 10
23.88294166573735
 20
7.586519868524193
 10
23.88055380234657
 20
7.581742781911537
 10
23.87876290480352
 20
7.577264858138335
 10
23.87697200726042
 20
7.572489131356767
 10
23.87518110971733
 20
7.568011207583505
 10
23.87398581819086
 20
7.563533283810243
 10
23.90144896684694
 20
7.56413024965795
 10
23.92025543079592
 20
7.598161382469745
 10
23.93189830457258
 20
7.563533283810249
 10
23.9551826922948
 20
7.564130249657944
 10
23.95428656360771
 20
7.565922507032112
 10
23.95398876059941
 20
7.566817275888102
 10
23.95368959776003
 20
7.568011207583493
 10
23.95368959776003
 20
7.568907336270571
 10
23.95339179475171
 20
7.570101267966022
 10
23.95309263191314
 20
7.570996036819016
 10
23.95279482890402
 20
7.571892165509078
 10
23.95249566606464
 20
7.573086097204444
 10
23.95249566606464
 20
7.573982225891522
 10
23.95219786305634
 20
7.575176157586876
 10
23.95189870021694
 20
7.576070926442903
 10
23.95159953737776
 20
7.576965695298488
 10
23.95130173437026
 20
7.577861823984865
 10
23.95100257152987
 20
7.578757952673073
 10
23.95100257152987
 20
7.579951884368451
 10
23.95040560568218
 20
7.582638910598621
 10
23.94980863983448
 20
7.5841320051334
 10
23.94921167398678
 20
7.585623739837092
 10
23.94861470813908
 20
7.587115474540783
 10
23.94831690513079
 20
7.588609928906651
 10
23.9477199392831
 20
7.590101663610336
 10
23.94712297343539
 20
7.591593398314021
 10
23.94682381059599
 20
7.593086492848788
 10
23.94652600758769
 20
7.594280424544197
 10
23.94622684474831
 20
7.59577351907897
 10
23.94622684474831
 20
7.596967450774348
 10
23.94652600758764
 20
7.598161382470017
 10
23.94682381059601
 20
7.599355314165136
 10
23.94742077644369
 20
7.600251442852214
 10
23.94861470813909
 20
7.601445374547599
 10
23.95010780267387
 20
7.601445374547599
 10
23.95100257152987
 20
7.601445374547599
 10
23.95189870021696
 20
7.601445374547599
 10
23.95279482890402
 20
7.601743177555905
 10
23.95368959776002
 20
7.601743177555905
 10
23.95458572644711
 20
7.602042340395294
 10
23.95548049530311
 20
7.6023401434036
 10
23.95637662399014
 20
7.602639306242965
 10
23.95757055568562
 20
7.602937109251308
 10
23.95846668437266
 20
7.603236272090684
 10
23.95936145322866
 20
7.603534075098985
 10
23.96025758191578
 20
7.603833237938368
 10
23.96145151361116
 20
7.604132400777775
 10
23.96234628246711
 20
7.604430203786069
 10
23.96354021416239
 20
7.60502716963374
 10
23.9674211720881
 20
7.606818067176875
 10
23.96951123247053
 20
7.608011998872217
 10
23.97130213001362
 20
7.60920593056762
 10
23.97309302755672
 20
7.61039986226301
 10
23.9748839250998
 20
7.611892956797784
 10
23.97637701963455
 20
7.613386051332569
 10
23.97816791717764
 20
7.614877786036242
 10
23.97936184887301
 20
7.616668683579304
 10
23.98085494340781
 20
7.618460940953502
 10
23.98204887510319
 20
7.620549641504883
 10
23.98324280679858
 20
7.622639701887357
 10
23.98413757565458
 20
7.624728402438738
 10
23.98503370434166
 20
7.627116265829513
 10
23.98592983302875
 20
7.629505489051388
 10
23.98652679887644
 20
7.632192515281582
 10
23.98712376472415
 20
7.635475147528499
 10
23.98742156773244
 20
7.637266045071397
 10
23.98772073057183
 20
7.639056942614471
 10
23.98772073057183
 20
7.640849199988645
 10
23.98772073057183
 20
7.642640097531725
 10
23.98772073057183
 20
7.644430995074793
 10
23.98742156773244
 20
7.646223252448973
 10
23.98712376472413
 20
7.648012790160965
 10
23.98682460188474
 20
7.649805047535139
 10
23.98622763603706
 20
7.651595945078219
 10
23.98563067018935
 20
7.653386842621292
 10
23.98473590133336
 20
7.65487857732499
 10
23.98383977264627
 20
7.656371671859751
 10
23.98264584095091
 20
7.658162569402952
 10
23.98174971226381
 20
7.659655663937622
 10
23.97578005378686
 20
7.663237459023795
 10
23.97249606170901
 20
7.664431390719173
 97
        0
 92
       22
 72
     0
 73
     1
 93
       57
 10
23.95786971852497
 20
7.642640097531725
 10
23.95846668437267
 20
7.642043131684012
 10
23.95995841907635
 20
7.640849199988645
 10
23.95966061606805
 20
7.631893352442151
 10
23.95846668437265
 20
7.630401617738442
 10
23.95727139284619
 20
7.629206326211988
 10
23.9560774611508
 20
7.628012394516597
 10
23.95488352945542
 20
7.626818462821218
 10
23.95368959776003
 20
7.625923693965217
 10
23.95219786305485
 20
7.625027565277474
 10
23.95070476852156
 20
7.624132796422136
 10
23.9489138709785
 20
7.623534470743384
 10
23.94742077644371
 20
7.622938864726751
 10
23.94562987890064
 20
7.622639701887369
 10
23.94383898135755
 20
7.622042736039656
 10
23.94204808381446
 20
7.621743573200273
 10
23.94025582644029
 20
7.621743573200273
 10
23.93846492889722
 20
7.621743573200273
 10
23.93488313381105
 20
7.622042736039668
 10
23.93428616796336
 20
7.622938864726751
 10
23.93428616796336
 20
7.624132796422136
 10
23.93428616796336
 20
7.625027565278139
 10
23.93458533080275
 20
7.626221496973517
 10
23.93488313381105
 20
7.627714591508296
 10
23.93548009965873
 20
7.628908523203687
 10
23.93607706550642
 20
7.630102454899065
 10
23.93697319419352
 20
7.631595549433844
 10
23.93757016004121
 20
7.632789481129235
 10
23.93846492889722
 20
7.633983412824626
 10
23.9393610575843
 20
7.635475147528318
 10
23.93995802343199
 20
7.636669079223696
 10
23.94085415211907
 20
7.63816217375847
 10
23.94145111796676
 20
7.639356105453866
 10
23.94294285267045
 20
7.642043131684036
 10
23.94324201550984
 20
7.642340934692336
 10
23.94324201550984
 20
7.642640097531732
 10
23.94353981851815
 20
7.642939260371114
 10
23.94353981851815
 20
7.643237063379427
 10
23.94383898135753
 20
7.643534866387727
 10
23.94383898135753
 20
7.64383402922711
 10
23.94413678436584
 20
7.644133192066504
 10
23.94413678436583
 20
7.644430995074805
 10
23.94443594720523
 20
7.644430995074805
 10
23.94473511004462
 20
7.644430995074805
 10
23.94562987890063
 20
7.644728798083106
 10
23.9465260075877
 20
7.644728798083106
 10
23.9474207764437
 20
7.644728798083106
 10
23.94831690513079
 20
7.644728798083106
 10
23.94921167398678
 20
7.644728798083106
 10
23.95040560568217
 20
7.644728798083112
 10
23.95130173436924
 20
7.644430995074805
 10
23.95219786305634
 20
7.644430995074805
 10
23.95339179475173
 20
7.644430995074799
 10
23.95428656360773
 20
7.644133192066504
 10
23.9551826922948
 20
7.64383402922711
 10
23.95607746115048
 20
7.643534866387136
 10
23.95697358983789
 20
7.643237063379414
 97
        0
 75
     0
 76
     1
 47
0.000561511643593
 98
        2
 10
23.96810624276157
 20
7.653576981554295
 10
23.96810624276157
 20
7.653576981554295
  0
LWPOLYLINE
  5
191
102
{ACAD_REACTORS
330
19F
102
}
330
2
100
AcDbEntity
  8
IMAGE
100
AcDbPolyline
 90
       52
 70
     1
 43
0.0
 10
24.58475049032658
 20
7.619056546970109
 10
24.59400414088137
 20
7.617863975105807
 10
24.59460110672907
 20
7.616967846418723
 10
24.59489890973737
 20
7.616370880571027
 10
24.59549587558506
 20
7.615474751883949
 10
24.59579503842446
 20
7.614579983027947
 10
24.59579503842446
 20
7.613683854340863
 10
24.59609420126385
 20
7.612789085484868
 10
24.59609420126385
 20
7.611892956797784
 10
24.59609420126385
 20
7.610699025102399
 10
24.59609420126385
 20
7.609802896415309
 10
24.59609420126385
 20
7.608610324551012
 10
24.59609420126385
 20
7.607714195863929
 10
24.59609420126385
 20
7.606818067176845
 10
24.59579503842446
 20
7.60562413548146
 10
24.59579503842446
 20
7.60472800679437
 10
24.59579503842446
 20
7.60293710925129
 10
24.59519807257676
 20
7.602042340395294
 10
24.59489890973737
 20
7.60114621170821
 10
24.59460110672907
 20
7.600251442852214
 10
24.59430194388968
 20
7.599654477004518
 10
24.59400414088137
 20
7.598758348317435
 10
24.59370497804199
 20
7.598161382469745
 10
24.59340717503367
 20
7.597265253782661
 10
24.59310801219429
 20
7.596668287934966
 10
24.59281020918599
 20
7.59607132208727
 10
24.5925110463466
 20
7.595474356239575
 10
24.59221324333829
 20
7.594579587383579
 10
24.5919140804989
 20
7.59398262153589
 10
24.5916162774906
 20
7.593384295857107
 10
24.59131711465121
 20
7.592788689840499
 10
24.59072014880351
 20
7.591892561153415
 10
24.58952621710813
 20
7.590399466618642
 10
24.58863008842104
 20
7.588907731914951
 10
24.58743615672565
 20
7.58771380021956
 10
24.58624222503027
 20
7.586519868524176
 10
24.58504829333488
 20
7.585623739837092
 10
24.5835551988001
 20
7.584429808141701
 10
24.58236126710472
 20
7.583533679454617
 10
24.58086953240103
 20
7.582936713606922
 10
24.57937643786625
 20
7.582041944750926
 10
24.57758554032317
 20
7.58144497890323
 10
24.57609380561948
 20
7.581145816063842
 10
24.57430154824531
 20
7.580848013055542
 10
24.57251065070223
 20
7.580548850216146
 10
24.57071975315915
 20
7.580548850216146
 10
24.56713795807298
 20
7.581145816063842
 10
24.5835551988001
 20
7.618758743961802
 10
24.58385436163949
 20
7.618758743961802
 10
24.58415352447889
 20
7.618758743961802
 10
24.58445132748719
 20
7.618758743961802
 10
24.58475049032658
 20
7.619056546970109
  0
LWPOLYLINE
  5
193
330
2
100
AcDbEntity
  8
IMAGE
100
AcDbPolyline
 90
       76
 70
     1
 43
0.0
 10
24.51101636923435
 20
7.621146607352578
 10
24.51131553207373
 20
7.620848804344277
 10
24.51161333508204
 20
7.620848804344277
 10
24.51191249792143
 20
7.620848804344277
 10
24.51221030092973
 20
7.620848804344277
 10
24.51250946376913
 20
7.620848804344277
 10
24.51310642961681
 20
7.620848804344277
 10
24.5134055924562
 20
7.620848804344277
 10
24.51370339546451
 20
7.620549641504883
 10
24.5140025583039
 20
7.620549641504883
 10
24.5143003613122
 20
7.620549641504883
 10
24.5148973271599
 20
7.620251838496582
 10
24.51519648999928
 20
7.620251838496582
 10
24.51549429300759
 20
7.619952675657193
 10
24.51579345584699
 20
7.619654872648887
 10
24.51668822470297
 20
7.619355709809498
 10
24.51668822470297
 20
7.618161778114107
 10
24.51668822470297
 20
7.61726564942703
 10
24.51668822470297
 20
7.616668683579334
 10
24.51639042169468
 20
7.615773914723338
 10
24.51639042169468
 20
7.614877786036248
 10
24.51609125885529
 20
7.614282180019647
 10
24.51549429300759
 20
7.613386051332563
 10
24.51519648999928
 20
7.612789085484868
 10
24.51459952415159
 20
7.611892956797784
 10
24.5143003613122
 20
7.611295990950088
 10
24.51370339546451
 20
7.610699025102399
 10
24.51310642961681
 20
7.610102059254703
 10
24.51250946376913
 20
7.609505093407008
 10
24.51191249792143
 20
7.608908127559319
 10
24.51101636923435
 20
7.607714195863929
 10
24.51012160037834
 20
7.607115870185145
 10
24.50952463453066
 20
7.606520264168538
 10
24.50892766868296
 20
7.606221101329149
 10
24.50803153999588
 20
7.605923298320848
 10
24.50743457414819
 20
7.60562413548146
 10
24.5065384454611
 20
7.605324972642065
 10
24.5059428394445
 20
7.605027169633764
 10
24.5053445137657
 20
7.605027169633764
 10
24.50444974490972
 20
7.60472800679437
 10
24.50385277906202
 20
7.60472800679437
 10
24.50295665037494
 20
7.60472800679437
 10
24.50235968452724
 20
7.60472800679437
 10
24.50146355584016
 20
7.60472800679437
 10
24.50086794982356
 20
7.60472800679437
 10
24.49967265829708
 20
7.60472800679437
 10
24.49877788944108
 20
7.60472800679437
 10
24.49847872660169
 20
7.605027169633764
 10
24.49818092359339
 20
7.605324972642065
 10
24.497881760754
 20
7.60562413548146
 10
24.4975839577457
 20
7.606221101329149
 10
24.4975839577457
 20
7.606520264168538
 10
24.497881760754
 20
7.607115870185145
 10
24.497881760754
 20
7.607714195863929
 10
24.49818092359339
 20
7.608311161711624
 10
24.49818092359339
 20
7.608908127559319
 10
24.49847872660169
 20
7.609505093407008
 10
24.49877788944108
 20
7.610102059254703
 10
24.49907705228047
 20
7.610699025102399
 10
24.49937485528878
 20
7.611295990950088
 10
24.49997182113647
 20
7.612192119637172
 10
24.50026962414477
 20
7.612789085484868
 10
24.50056878698416
 20
7.613386051332563
 10
24.50086794982356
 20
7.613983017180258
 10
24.50116575283185
 20
7.614579983027947
 10
24.50146355584016
 20
7.614877786036248
 10
24.50176271867955
 20
7.615474751883949
 10
24.50176271867955
 20
7.616073077562727
 10
24.50206188151894
 20
7.616668683579334
 10
24.50235968452724
 20
7.616967846418723
 10
24.50265884736664
 20
7.617564812266418
 10
24.50295665037494
 20
7.617863975105807
 10
24.50325581321433
 20
7.618460940953502
 10
24.50385277906202
 20
7.618758743961802
 10
24.50415058207033
 20
7.619056546970109
 10
24.5053445137657
 20
7.619952675657193
  0
LWPOLYLINE
  5
194
102
{ACAD_REACTORS
330
19F
102
}
330
2
100
AcDbEntity
  8
IMAGE
100
AcDbPolyline
 90
       84
 70
     1
 43
0.0
 10
24.56803272692898
 20
7.637864370750174
 10
24.57101891599854
 20
7.637565207910786
 10
24.5746007110847
 20
7.637565207910786
 10
24.57788334333147
 20
7.637565207910786
 10
24.58146649824872
 20
7.637864370750174
 10
24.58504829333488
 20
7.637864370750174
 10
24.58892925126043
 20
7.637864370750174
 10
24.5925110463466
 20
7.637565207910786
 10
24.59609420126385
 20
7.637266045071397
 10
24.59967599635001
 20
7.63696824206309
 10
24.60295862859678
 20
7.636371276215395
 10
24.60624262067463
 20
7.635475147528311
 10
24.60922744991311
 20
7.634282575664014
 10
24.61221363898266
 20
7.632789481129235
 10
24.61489930538174
 20
7.630997223755068
 10
24.61937722915498
 20
7.626520659812905
 10
24.61937722915498
 20
7.626221496973517
 10
24.61967639199437
 20
7.625923693965217
 10
24.61967639199437
 20
7.625624531125827
 10
24.61967639199437
 20
7.625325368286433
 10
24.61997419500268
 20
7.625325368286433
 10
24.61997419500268
 20
7.625027565278132
 10
24.62027335784206
 20
7.624728402438738
 10
24.62027335784206
 20
7.624430599430437
 10
24.62057116085037
 20
7.624430599430437
 10
24.62116948652916
 20
7.622938864726746
 10
24.62176645237684
 20
7.621743573200273
 10
24.62206425538515
 20
7.620251838496582
 10
24.62266122123285
 20
7.618758743961802
 10
24.62296038407223
 20
7.61726564942703
 10
24.62325818708054
 20
7.615773914723338
 10
24.62325818708054
 20
7.614282180019647
 10
24.62355734991993
 20
7.612789085484868
 10
24.62355734991993
 20
7.611295990950088
 10
24.62355734991993
 20
7.609802896415309
 10
24.62355734991993
 20
7.608311161711624
 10
24.62325818708054
 20
7.606818067176845
 10
24.62296038407223
 20
7.605027169633764
 10
24.62266122123285
 20
7.603534075098985
 10
24.62206425538515
 20
7.600549245860521
 10
24.62146728953745
 20
7.59935531416513
 10
24.62116948652916
 20
7.598161382469745
 10
24.62087032368977
 20
7.597265253782661
 10
24.62057116085037
 20
7.59607132208727
 10
24.62027335784206
 20
7.59487739039188
 10
24.61967639199437
 20
7.593683458696496
 10
24.61937722915498
 20
7.592788689840499
 10
24.61907942614669
 20
7.591593398314027
 10
24.61848246029898
 20
7.590698629458031
 10
24.61818329745959
 20
7.58950469776264
 10
24.6178841346202
 20
7.588609928906644
 10
24.6172885286036
 20
7.587414637380172
 10
24.6166915627559
 20
7.586519868524176
 10
24.61609459690822
 20
7.585623739837092
 10
24.61519846822112
 20
7.5841320051334
 10
24.61489930538174
 20
7.583832842294012
 10
24.61489930538174
 20
7.583533679454617
 10
24.61460150237344
 20
7.583235876446316
 10
24.61460150237344
 20
7.582936713606922
 10
24.61430233953405
 20
7.582638910598621
 10
24.61430233953405
 20
7.582339747759233
 10
24.61430233953405
 20
7.582041944750926
 10
24.61101970728728
 20
7.577264858138294
 10
24.60713874936172
 20
7.573086097204432
 10
24.60325779143617
 20
7.569802105126573
 10
24.59877986766292
 20
7.567115078896409
 10
24.59400414088137
 20
7.565324181353329
 10
24.58892925126043
 20
7.563533283810249
 10
24.5835551988001
 20
7.562638514954253
 10
24.57818250617086
 20
7.561742386267169
 10
24.57251065070223
 20
7.561443223427774
 10
24.56683879523359
 20
7.561145420419474
 10
24.56086913675666
 20
7.561145420419474
 10
24.55519728128802
 20
7.561145420419474
 10
24.54922626298
 20
7.561145420419474
 10
24.54355440751136
 20
7.561443223427774
 10
24.5325098594135
 20
7.561443223427774
 10
24.53818171488212
 20
7.579055755681373
 10
24.56654099222529
 20
7.637565207910786
 10
24.56683879523359
 20
7.637565207910786
 10
24.56713795807298
 20
7.637565207910786
 10
24.56743576108129
 20
7.637565207910786
 10
24.56773492392068
 20
7.637565207910786
 10
24.56803272692898
 20
7.637864370750174
  0
LWPOLYLINE
  5
195
330
2
100
AcDbEntity
  8
IMAGE
100
AcDbPolyline
 90
      111
 70
     1
 43
0.0
 10
24.37369926612284
 20
7.664431390719173
 10
24.3766854551924
 20
7.664133587710873
 10
24.37996944727026
 20
7.664133587710873
 10
24.38295427650873
 20
7.664133587710873
 10
24.38623826858659
 20
7.664133587710873
 10
24.38952090083336
 20
7.664133587710873
 10
24.39280489291122
 20
7.664431390719173
 10
24.39608888498908
 20
7.664431390719173
 10
24.39937151723585
 20
7.664431390719173
 10
24.40265550931371
 20
7.664431390719173
 10
24.40593950139157
 20
7.664431390719173
 10
24.40922349346942
 20
7.664133587710873
 10
24.4125061257162
 20
7.663536621863177
 10
24.41549231478575
 20
7.662939656015482
 10
24.41847714402422
 20
7.662043527328398
 10
24.42444680250115
 20
7.659655663937622
 10
24.42564209402763
 20
7.657864766394543
 10
24.42683602572301
 20
7.656073868851462
 10
24.42773079457902
 20
7.653983808468995
 10
24.42832912025779
 20
7.652192910925908
 10
24.4289247262744
 20
7.649805047535133
 10
24.4295216921221
 20
7.647714987152665
 10
24.4295216921221
 20
7.645327123761889
 10
24.42982085496149
 20
7.642939260371114
 10
24.4295216921221
 20
7.640550037149257
 10
24.4295216921221
 20
7.638162173758481
 10
24.4289247262744
 20
7.636073473207095
 10
24.4286269232661
 20
7.633684249985232
 10
24.42773079457902
 20
7.631296386594456
 10
24.42683602572301
 20
7.629206326211988
 10
24.42504376834885
 20
7.625325368286433
 10
24.42384983665346
 20
7.623833633582748
 10
24.42295506779746
 20
7.622639701887357
 10
24.42205893911038
 20
7.621445770191966
 10
24.420865007415
 20
7.620549641504883
 10
24.419970238559
 20
7.619355709809498
 10
24.41877630686361
 20
7.618460940953502
 10
24.41758101533714
 20
7.617564812266418
 10
24.41668624648114
 20
7.616668683579334
 10
24.41549231478575
 20
7.615773914723338
 10
24.41429838309037
 20
7.614877786036248
 10
24.41310445139498
 20
7.613983017180258
 10
24.41161135686019
 20
7.613386051332563
 10
24.4104174251648
 20
7.612489922645479
 10
24.40922349346942
 20
7.611892956797784
 10
24.40683563007865
 20
7.610699025102399
 10
24.40713343308695
 20
7.60920593056762
 10
24.40743259592635
 20
7.60741503302454
 10
24.40773039893465
 20
7.605923298320848
 10
24.40802956177404
 20
7.604132400777769
 10
24.40862652762172
 20
7.6023401434036
 10
24.40892433063003
 20
7.600549245860521
 10
24.40922349346942
 20
7.598758348317435
 10
24.40952129647773
 20
7.596668287934966
 10
24.40952129647773
 20
7.59487739039188
 10
24.40952129647773
 20
7.592788689840499
 10
24.40952129647773
 20
7.590698629458031
 10
24.40952129647773
 20
7.588907731914951
 10
24.40922349346942
 20
7.586817671532476
 10
24.40862652762172
 20
7.584727611150002
 10
24.40713343308695
 20
7.581145816063842
 10
24.40653646723926
 20
7.580548850216146
 10
24.40623866423095
 20
7.579951884368457
 10
24.40593950139157
 20
7.579652721529063
 10
24.40593950139157
 20
7.579055755681373
 10
24.40564169838326
 20
7.578757952673073
 10
24.40534253554387
 20
7.578160986825377
 10
24.40504337270448
 20
7.577861823985982
 10
24.40504337270448
 20
7.577564020977682
 10
24.40474556969618
 20
7.576965695298898
 10
24.40444640685679
 20
7.576667892290598
 10
24.40414860384849
 20
7.576370089282291
 10
24.40384944100909
 20
7.575773123434602
 10
24.40384944100909
 20
7.575473960595207
 10
24.40355163800079
 20
7.574876994747518
 10
24.4029546721531
 20
7.574280028899822
 10
24.39907371422755
 20
7.570698233813663
 10
24.39489495329369
 20
7.567713404575192
 10
24.39041702952044
 20
7.565623344192724
 10
24.38564130273889
 20
7.563832446649644
 10
24.38086421612626
 20
7.562936317962554
 10
24.37578932650532
 20
7.562041549106558
 10
24.37041663387607
 20
7.561742386267169
 10
24.36504258141575
 20
7.561742386267169
 10
24.3596698887865
 20
7.561742386267169
 10
24.35399803331787
 20
7.562041549106558
 10
24.34832617784923
 20
7.562339352114864
 10
24.34295348521999
 20
7.562638514954253
 10
24.33728026992027
 20
7.562936317962554
 10
24.33190757729102
 20
7.562936317962554
 10
24.32145999504085
 20
7.562638514954253
 10
24.32384785843161
 20
7.568907336270583
 10
24.3262357218224
 20
7.575176157586906
 10
24.32922191089196
 20
7.58144497890323
 10
24.33190757729102
 20
7.58771380021956
 10
24.33519156936888
 20
7.59398262153589
 10
24.33817639860736
 20
7.600549245860521
 10
24.34146039068521
 20
7.606818067176845
 10
24.34504218577137
 20
7.613386051332563
 10
24.34832617784923
 20
7.619654872648887
 10
24.35161016992709
 20
7.625923693965217
 10
24.35519196501325
 20
7.632490318289847
 10
24.35877376009941
 20
7.638759139606171
 10
24.36205775217728
 20
7.645027960922501
 10
24.36563954726344
 20
7.651296782238825
 10
24.37220753141916
 20
7.664133587710873
 10
24.37250533442746
 20
7.664133587710873
 10
24.37280449726685
 20
7.664133587710873
 10
24.37310366010624
 20
7.664133587710873
 10
24.37340146311454
 20
7.664133587710873
 10
24.37369926612284
 20
7.664431390719173
  0
LWPOLYLINE
  5
196
330
2
100
AcDbEntity
  8
IMAGE
100
AcDbPolyline
 90
      103
 70
     1
 43
0.0
 10
24.4886281101992
 20
7.637864370750174
 10
24.49161293943767
 20
7.637565207910786
 10
24.49459776867614
 20
7.637565207910786
 10
24.497881760754
 20
7.637565207910786
 10
24.50116575283185
 20
7.637565207910786
 10
24.50474754791802
 20
7.637864370750174
 10
24.50803153999588
 20
7.638162173758481
 10
24.51131553207373
 20
7.638162173758481
 10
24.51459952415159
 20
7.63846133659787
 10
24.51788215639837
 20
7.638162173758481
 10
24.52116614847623
 20
7.637864370750174
 10
24.52445014055408
 20
7.637565207910786
 10
24.52743496979255
 20
7.636669079223702
 10
24.53041979903102
 20
7.635475147528311
 10
24.53310682526118
 20
7.634282575664014
 10
24.53818171488212
 20
7.630102454899072
 10
24.53907784356921
 20
7.628311557355986
 10
24.5396748094169
 20
7.626818462821212
 10
24.54027177526459
 20
7.625027565278132
 10
24.54086874111229
 20
7.623534470743353
 10
24.54116654412059
 20
7.621743573200273
 10
24.54116654412059
 20
7.619952675657193
 10
24.54116654412059
 20
7.618161778114107
 10
24.54116654412059
 20
7.616668683579334
 10
24.54086874111229
 20
7.614877786036248
 10
24.5405695782729
 20
7.613086888493168
 10
24.54027177526459
 20
7.611295990950088
 10
24.5396748094169
 20
7.609802896415309
 10
24.53937564657751
 20
7.608011998872229
 10
24.53847951789042
 20
7.606520264168538
 10
24.53728558619504
 20
7.603534075098985
 10
24.53698778318673
 20
7.603236272090684
 10
24.53698778318673
 20
7.60293710925129
 10
24.53668862034735
 20
7.60263930624299
 10
24.53668862034735
 20
7.6023401434036
 10
24.53639081733904
 20
7.602042340395294
 10
24.53639081733904
 20
7.601743177555905
 10
24.53609165449965
 20
7.601743177555905
 10
24.53609165449965
 20
7.601445374547599
 10
24.53609165449965
 20
7.60114621170821
 10
24.53579385149135
 20
7.60114621170821
 10
24.53579385149135
 20
7.600848408699909
 10
24.53579385149135
 20
7.600549245860521
 10
24.52922586733564
 20
7.593683458696496
 10
24.51280726677742
 20
7.587414637380172
 10
24.51250946376913
 20
7.587115474540777
 10
24.51221030092973
 20
7.587115474540777
 10
24.51221030092973
 20
7.586817671532476
 10
24.51221030092973
 20
7.586519868524176
 10
24.51221030092973
 20
7.586220705684781
 10
24.52027001978914
 20
7.561742386267169
 10
24.49937485528878
 20
7.561443223427774
 10
24.48833030719089
 20
7.587115474540777
 10
24.48683721265612
 20
7.585922902676481
 10
24.48564328096074
 20
7.584727611150002
 10
24.48474715227365
 20
7.583533679454617
 10
24.48355322057826
 20
7.582041944750926
 10
24.48265845172227
 20
7.580548850216146
 10
24.48176232303518
 20
7.579055755681373
 10
24.48086755417919
 20
7.577564020977682
 10
24.4799714254921
 20
7.575773123434602
 10
24.47937445964441
 20
7.574280028899822
 10
24.47847833095732
 20
7.572489131356743
 10
24.47758356210133
 20
7.570698233813663
 10
24.47698659625363
 20
7.568907336270583
 10
24.47609046756655
 20
7.567414241735804
 10
24.47519433887946
 20
7.565623344192724
 10
24.47340344133638
 20
7.562638514954253
 10
24.44952208776646
 20
7.561443223427774
 10
24.45071737929294
 20
7.565026378345028
 10
24.45191131098832
 20
7.568608173431188
 10
24.45340304569201
 20
7.572489131356743
 10
24.45519394323509
 20
7.576070926442903
 10
24.45668703776987
 20
7.579951884368457
 10
24.45847793531295
 20
7.583533679454617
 10
24.46056799569543
 20
7.587414637380172
 10
24.46235889323851
 20
7.590996432466331
 10
24.46444895362098
 20
7.59487739039188
 10
24.46653765417236
 20
7.598460545309134
 10
24.46832991154653
 20
7.6023401434036
 10
24.47041861209791
 20
7.605923298320848
 10
24.472209509641
 20
7.609802896415309
 10
24.47429957002347
 20
7.613386051332563
 10
24.47788136510963
 20
7.621146607352578
 10
24.47847833095732
 20
7.622042736039662
 10
24.47907529680502
 20
7.623236667735053
 10
24.47967226265271
 20
7.624132796422136
 10
24.4802692285004
 20
7.625325368286433
 10
24.48086755417919
 20
7.626221496973517
 10
24.48146316019579
 20
7.627415428668908
 10
24.48206148587457
 20
7.628311557355986
 10
24.48265845172227
 20
7.629505489051377
 10
24.48325541756996
 20
7.63040161773846
 10
24.48385238341765
 20
7.631595549433844
 10
24.48415018642596
 20
7.632490318289847
 10
24.48474715227365
 20
7.633386446976931
 10
24.48534411812134
 20
7.634580378672316
 10
24.48594108396904
 20
7.635475147528311
 10
24.48743417850382
 20
7.637565207910786
 10
24.48773198151212
 20
7.637565207910786
 10
24.48803114435151
 20
7.637565207910786
 10
24.48833030719089
 20
7.637565207910786
 10
24.4886281101992
 20
7.637864370750174
  0
LWPOLYLINE
  5
197
330
2
100
AcDbEntity
  8
IMAGE
100
AcDbPolyline
 90
       12
 70
     1
 43
0.0
 10
24.44713422437568
 20
7.637864370750174
 10
24.47071777493731
 20
7.637864370750174
 10
24.43280568419996
 20
7.562638514954253
 10
24.40982045931712
 20
7.562041549106558
 10
24.40952129647773
 20
7.562041549106558
 10
24.40952129647773
 20
7.562339352114864
 10
24.40922349346942
 20
7.562638514954253
 10
24.40922349346942
 20
7.562936317962554
 10
24.40922349346942
 20
7.563235480801949
 10
24.44653725852799
 20
7.637565207910786
 10
24.44683642136738
 20
7.637565207910786
 10
24.44713422437568
 20
7.637864370750174
  0
LWPOLYLINE
  5
198
330
2
100
AcDbEntity
  8
IMAGE
100
AcDbPolyline
 90
       60
 70
     1
 43
0.0
 10
24.02115353770485
 20
7.638759139606171
 10
24.05458770466895
 20
7.638759139606171
 10
24.04085613034092
 20
7.564130249657944
 10
24.01966180300115
 20
7.563533283810249
 10
24.01906483715346
 20
7.563832446649644
 10
24.01846787130577
 20
7.564130249657944
 10
24.01816870846638
 20
7.564727215505634
 10
24.01816870846638
 20
7.565324181353329
 10
24.01816870846638
 20
7.565922507032112
 10
24.01816870846638
 20
7.566519472879807
 10
24.01816870846638
 20
7.567115078896409
 10
24.01846787130577
 20
7.568011207583493
 10
24.01846787130577
 20
7.568608173431188
 10
24.01876567431407
 20
7.569205139278883
 10
24.01906483715346
 20
7.569802105126573
 10
24.01936264016177
 20
7.570698233813663
 10
24.01966180300115
 20
7.571295199661352
 10
24.01996096584054
 20
7.571892165509048
 10
24.02055657185715
 20
7.573383900212739
 10
24.02025876884885
 20
7.573383900212739
 10
24.02025876884885
 20
7.573683063052127
 10
24.02025876884885
 20
7.573982225891522
 10
24.01996096584054
 20
7.573982225891522
 10
24.01996096584054
 20
7.574280028899822
 10
24.01966180300115
 20
7.574579191739212
 10
24.01966180300115
 20
7.574876994747518
 10
24.01966180300115
 20
7.575176157586906
 10
24.01757174261869
 20
7.574876994747518
 10
24.0157808450756
 20
7.574876994747518
 10
24.01398994753252
 20
7.575176157586906
 10
24.01219904998944
 20
7.575176157586906
 10
24.01010898960697
 20
7.575176157586906
 10
24.00831809206389
 20
7.575473960595207
 10
24.00652719452081
 20
7.575473960595207
 10
24.00473629697773
 20
7.575473960595207
 10
24.00294539943465
 20
7.575473960595207
 10
24.00115314206048
 20
7.575176157586906
 10
23.9993622445174
 20
7.574876994747518
 10
23.99757134697432
 20
7.574280028899822
 10
23.99607825243954
 20
7.573683063052127
 10
23.99458651773585
 20
7.572788294196131
 10
23.99189949150568
 20
7.570399070974268
 10
23.99130252565799
 20
7.569802105126573
 10
23.9910033628186
 20
7.569205139278883
 10
23.9907055598103
 20
7.568608173431188
 10
23.99040775680199
 20
7.568310370422888
 10
23.9901085939626
 20
7.567713404575192
 10
23.9898107909543
 20
7.567414241735804
 10
23.98951162811491
 20
7.566817275888109
 10
23.98921246527552
 20
7.566519472879807
 10
23.98861549942783
 20
7.565922507032112
 10
23.98831769641952
 20
7.565623344192724
 10
23.98801853358013
 20
7.565026378345028
 10
23.98772073057183
 20
7.564727215505634
 10
23.98712376472413
 20
7.564429412497333
 10
23.98682460188474
 20
7.564130249657944
 10
23.98592983302875
 20
7.563533283810249
 10
23.96025758191574
 20
7.563533283810249
 10
24.02085573469655
 20
7.638759139606171
 10
24.02115353770485
 20
7.638759139606171
  0
LWPOLYLINE
  5
199
330
2
100
AcDbEntity
  8
IMAGE
100
AcDbPolyline
 90
       71
 70
     1
 43
0.0
 10
24.12533563669163
 20
7.638759139606171
 10
24.14891782742216
 20
7.638759139606171
 10
24.1530979481871
 20
7.605027169633764
 10
24.1530979481871
 20
7.604430203786069
 10
24.1533957511954
 20
7.603833237938379
 10
24.15369491403479
 20
7.603833237938379
 10
24.1539927170431
 20
7.603534075098985
 10
24.15429187988249
 20
7.603534075098985
 10
24.1545896828908
 20
7.603833237938379
 10
24.15488884573019
 20
7.604132400777769
 10
24.15518664873848
 20
7.604430203786069
 10
24.15548581157787
 20
7.60472800679437
 10
24.15578361458619
 20
7.605324972642065
 10
24.15608277742558
 20
7.60562413548146
 10
24.15638194026496
 20
7.606221101329149
 10
24.15667974327326
 20
7.606520264168538
 10
24.15697754628157
 20
7.606818067176845
 10
24.15757587196035
 20
7.607714195863929
 10
24.15757587196035
 20
7.608311161711624
 10
24.15787367496865
 20
7.60920593056762
 10
24.15817283780804
 20
7.610102059254703
 10
24.15847064081634
 20
7.610699025102399
 10
24.15876980365573
 20
7.611593793958395
 10
24.15906760666404
 20
7.612192119637172
 10
24.15936676950343
 20
7.612789085484868
 10
24.15966457251173
 20
7.613386051332563
 10
24.15996373535112
 20
7.613983017180258
 10
24.16026153835942
 20
7.614579983027947
 10
24.16056070119882
 20
7.615176948875642
 10
24.16115766704651
 20
7.615773914723338
 10
24.16145547005482
 20
7.616370880571027
 10
24.1617546328942
 20
7.616967846418723
 10
24.16265076158129
 20
7.618460940953502
 10
24.16324772742898
 20
7.619654872648887
 10
24.16414249628498
 20
7.621146607352578
 10
24.16473946213267
 20
7.622340539047969
 10
24.16563559081976
 20
7.623833633582748
 10
24.16623255666745
 20
7.625325368286433
 10
24.16682952251514
 20
7.626520659812905
 10
24.16742648836283
 20
7.627714591508296
 10
24.16802345421053
 20
7.629206326211988
 10
24.16891822306653
 20
7.63040161773846
 10
24.16951518891422
 20
7.631595549433844
 10
24.170113514593
 20
7.632789481129235
 10
24.171008283449
 20
7.633983412824626
 10
24.17160524929669
 20
7.635177344520011
 10
24.17250137798378
 20
7.636371276215395
 10
24.17459007853516
 20
7.638759139606171
 10
24.19697969740139
 20
7.638759139606171
 10
24.17668013891763
 20
7.597863579461439
 10
24.15847064081634
 20
7.563832446649644
 10
24.1360823817812
 20
7.563533283810249
 10
24.13220142385565
 20
7.599952280012825
 10
24.13190226101626
 20
7.599952280012825
 10
24.13190226101626
 20
7.600251442852214
 10
24.13160445800796
 20
7.600251442852214
 10
24.13160445800796
 20
7.600549245860521
 10
24.13130665499966
 20
7.600549245860521
 10
24.13130665499966
 20
7.600848408699909
 10
24.13100749216027
 20
7.600848408699909
 10
24.13100749216027
 20
7.60114621170821
 10
24.13070968915197
 20
7.60114621170821
 10
24.13041052631257
 20
7.60114621170821
 10
24.13011136347318
 20
7.601445374547599
 10
24.1110070965159
 20
7.563832446649644
 10
24.08831967464136
 20
7.563533283810249
 10
24.12414170499625
 20
7.638759139606171
 10
24.12443950800455
 20
7.638759139606171
 10
24.12473867084393
 20
7.638759139606171
 10
24.12503783368332
 20
7.638759139606171
 10
24.12533563669163
 20
7.638759139606171
  0
LWPOLYLINE
  5
19A
330
2
100
AcDbEntity
  8
IMAGE
100
AcDbPolyline
 90
       38
 70
     1
 43
0.0
 10
24.08503704239459
 20
7.638759139606171
 10
24.10772310443804
 20
7.638759139606171
 10
24.07070714238777
 20
7.563533283810249
 10
24.04772191750494
 20
7.563533283810249
 10
24.04772191750494
 20
7.565623344192724
 10
24.04831888335262
 20
7.567713404575192
 10
24.04891584920032
 20
7.569802105126573
 10
24.04951281504802
 20
7.571892165509048
 10
24.0507067467434
 20
7.573982225891522
 10
24.05160287543048
 20
7.575773123434602
 10
24.05279680712588
 20
7.577861823985982
 10
24.05399073882126
 20
7.579951884368457
 10
24.05518467051664
 20
7.582041944750926
 10
24.05637860221204
 20
7.583832842294012
 10
24.05757253390742
 20
7.585922902676481
 10
24.0584686625945
 20
7.588011603227861
 10
24.05966259428989
 20
7.590101663610336
 10
24.06055872297698
 20
7.592489527001111
 10
24.06234962052006
 20
7.596967450774354
 10
24.06354355221544
 20
7.59935531416513
 10
24.06503528691914
 20
7.602042340395294
 10
24.06622921861452
 20
7.60472800679437
 10
24.0677223131493
 20
7.60741503302454
 10
24.06891624484469
 20
7.609802896415309
 10
24.07040933937946
 20
7.612489922645479
 10
24.07160327107485
 20
7.615176948875642
 10
24.07309500577854
 20
7.617863975105807
 10
24.07429029730502
 20
7.620251838496582
 10
24.07548422900041
 20
7.622938864726746
 10
24.07697596370409
 20
7.625624531125827
 10
24.07816989539949
 20
7.628012394516597
 10
24.07966298993426
 20
7.630699420746767
 10
24.08085692162965
 20
7.633386446976931
 10
24.08384175086811
 20
7.638759139606171
 10
24.08414091370751
 20
7.638759139606171
 10
24.08443871671581
 20
7.638759139606171
 10
24.0847378795552
 20
7.638759139606171
 10
24.08503704239459
 20
7.638759139606171
  0
LWPOLYLINE
  5
19B
330
2
100
AcDbEntity
  8
IMAGE
100
AcDbPolyline
 90
      126
 70
     0
 43
0.0
 10
23.92622644910395
 20
7.666521451101647
 10
23.92951044118181
 20
7.666223648093341
 10
23.93279443325967
 20
7.665924485253952
 10
23.93637622834583
 20
7.666223648093341
 10
23.93995802343199
 20
7.666223648093341
 10
23.94383898135753
 20
7.666521451101647
 10
23.9474207764437
 20
7.666521451101647
 10
23.95130173436926
 20
7.666819254109949
 10
23.95488352945541
 20
7.666819254109949
 10
23.95846668437266
 20
7.666819254109949
 10
23.96204847945882
 20
7.666521451101647
 10
23.96563027454499
 20
7.666223648093341
 10
23.96921206963115
 20
7.665625322414564
 10
23.97249606170901
 20
7.664431390719173
 10
23.97578005378687
 20
7.663237459023789
 10
23.9817497122638
 20
7.659655663937622
 10
23.98264584095089
 20
7.658162569402843
 10
23.98383977264627
 20
7.656371671859764
 10
23.98473590133336
 20
7.65487857732499
 10
23.98563067018935
 20
7.653386842621299
 10
23.98622763603706
 20
7.651595945078219
 10
23.98682460188474
 20
7.649805047535133
 10
23.98712376472413
 20
7.648012790160965
 10
23.98742156773244
 20
7.646223252448973
 10
23.98772073057183
 20
7.644430995074805
 10
23.98772073057183
 20
7.642640097531725
 10
23.98772073057183
 20
7.640849199988645
 10
23.98772073057183
 20
7.639056942614478
 10
23.98742156773244
 20
7.637266045071397
 10
23.98712376472413
 20
7.635475147528311
 10
23.98652679887644
 20
7.63219251528154
 10
23.98592983302875
 20
7.629505489051377
 10
23.98503370434166
 20
7.627116265829513
 10
23.98413757565458
 20
7.624728402438738
 10
23.98324280679858
 20
7.622639701887357
 10
23.98204887510319
 20
7.620549641504883
 10
23.98085494340781
 20
7.618460940953502
 10
23.97936184887303
 20
7.616668683579334
 10
23.97816791717764
 20
7.614877786036248
 10
23.97637701963456
 20
7.613386051332563
 10
23.97488392509978
 20
7.611892956797784
 10
23.9730930275567
 20
7.610399862263005
 10
23.97130213001362
 20
7.60920593056762
 10
23.96951123247054
 20
7.608011998872229
 10
23.96742117208807
 20
7.606818067176845
 10
23.96354021416251
 20
7.605027169633764
 10
23.96234628246713
 20
7.604430203786069
 10
23.96145151361114
 20
7.604132400777769
 10
23.96025758191574
 20
7.603833237938379
 10
23.95936145322866
 20
7.603534075098985
 10
23.95846668437266
 20
7.603236272090684
 10
23.95757055568558
 20
7.60293710925129
 10
23.95637662399019
 20
7.60263930624299
 10
23.95548049530311
 20
7.6023401434036
 10
23.95458572644711
 20
7.602042340395294
 10
23.95368959776003
 20
7.601743177555905
 10
23.95279482890404
 20
7.601743177555905
 10
23.95189870021694
 20
7.601445374547599
 10
23.95100257152987
 20
7.601445374547599
 10
23.95010780267387
 20
7.601445374547599
 10
23.94861470813908
 20
7.601445374547599
 10
23.9474207764437
 20
7.600251442852214
 10
23.946823810596
 20
7.59935531416513
 10
23.9465260075877
 20
7.598161382469745
 10
23.94622684474831
 20
7.596967450774354
 10
23.94622684474831
 20
7.59577351907897
 10
23.9465260075877
 20
7.594280424544191
 10
23.946823810596
 20
7.5930864928488
 10
23.94712297343539
 20
7.591593398314027
 10
23.9477199392831
 20
7.590101663610336
 10
23.94831690513079
 20
7.588609928906644
 10
23.94861470813908
 20
7.587115474540777
 10
23.94921167398678
 20
7.585623739837092
 10
23.94980863983448
 20
7.5841320051334
 10
23.95040560568217
 20
7.582638910598621
 10
23.95100257152987
 20
7.579951884368457
 10
23.95100257152987
 20
7.578757952673073
 10
23.95130173436926
 20
7.577861823985982
 10
23.95159953737756
 20
7.576965695298898
 10
23.95189870021694
 20
7.576070926442903
 10
23.95219786305634
 20
7.575176157586906
 10
23.95249566606464
 20
7.573982225891522
 10
23.95249566606464
 20
7.573086097204432
 10
23.95279482890404
 20
7.571892165509048
 10
23.95309263191233
 20
7.570996036821964
 10
23.95339179475172
 20
7.570101267965967
 10
23.95368959776003
 20
7.568907336270583
 10
23.95368959776003
 20
7.568011207583493
 10
23.95398876059942
 20
7.566817275888109
 10
23.95428656360773
 20
7.565922507032112
 10
23.9551826922948
 20
7.564130249657944
 10
23.93189830457258
 20
7.563533283810249
 10
23.92025543079592
 20
7.598161382469745
 10
23.90144896684694
 20
7.564130249657944
 10
23.87398581819086
 20
7.563533283810249
 10
23.87518110971733
 20
7.568011207583493
 10
23.87697200726041
 20
7.572489131356743
 10
23.87876290480349
 20
7.577264858138294
 10
23.88055380234657
 20
7.581742781911537
 10
23.88294166573735
 20
7.586519868524176
 10
23.88503172611982
 20
7.590996432466331
 10
23.88741958951059
 20
7.59577351907897
 10
23.88980745290137
 20
7.600549245860521
 10
23.89249447913154
 20
7.605027169633764
 10
23.89488234252231
 20
7.609802896415309
 10
23.89756936875248
 20
7.614579983027947
 10
23.89995723214325
 20
7.619355709809498
 10
23.90234509553402
 20
7.623833633582748
 10
23.9047329589248
 20
7.62861072019538
 10
23.90951004553744
 20
7.638162173758481
 10
23.91040481439343
 20
7.639953071301555
 10
23.91159874608882
 20
7.641743968844641
 10
23.91249487477591
 20
7.643534866387721
 10
23.9133896436319
 20
7.645624926770196
 10
23.91428577231899
 20
7.647415824313275
 10
23.91518190100607
 20
7.649206721856356
 10
23.91607666986207
 20
7.650998979230523
 10
23.91697279854914
 20
7.653087679781904
 10
23.91786756740515
 20
7.65487857732499
 10
23.91876369609223
 20
7.656670834699158
 10
23.91965982477932
 20
7.658461732242238
 10
23.92055459363531
 20
7.659953466945929
 10
23.9217485253307
 20
7.661745724320097
 10
23.92294245702609
 20
7.663237459023789
 10
23.92562948325625
 20
7.666521451101647
 10
23.92592728626456
 20
7.666521451101647
  0
LWPOLYLINE
  5
19C
330
2
100
AcDbEntity
  8
IMAGE
100
AcDbPolyline
 90
      126
 70
     0
 43
0.0
 10
24.24683110509262
 20
7.611593793958395
 10
24.24683110509262
 20
7.611892956797784
 10
24.24683110509262
 20
7.612192119637172
 10
24.24742807094032
 20
7.612789085484868
 10
24.25399605509603
 20
7.611295990950088
 10
24.25429385810433
 20
7.611295990950088
 10
24.25459302094372
 20
7.611295990950088
 10
24.25489082395202
 20
7.611295990950088
 10
24.25489082395202
 20
7.611593793958395
 10
24.25518998679141
 20
7.611593793958395
 10
24.25548778979972
 20
7.611892956797784
 10
24.25578695263911
 20
7.612192119637172
 10
24.25399605509603
 20
7.613983017180258
 10
24.25250296056125
 20
7.616073077562727
 10
24.25100986602648
 20
7.617863975105807
 10
24.24951813132278
 20
7.619952675657193
 10
24.24802503678801
 20
7.622042736039662
 10
24.24623413924492
 20
7.624132796422136
 10
24.24474104471014
 20
7.626221496973517
 10
24.24295014716706
 20
7.628311557355986
 10
24.24115924962398
 20
7.63040161773846
 10
24.23906918924151
 20
7.63219251528154
 10
24.23727829169843
 20
7.634282575664014
 10
24.23518959114705
 20
7.636073473207095
 10
24.23309953076458
 20
7.637864370750174
 10
24.23100947038211
 20
7.639356105453866
 10
24.22623374360056
 20
7.642640097531725
 10
24.18026193400379
 20
7.663834424871484
 10
24.20265155287003
 20
7.660550432793625
 10
24.20145762117464
 20
7.663834424871484
 10
24.21041210889004
 20
7.661745724320097
 10
24.21071127172943
 20
7.661745724320097
 10
24.21100907473774
 20
7.662043527328398
 10
24.21100907473774
 20
7.662342690167792
 10
24.21130823757713
 20
7.662640493176093
 10
24.21130823757713
 20
7.662939656015482
 10
24.21130823757713
 20
7.663237459023789
 10
24.21130823757713
 20
7.663536621863177
 10
24.21130823757713
 20
7.663834424871484
 10
24.21160604058543
 20
7.664431390719173
 10
24.21548699851097
 20
7.664729193727474
 10
24.21578616135038
 20
7.665028356566868
 10
24.21578616135038
 20
7.665327519406258
 10
24.21578616135038
 20
7.665625322414564
 10
24.21578616135038
 20
7.665924485253952
 10
24.21578616135038
 20
7.666223648093341
 10
24.21578616135038
 20
7.666521451101647
 10
24.21608396435868
 20
7.666521451101647
 10
24.21608396435868
 20
7.666819254109949
 10
24.21668093020636
 20
7.667118416949343
 10
24.21698009304575
 20
7.667118416949343
 10
24.21727789605407
 20
7.667118416949343
 10
24.21757705889346
 20
7.667118416949343
 10
24.21787486190176
 20
7.667118416949343
 10
24.21787486190176
 20
7.667416219957644
 10
24.21817402474115
 20
7.667416219957644
 10
24.21847318758054
 20
7.667715382797032
 10
24.21877099058884
 20
7.668014545636421
 10
24.21877099058884
 20
7.668312348644728
 10
24.21877099058884
 20
7.668611511484116
 10
24.21877099058884
 20
7.668909314492423
 10
24.21877099058884
 20
7.669207117500723
 10
24.21847318758054
 20
7.669207117500723
 10
24.21847318758054
 20
7.669506280340113
 10
24.21817402474115
 20
7.669805443179501
 10
24.21817402474115
 20
7.670103246187808
 10
24.21787486190176
 20
7.670402409027197
 10
24.21787486190176
 20
7.670700212035503
 10
24.21757705889346
 20
7.670999374874892
 10
24.21757705889346
 20
7.671297177883192
 10
24.21757705889346
 20
7.672193306570282
 10
24.21757705889346
 20
7.672491109578583
 10
24.21787486190176
 20
7.672790272417971
 10
24.21817402474115
 20
7.672790272417971
 10
24.21847318758054
 20
7.673088075426278
 10
24.21877099058884
 20
7.673088075426278
 10
24.21906879359714
 20
7.673088075426278
 10
24.21966575944484
 20
7.673387238265667
 10
24.21966575944484
 20
7.673685041273968
 10
24.21966575944484
 20
7.673984204113362
 10
24.21996492228423
 20
7.673984204113362
 10
24.21996492228423
 20
7.674283366952751
 10
24.21996492228423
 20
7.674581169961052
 10
24.22026408512361
 20
7.674581169961052
 10
24.22056188813192
 20
7.675178135808747
 10
24.21518919550267
 20
7.688014941280789
 10
24.21668093020636
 20
7.686224043737709
 10
24.21847318758054
 20
7.684431786363541
 10
24.22026408512361
 20
7.682343085812161
 10
24.2220549826667
 20
7.680253025429686
 10
24.22384588020978
 20
7.67786516203891
 10
24.22563677775286
 20
7.675775101656443
 10
24.22712987228763
 20
7.673387238265667
 10
24.22892076983072
 20
7.670999374874892
 10
24.2307116673738
 20
7.668312348644728
 10
24.23220340207749
 20
7.665924485253952
 10
24.23399565945166
 20
7.663536621863177
 10
24.23548739415535
 20
7.660849595633013
 10
24.23727829169843
 20
7.658461732242238
 10
24.23877138623321
 20
7.656073868851462
 10
24.24205537831106
 20
7.651595945078219
 10
24.26981632997545
 20
7.635177344520011
 10
24.26981632997545
 20
7.635475147528311
 10
24.26981632997545
 20
7.635774310367706
 10
24.27011549281484
 20
7.635774310367706
 10
24.27011549281484
 20
7.636073473207095
 10
24.27011549281484
 20
7.636371276215395
 10
24.27041465565423
 20
7.636371276215395
 10
24.27071245866254
 20
7.63696824206309
 10
24.26862239828006
 20
7.640550037149257
 10
24.26862239828006
 20
7.640849199988645
 10
24.26892156111946
 20
7.640849199988645
 10
24.26892156111946
 20
7.641147002996946
 10
24.26921936412776
 20
7.641147002996946
 10
24.26951852696715
 20
7.641446165836341
 10
24.26981632997545
 20
7.641446165836341
 10
24.27011549281484
 20
7.641446165836341
 10
24.27041465565423
 20
7.641446165836341
 10
24.27071245866254
 20
7.641446165836341
 10
24.27101026167084
 20
7.641446165836341
 10
24.27130942451023
 20
7.641446165836341
 10
24.27160722751853
 20
7.641446165836341
 10
24.27190639035792
 20
7.641743968844641
 10
24.27250335620562
 20
7.64204313168403
 10
24.27250335620562
 20
7.642340934692336
 10
24.27250335620562
 20
7.642640097531725
  0
LWPOLYLINE
  5
19D
330
2
100
AcDbEntity
  8
IMAGE
100
AcDbPolyline
 90
      126
 70
     0
 43
0.0
 10
24.27130942451023
 20
7.700253421074054
 10
24.2733994848927
 20
7.696671625987894
 10
24.27578734828348
 20
7.693686796749424
 10
24.27877217752194
 20
7.690700607679871
 10
24.28175700676041
 20
7.6877157784414
 10
24.28474319582997
 20
7.685028752211237
 10
24.28772802506844
 20
7.682343085812161
 10
24.2910120171463
 20
7.679656059581991
 10
24.29399684638477
 20
7.676969033351827
 10
24.29698167562323
 20
7.674283366952751
 10
24.2999665048617
 20
7.671297177883192
 10
24.30265353109187
 20
7.668312348644728
 10
24.30504139448264
 20
7.665327519406258
 10
24.30713145486511
 20
7.661745724320097
 10
24.30892235240819
 20
7.658162569402843
 10
24.31131021579897
 20
7.65010285054344
 10
24.31041544694297
 20
7.648611115839749
 10
24.30981848109528
 20
7.647118021304975
 10
24.30922151524759
 20
7.645924089609584
 10
24.3086231895688
 20
7.644728798083106
 10
24.30772842071281
 20
7.643534866387721
 10
24.30713145486511
 20
7.642340934692336
 10
24.30623532617803
 20
7.641446165836341
 10
24.30563836033034
 20
7.64025223414095
 10
24.30474359147434
 20
7.639356105453866
 10
24.30384746278726
 20
7.638162173758481
 10
24.30295133410017
 20
7.637266045071397
 10
24.30235436825247
 20
7.636073473207095
 10
24.30145959939648
 20
7.634878181680616
 10
24.30056483054048
 20
7.633684249985232
 10
24.2990717360057
 20
7.631296386594456
 10
24.29877257316631
 20
7.630997223755068
 10
24.29847477015801
 20
7.630699420746767
 10
24.29817560731862
 20
7.63040161773846
 10
24.29787780431032
 20
7.630102454899072
 10
24.29757864147093
 20
7.629804651890771
 10
24.2910120171463
 20
7.615474751883949
 10
24.2913098201546
 20
7.614579983027947
 10
24.2916076231629
 20
7.613683854340863
 10
24.29220594884168
 20
7.612789085484868
 10
24.29280291468938
 20
7.612192119637172
 10
24.29339988053706
 20
7.611593793958395
 10
24.29399684638477
 20
7.610699025102399
 10
24.29459381223246
 20
7.610399862263005
 10
24.29548994091954
 20
7.609802896415309
 10
24.29608690676724
 20
7.60920593056762
 10
24.29698167562323
 20
7.608908127559319
 10
24.29787780431032
 20
7.608311161711624
 10
24.29877257316631
 20
7.608011998872229
 10
24.2996687018534
 20
7.607714195863929
 10
24.30056483054048
 20
7.607714195863929
 10
24.30265353109187
 20
7.60741503302454
 10
24.30295133410017
 20
7.607115870185145
 10
24.30325049693956
 20
7.607115870185145
 10
24.30384746278726
 20
7.607115870185145
 10
24.30414662562665
 20
7.607115870185145
 10
24.30444442863495
 20
7.607115870185145
 10
24.30504139448264
 20
7.607115870185145
 10
24.30534055732203
 20
7.606818067176845
 10
24.30563836033034
 20
7.606818067176845
 10
24.30593752316973
 20
7.606818067176845
 10
24.30623532617803
 20
7.606520264168538
 10
24.30653448901741
 20
7.606520264168538
 10
24.30683229202572
 20
7.606520264168538
 10
24.30713145486511
 20
7.606221101329149
 10
24.30742925787342
 20
7.606221101329149
 10
24.30802622372111
 20
7.605923298320848
 10
24.30922151524759
 20
7.605027169633764
 10
24.31041544694297
 20
7.604132400777769
 10
24.31131021579897
 20
7.60293710925129
 10
24.31190718164666
 20
7.601743177555905
 10
24.31250414749436
 20
7.600549245860521
 10
24.31310111334205
 20
7.599056151325742
 10
24.31340027618144
 20
7.59756441662205
 10
24.31399724202913
 20
7.59607132208727
 10
24.31429504503744
 20
7.594579587383579
 10
24.31489201088513
 20
7.5930864928488
 10
24.31519117372451
 20
7.591892561153415
 10
24.31608730241161
 20
7.590399466618642
 10
24.31668290842821
 20
7.589205534923252
 10
24.3175790371153
 20
7.588011603227861
 10
24.32056522618485
 20
7.586519868524176
 10
24.32026606334545
 20
7.586220705684781
 10
24.31996690050607
 20
7.585922902676481
 10
24.31966909749776
 20
7.585623739837092
 10
24.31936993465837
 20
7.585623739837092
 10
24.31877296881068
 20
7.585623739837092
 10
24.31847516580238
 20
7.585623739837092
 10
24.31817600296299
 20
7.585623739837092
 10
24.3175790371153
 20
7.585623739837092
 10
24.31728123410699
 20
7.585623739837092
 10
24.31668290842821
 20
7.585623739837092
 10
24.31638510541991
 20
7.585623739837092
 10
24.31578813957221
 20
7.585623739837092
 10
24.31549033656391
 20
7.585623739837092
 10
24.31489201088513
 20
7.585623739837092
 10
24.31429504503744
 20
7.585922902676481
 10
24.31369807918974
 20
7.585623739837092
 10
24.31340027618144
 20
7.585623739837092
 10
24.31310111334205
 20
7.585324576997697
 10
24.31280331033375
 20
7.585026773989397
 10
24.31280331033375
 20
7.584727611150002
 10
24.31250414749436
 20
7.584429808141701
 10
24.31250414749436
 20
7.5841320051334
 10
24.31250414749436
 20
7.583832842294012
 10
24.31250414749436
 20
7.583235876446316
 10
24.31250414749436
 20
7.582936713606922
 10
24.31250414749436
 20
7.582638910598621
 10
24.31250414749436
 20
7.582339747759233
 10
24.31250414749436
 20
7.581742781911537
 10
24.31071324995127
 20
7.583235876446316
 10
24.30922151524759
 20
7.584727611150002
 10
24.30772842071281
 20
7.586220705684781
 10
24.30623532617803
 20
7.58771380021956
 10
24.30444442863495
 20
7.588907731914951
 10
24.30295133410017
 20
7.590399466618642
 10
24.30116043655709
 20
7.591593398314027
 10
24.29936953901401
 20
7.592489527001111
 10
24.29757864147093
 20
7.593384295857107
 10
24.29578774392785
 20
7.594280424544191
 10
24.29369768354537
 20
7.595176553231275
 10
24.2916076231629
 20
7.59577351907897
 10
24.28951892261152
 20
7.59607132208727
 10
24.28742886222905
 20
7.59637048492666
 10
24.2826531354475
 20
7.596668287934966
 10
24.2820561695998
 20
7.59637048492666
  0
LINE
  5
19E
330
2
100
AcDbEntity
  8
IMAGE
100
AcDbLine
 10
23.6922029581372
 20
7.810258411654141
 30
0.0
 11
23.6922029581372
 21
7.470258411654136
 31
0.0
  0
HATCH
  5
19F
330
2
100
AcDbEntity
  8
IMAGE
100
AcDbHatch
 10
0.0
 20
0.0
 30
0.0
210
0.0
220
0.0
230
1.0
  2
SOLID
 70
     1
 71
     1
 91
        2
 92
        1
 93
       83
 72
     1
 10
24.56803272692898
 20
7.637864370750174
 11
24.57101891599854
 21
7.637565207910786
 72
     1
 10
24.57101891599854
 20
7.637565207910786
 11
24.5746007110847
 21
7.637565207910786
 72
     1
 10
24.5746007110847
 20
7.637565207910786
 11
24.57788334333147
 21
7.637565207910786
 72
     1
 10
24.57788334333147
 20
7.637565207910786
 11
24.58146649824872
 21
7.637864370750174
 72
     1
 10
24.58146649824872
 20
7.637864370750174
 11
24.58504829333488
 21
7.637864370750174
 72
     1
 10
24.58504829333488
 20
7.637864370750174
 11
24.58892925126043
 21
7.637864370750174
 72
     1
 10
24.58892925126043
 20
7.637864370750174
 11
24.5925110463466
 21
7.637565207910786
 72
     1
 10
24.5925110463466
 20
7.637565207910786
 11
24.59609420126385
 21
7.637266045071397
 72
     1
 10
24.59609420126385
 20
7.637266045071397
 11
24.59967599635001
 21
7.63696824206309
 72
     1
 10
24.59967599635001
 20
7.63696824206309
 11
24.60295862859678
 21
7.636371276215395
 72
     1
 10
24.60295862859678
 20
7.636371276215395
 11
24.60624262067463
 21
7.635475147528311
 72
     1
 10
24.60624262067463
 20
7.635475147528311
 11
24.60922744991311
 21
7.634282575664014
 72
     1
 10
24.60922744991311
 20
7.634282575664014
 11
24.61221363898266
 21
7.632789481129235
 72
     1
 10
24.61221363898266
 20
7.632789481129235
 11
24.61489930538174
 21
7.630997223755068
 72
     1
 10
24.61489930538174
 20
7.630997223755068
 11
24.61937722915498
 21
7.626520659812905
 72
     1
 10
24.61937722915498
 20
7.626520659812905
 11
24.61937722915498
 21
7.626221496973517
 72
     1
 10
24.61937722915498
 20
7.626221496973517
 11
24.61967639199437
 21
7.625923693965217
 72
     1
 10
24.61967639199437
 20
7.625923693965217
 11
24.61967639199437
 21
7.625624531125827
 72
     1
 10
24.61967639199437
 20
7.625624531125827
 11
24.61967639199437
 21
7.625325368286433
 72
     1
 10
24.61967639199437
 20
7.625325368286433
 11
24.61997419500268
 21
7.625325368286433
 72
     1
 10
24.61997419500268
 20
7.625325368286433
 11
24.61997419500268
 21
7.625027565278132
 72
     1
 10
24.61997419500268
 20
7.625027565278132
 11
24.62027335784206
 21
7.624728402438738
 72
     1
 10
24.62027335784206
 20
7.624728402438738
 11
24.62027335784206
 21
7.624430599430437
 72
     1
 10
24.62027335784206
 20
7.624430599430437
 11
24.62057116085037
 21
7.624430599430437
 72
     1
 10
24.62057116085037
 20
7.624430599430437
 11
24.62116948652916
 21
7.622938864726746
 72
     1
 10
24.62116948652916
 20
7.622938864726746
 11
24.62176645237684
 21
7.621743573200273
 72
     1
 10
24.62176645237684
 20
7.621743573200273
 11
24.62206425538515
 21
7.620251838496582
 72
     1
 10
24.62206425538515
 20
7.620251838496582
 11
24.62266122123285
 21
7.618758743961802
 72
     1
 10
24.62266122123285
 20
7.618758743961802
 11
24.62296038407223
 21
7.61726564942703
 72
     1
 10
24.62296038407223
 20
7.61726564942703
 11
24.62325818708054
 21
7.615773914723338
 72
     1
 10
24.62325818708054
 20
7.615773914723338
 11
24.62325818708054
 21
7.614282180019647
 72
     1
 10
24.62325818708054
 20
7.614282180019647
 11
24.62355734991993
 21
7.612789085484868
 72
     1
 10
24.62355734991993
 20
7.612789085484868
 11
24.62355734991993
 21
7.611295990950088
 72
     1
 10
24.62355734991993
 20
7.611295990950088
 11
24.62355734991993
 21
7.609802896415309
 72
     1
 10
24.62355734991993
 20
7.609802896415309
 11
24.62355734991993
 21
7.608311161711624
 72
     1
 10
24.62355734991993
 20
7.608311161711624
 11
24.62325818708054
 21
7.606818067176845
 72
     1
 10
24.62325818708054
 20
7.606818067176845
 11
24.62296038407223
 21
7.605027169633764
 72
     1
 10
24.62296038407223
 20
7.605027169633764
 11
24.62266122123285
 21
7.603534075098985
 72
     1
 10
24.62266122123285
 20
7.603534075098985
 11
24.62206425538515
 21
7.600549245860521
 72
     1
 10
24.62206425538515
 20
7.600549245860521
 11
24.62146728953745
 21
7.59935531416513
 72
     1
 10
24.62146728953745
 20
7.59935531416513
 11
24.62116948652916
 21
7.598161382469745
 72
     1
 10
24.62116948652916
 20
7.598161382469745
 11
24.62087032368977
 21
7.597265253782661
 72
     1
 10
24.62087032368977
 20
7.597265253782661
 11
24.62057116085037
 21
7.59607132208727
 72
     1
 10
24.62057116085037
 20
7.59607132208727
 11
24.62027335784206
 21
7.59487739039188
 72
     1
 10
24.62027335784206
 20
7.59487739039188
 11
24.61967639199437
 21
7.593683458696496
 72
     1
 10
24.61967639199437
 20
7.593683458696496
 11
24.61937722915498
 21
7.592788689840499
 72
     1
 10
24.61937722915498
 20
7.592788689840499
 11
24.61907942614669
 21
7.591593398314027
 72
     1
 10
24.61907942614669
 20
7.591593398314027
 11
24.61848246029898
 21
7.590698629458031
 72
     1
 10
24.61848246029898
 20
7.590698629458031
 11
24.61818329745959
 21
7.58950469776264
 72
     1
 10
24.61818329745959
 20
7.58950469776264
 11
24.6178841346202
 21
7.588609928906644
 72
     1
 10
24.6178841346202
 20
7.588609928906644
 11
24.6172885286036
 21
7.587414637380172
 72
     1
 10
24.6172885286036
 20
7.587414637380172
 11
24.6166915627559
 21
7.586519868524176
 72
     1
 10
24.6166915627559
 20
7.586519868524176
 11
24.61609459690822
 21
7.585623739837092
 72
     1
 10
24.61609459690822
 20
7.585623739837092
 11
24.61519846822112
 21
7.5841320051334
 72
     1
 10
24.61519846822112
 20
7.5841320051334
 11
24.61489930538174
 21
7.583832842294012
 72
     1
 10
24.61489930538174
 20
7.583832842294012
 11
24.61489930538174
 21
7.583533679454617
 72
     1
 10
24.61489930538174
 20
7.583533679454617
 11
24.61460150237344
 21
7.583235876446316
 72
     1
 10
24.61460150237344
 20
7.583235876446316
 11
24.61460150237344
 21
7.582936713606922
 72
     1
 10
24.61460150237344
 20
7.582936713606922
 11
24.61430233953405
 21
7.582638910598621
 72
     1
 10
24.61430233953405
 20
7.582638910598621
 11
24.61430233953405
 21
7.582339747759233
 72
     1
 10
24.61430233953405
 20
7.582339747759233
 11
24.61430233953405
 21
7.582041944750926
 72
     1
 10
24.61430233953405
 20
7.582041944750926
 11
24.61101970728728
 21
7.577264858138294
 72
     1
 10
24.61101970728728
 20
7.577264858138294
 11
24.60713874936172
 21
7.573086097204432
 72
     1
 10
24.60713874936172
 20
7.573086097204432
 11
24.60325779143617
 21
7.569802105126573
 72
     1
 10
24.60325779143617
 20
7.569802105126573
 11
24.59877986766292
 21
7.567115078896409
 72
     1
 10
24.59877986766292
 20
7.567115078896409
 11
24.59400414088137
 21
7.565324181353329
 72
     1
 10
24.59400414088137
 20
7.565324181353329
 11
24.58892925126043
 21
7.563533283810249
 72
     1
 10
24.58892925126043
 20
7.563533283810249
 11
24.5835551988001
 21
7.562638514954253
 72
     1
 10
24.5835551988001
 20
7.562638514954253
 11
24.57818250617086
 21
7.561742386267169
 72
     1
 10
24.57818250617086
 20
7.561742386267169
 11
24.57251065070223
 21
7.561443223427774
 72
     1
 10
24.57251065070223
 20
7.561443223427774
 11
24.56683879523359
 21
7.561145420419474
 72
     1
 10
24.56683879523359
 20
7.561145420419474
 11
24.56086913675666
 21
7.561145420419474
 72
     1
 10
24.56086913675666
 20
7.561145420419474
 11
24.55519728128802
 21
7.561145420419474
 72
     1
 10
24.55519728128802
 20
7.561145420419474
 11
24.54922626298
 21
7.561145420419474
 72
     1
 10
24.54922626298
 20
7.561145420419474
 11
24.54355440751136
 21
7.561443223427774
 72
     1
 10
24.54355440751136
 20
7.561443223427774
 11
24.5325098594135
 21
7.561443223427774
 72
     1
 10
24.5325098594135
 20
7.561443223427774
 11
24.53818171488212
 21
7.579055755681373
 72
     1
 10
24.53818171488212
 20
7.579055755681373
 11
24.56654099222529
 21
7.637565207910786
 72
     1
 10
24.56654099222529
 20
7.637565207910786
 11
24.56683879523359
 21
7.637565207910786
 72
     1
 10
24.56683879523359
 20
7.637565207910786
 11
24.56713795807298
 21
7.637565207910786
 72
     1
 10
24.56713795807298
 20
7.637565207910786
 11
24.56743576108129
 21
7.637565207910786
 72
     1
 10
24.56743576108129
 20
7.637565207910786
 11
24.56773492392068
 21
7.637565207910786
 72
     1
 10
24.56773492392068
 20
7.637565207910786
 11
24.56803272692898
 21
7.637864370750174
 97
        1
330
194
 92
       16
 93
       51
 72
     1
 10
24.58475049032658
 20
7.619056546970109
 11
24.59400414088137
 21
7.617863975105807
 72
     1
 10
24.59400414088137
 20
7.617863975105807
 11
24.59460110672907
 21
7.616967846418723
 72
     1
 10
24.59460110672907
 20
7.616967846418723
 11
24.59489890973737
 21
7.616370880571027
 72
     1
 10
24.59489890973737
 20
7.616370880571027
 11
24.59549587558506
 21
7.615474751883949
 72
     1
 10
24.59549587558506
 20
7.615474751883949
 11
24.59579503842446
 21
7.614579983027947
 72
     1
 10
24.59579503842446
 20
7.614579983027947
 11
24.59579503842446
 21
7.613683854340863
 72
     1
 10
24.59579503842446
 20
7.613683854340863
 11
24.59609420126385
 21
7.612789085484868
 72
     1
 10
24.59609420126385
 20
7.612789085484868
 11
24.59609420126385
 21
7.611892956797784
 72
     1
 10
24.59609420126385
 20
7.611892956797784
 11
24.59609420126385
 21
7.610699025102399
 72
     1
 10
24.59609420126385
 20
7.610699025102399
 11
24.59609420126385
 21
7.609802896415309
 72
     1
 10
24.59609420126385
 20
7.609802896415309
 11
24.59609420126385
 21
7.608610324551012
 72
     1
 10
24.59609420126385
 20
7.608610324551012
 11
24.59609420126385
 21
7.607714195863929
 72
     1
 10
24.59609420126385
 20
7.607714195863929
 11
24.59609420126385
 21
7.606818067176845
 72
     1
 10
24.59609420126385
 20
7.606818067176845
 11
24.59579503842446
 21
7.60562413548146
 72
     1
 10
24.59579503842446
 20
7.60562413548146
 11
24.59579503842446
 21
7.60472800679437
 72
     1
 10
24.59579503842446
 20
7.60472800679437
 11
24.59579503842446
 21
7.60293710925129
 72
     1
 10
24.59579503842446
 20
7.60293710925129
 11
24.59519807257676
 21
7.602042340395294
 72
     1
 10
24.59519807257676
 20
7.602042340395294
 11
24.59489890973737
 21
7.60114621170821
 72
     1
 10
24.59489890973737
 20
7.60114621170821
 11
24.59460110672907
 21
7.600251442852214
 72
     1
 10
24.59460110672907
 20
7.600251442852214
 11
24.59430194388968
 21
7.599654477004518
 72
     1
 10
24.59430194388968
 20
7.599654477004518
 11
24.59400414088137
 21
7.598758348317435
 72
     1
 10
24.59400414088137
 20
7.598758348317435
 11
24.59370497804199
 21
7.598161382469745
 72
     1
 10
24.59370497804199
 20
7.598161382469745
 11
24.59340717503367
 21
7.597265253782661
 72
     1
 10
24.59340717503367
 20
7.597265253782661
 11
24.59310801219429
 21
7.596668287934966
 72
     1
 10
24.59310801219429
 20
7.596668287934966
 11
24.59281020918599
 21
7.59607132208727
 72
     1
 10
24.59281020918599
 20
7.59607132208727
 11
24.5925110463466
 21
7.595474356239575
 72
     1
 10
24.5925110463466
 20
7.595474356239575
 11
24.59221324333829
 21
7.594579587383579
 72
     1
 10
24.59221324333829
 20
7.594579587383579
 11
24.5919140804989
 21
7.59398262153589
 72
     1
 10
24.5919140804989
 20
7.59398262153589
 11
24.5916162774906
 21
7.593384295857107
 72
     1
 10
24.5916162774906
 20
7.593384295857107
 11
24.59131711465121
 21
7.592788689840499
 72
     1
 10
24.59131711465121
 20
7.592788689840499
 11
24.59072014880351
 21
7.591892561153415
 72
     1
 10
24.59072014880351
 20
7.591892561153415
 11
24.58952621710813
 21
7.590399466618642
 72
     1
 10
24.58952621710813
 20
7.590399466618642
 11
24.58863008842104
 21
7.588907731914951
 72
     1
 10
24.58863008842104
 20
7.588907731914951
 11
24.58743615672565
 21
7.58771380021956
 72
     1
 10
24.58743615672565
 20
7.58771380021956
 11
24.58624222503027
 21
7.586519868524176
 72
     1
 10
24.58624222503027
 20
7.586519868524176
 11
24.58504829333488
 21
7.585623739837092
 72
     1
 10
24.58504829333488
 20
7.585623739837092
 11
24.5835551988001
 21
7.584429808141701
 72
     1
 10
24.5835551988001
 20
7.584429808141701
 11
24.58236126710472
 21
7.583533679454617
 72
     1
 10
24.58236126710472
 20
7.583533679454617
 11
24.58086953240103
 21
7.582936713606922
 72
     1
 10
24.58086953240103
 20
7.582936713606922
 11
24.57937643786625
 21
7.582041944750926
 72
     1
 10
24.57937643786625
 20
7.582041944750926
 11
24.57758554032317
 21
7.58144497890323
 72
     1
 10
24.57758554032317
 20
7.58144497890323
 11
24.57609380561948
 21
7.581145816063842
 72
     1
 10
24.57609380561948
 20
7.581145816063842
 11
24.57430154824531
 21
7.580848013055542
 72
     1
 10
24.57430154824531
 20
7.580848013055542
 11
24.57251065070223
 21
7.580548850216146
 72
     1
 10
24.57251065070223
 20
7.580548850216146
 11
24.57071975315915
 21
7.580548850216146
 72
     1
 10
24.57071975315915
 20
7.580548850216146
 11
24.56713795807298
 21
7.581145816063842
 72
     1
 10
24.56713795807298
 20
7.581145816063842
 11
24.5835551988001
 21
7.618758743961802
 72
     1
 10
24.5835551988001
 20
7.618758743961802
 11
24.58385436163949
 21
7.618758743961802
 72
     1
 10
24.58385436163949
 20
7.618758743961802
 11
24.58415352447889
 21
7.618758743961802
 72
     1
 10
24.58415352447889
 20
7.618758743961802
 11
24.58445132748719
 21
7.618758743961802
 72
     1
 10
24.58445132748719
 20
7.618758743961802
 11
24.58475049032658
 21
7.619056546970109
 97
        1
330
191
 75
     0
 76
     1
 98
        1
 10
-4.631024284140426
 20
1.951502613373616
  0
LWPOLYLINE
  5
1A0
330
2
100
AcDbEntity
  8
IMAGE
100
AcDbPolyline
 90
       91
 70
     0
 43
0.0
 10
24.2820561695998
 20
7.59637048492666
 10
24.28175700676041
 20
7.59607132208727
 10
24.28116004091272
 20
7.59607132208727
 10
24.28086223790442
 20
7.59607132208727
 10
24.28056307506503
 20
7.59577351907897
 10
24.27996610921733
 20
7.59577351907897
 10
24.27966830620903
 20
7.59577351907897
 10
24.27936914336964
 20
7.59577351907897
 10
24.27907134036134
 20
7.59577351907897
 10
24.27877217752194
 20
7.595474356239575
 10
24.27847437451364
 20
7.595474356239575
 10
24.27787740866595
 20
7.595474356239575
 10
24.27757824582656
 20
7.595176553231275
 10
24.27727908298717
 20
7.59487739039188
 10
24.27698127997886
 20
7.594579587383579
 10
24.2742942537487
 20
7.592788689840499
 10
24.27220555319732
 20
7.590996432466331
 10
24.27011549281484
 20
7.588609928906644
 10
24.26832459527176
 20
7.586220705684781
 10
24.26653369772868
 20
7.583533679454617
 10
24.26474144035451
 20
7.580848013055542
 10
24.26295054281143
 20
7.578160986825377
 10
24.26115964526835
 20
7.575473960595207
 10
24.25907094471697
 20
7.573086097204432
 10
24.25698088433449
 20
7.570698233813663
 10
24.25489082395202
 20
7.568907336270583
 10
24.25250296056125
 20
7.567115078896409
 10
24.24981593433109
 20
7.565922507032112
 10
24.24683110509262
 20
7.565324181353329
 10
24.24026448076798
 20
7.565623344192724
 10
24.23608436000304
 20
7.567414241735804
 10
24.23250256491689
 20
7.569205139278883
 10
24.22892076983072
 20
7.571295199661352
 10
24.22533897474455
 20
7.573383900212739
 10
24.22175581982731
 20
7.575473960595207
 10
24.21847318758054
 20
7.577861823985982
 10
24.21518919550267
 20
7.579951884368457
 10
24.21190520342482
 20
7.582041944750926
 10
24.20862121134696
 20
7.584429808141701
 10
24.2053372192691
 20
7.586519868524176
 10
24.20205458702233
 20
7.588907731914951
 10
24.19877059494448
 20
7.590996432466331
 10
24.19548660286661
 20
7.5930864928488
 10
24.19220261078875
 20
7.595474356239575
 10
24.18563598646413
 20
7.599654477004518
 10
24.18682991815951
 20
7.599952280012825
 10
24.18832301269429
 20
7.600549245860521
 10
24.19011391023737
 20
7.600549245860521
 10
24.19160564494106
 20
7.600549245860521
 10
24.19309873947584
 20
7.600251442852214
 10
24.19459047417953
 20
7.599952280012825
 10
24.1963827315537
 20
7.599654477004518
 10
24.19787446625739
 20
7.59935531416513
 10
24.19936756079217
 20
7.598758348317435
 10
24.20115845833525
 20
7.598161382469745
 10
24.20265155287003
 20
7.59756441662205
 10
24.20414328757372
 20
7.596967450774354
 10
24.20563638210849
 20
7.59637048492666
 10
24.20742727965157
 20
7.59607132208727
 10
24.21041210889004
 20
7.595474356239575
 10
24.2050394162608
 20
7.60263930624299
 10
24.2059341851168
 20
7.60293710925129
 10
24.20683031380388
 20
7.603236272090684
 10
24.20802424549927
 20
7.603236272090684
 10
24.20921817719466
 20
7.603236272090684
 10
24.21041210889004
 20
7.60293710925129
 10
24.21130823757713
 20
7.60263930624299
 10
24.21250216927251
 20
7.602042340395294
 10
24.2136961009679
 20
7.601743177555905
 10
24.21489003266329
 20
7.60114621170821
 10
24.21608396435868
 20
7.600549245860521
 10
24.21727789605407
 20
7.599952280012825
 10
24.21847318758054
 20
7.59935531416513
 10
24.21936795643654
 20
7.599056151325742
 10
24.22056188813192
 20
7.598758348317435
 10
24.2229497515227
 20
7.598460545309134
 10
24.2226519485144
 20
7.599056151325742
 10
24.2226519485144
 20
7.599654477004518
 10
24.22235278567501
 20
7.600251442852214
 10
24.2220549826667
 20
7.600549245860521
 10
24.22175581982731
 20
7.60114621170821
 10
24.22145801681901
 20
7.601743177555905
 10
24.22115885397962
 20
7.602042340395294
 10
24.22056188813192
 20
7.60263930624299
 10
24.22026408512361
 20
7.60293710925129
 10
24.21996492228423
 20
7.603534075098985
 10
24.21936795643654
 20
7.604132400777769
 10
24.21906879359714
 20
7.60472800679437
 10
24.21877099058884
 20
7.605324972642065
 10
24.21847318758054
 20
7.605923298320848
 10
24.21847318758054
 20
7.607115870185145
  0
TEXT
  5
1A1
330
2
100
AcDbEntity
  8
IMAGE
100
AcDbText
 10
23.90543106618451
 20
7.465102856255808
 30
0.0
 40
0.053125
  1
Pulse Transmitter
  7
ROMANS
100
AcDbText
  0
LWPOLYLINE
  5
1A2
330
2
100
AcDbEntity
  8
IMAGE
100
AcDbPolyline
 90
        2
 70
     1
 43
0.0600476119612251
 10
23.5910984244686
 20
7.551085441056344
 42
1.0
 10
23.65114603642982
 20
7.551085441056344
 42
1.0
  0
LWPOLYLINE
  5
1A3
330
2
100
AcDbEntity
  8
IMAGE
100
AcDbPolyline
 90
       25
 70
     0
 43
0.0
 10
24.21847318758054
 20
7.607115870185145
 10
24.21966575944484
 20
7.608311161711624
 10
24.23608436000304
 20
7.603236272090684
 10
24.23638352284243
 20
7.603236272090684
 10
24.23638352284243
 20
7.603534075098985
 10
24.23668132585074
 20
7.603534075098985
 10
24.23698048869012
 20
7.603833237938379
 10
24.23727829169843
 20
7.603833237938379
 10
24.23727829169843
 20
7.604132400777769
 10
24.23757745453782
 20
7.604132400777769
 10
24.23757745453782
 20
7.604430203786069
 10
24.23787525754613
 20
7.60472800679437
 10
24.23787525754613
 20
7.605324972642065
 10
24.23369649661227
 20
7.610699025102399
 10
24.24623413924492
 20
7.608908127559319
 10
24.24653194225323
 20
7.608908127559319
 10
24.24653194225323
 20
7.60920593056762
 10
24.24683110509262
 20
7.60920593056762
 10
24.24683110509262
 20
7.609505093407008
 10
24.24683110509262
 20
7.609802896415309
 10
24.24683110509262
 20
7.610102059254703
 10
24.24683110509262
 20
7.610399862263005
 10
24.24683110509262
 20
7.610699025102399
 10
24.24683110509262
 20
7.6109968281107
 10
24.24683110509262
 20
7.611593793958395
  0
LWPOLYLINE
  5
1A4
330
2
100
AcDbEntity
  8
IMAGE
100
AcDbPolyline
 90
       17
 70
     1
 43
0.0
 10
24.02742235902117
 20
7.611295990950088
 10
24.0241397267744
 20
7.59487739039188
 10
24.02354276092671
 20
7.594280424544191
 10
24.02294579507902
 20
7.59398262153589
 10
24.02264663223963
 20
7.59398262153589
 10
24.02204966639192
 20
7.593683458696496
 10
24.02145270054424
 20
7.593683458696496
 10
24.02085573469655
 20
7.593683458696496
 10
24.02025876884885
 20
7.593683458696496
 10
24.01966180300115
 20
7.593683458696496
 10
24.01906483715346
 20
7.593683458696496
 10
24.01846787130577
 20
7.593683458696496
 10
24.01787090545808
 20
7.593683458696496
 10
24.01697477677099
 20
7.593683458696496
 10
24.0163778109233
 20
7.593683458696496
 10
24.0157808450756
 20
7.593683458696496
 10
24.01458691338022
 20
7.593683458696496
  0
CIRCLE
  5
1A5
330
2
100
AcDbEntity
  8
IMAGE
100
AcDbCircle
 10
24.61720526475706
 20
7.543770211948021
 30
0.0
 40
0.0188980473000647
  0
TEXT
  5
1A6
330
2
100
AcDbEntity
  8
IMAGE
100
AcDbText
 10
24.60756001412657
 20
7.533927832536231
 30
0.0
 40
0.0206890946009828
  1
R
  7
ROMANS
100
AcDbText
  0
LWPOLYLINE
  5
1A7
330
2
100
AcDbEntity
  8
IMAGE
100
AcDbPolyline
 90
       32
 70
     1
 43
0.0
 10
24.36952050518899
 20
7.603236272090684
 10
24.38295427650873
 20
7.60293710925129
 10
24.38355124235642
 20
7.602042340395294
 10
24.38414820820412
 20
7.601445374547599
 10
24.38444601121242
 20
7.600848408699909
 10
24.38504297706011
 20
7.599952280012825
 10
24.3853421398995
 20
7.59935531416513
 10
24.3853421398995
 20
7.598460545309134
 10
24.38564130273889
 20
7.59756441662205
 10
24.38564130273889
 20
7.596967450774354
 10
24.38564130273889
 20
7.59607132208727
 10
24.3853421398995
 20
7.595176553231275
 10
24.3853421398995
 20
7.594280424544191
 10
24.38504297706011
 20
7.593384295857107
 10
24.38474517405181
 20
7.592489527001111
 10
24.38444601121242
 20
7.591593398314027
 10
24.38355124235642
 20
7.590101663610336
 10
24.38235731066104
 20
7.588310766067255
 10
24.38116337896565
 20
7.587115474540777
 10
24.37996944727026
 20
7.585922902676481
 10
24.37877415574378
 20
7.584727611150002
 10
24.3772824210401
 20
7.5841320051334
 10
24.37578932650532
 20
7.583235876446316
 10
24.37399842896224
 20
7.582638910598621
 10
24.37250533442746
 20
7.582339747759233
 10
24.37071443688438
 20
7.581742781911537
 10
24.3689235393413
 20
7.58144497890323
 10
24.36743044480651
 20
7.58144497890323
 10
24.36563954726344
 20
7.58144497890323
 10
24.36384864972036
 20
7.581145816063842
 10
24.36205775217728
 20
7.58144497890323
 10
24.35877376009941
 20
7.581742781911537
  0
LINE
  5
1A8
330
2
100
AcDbEntity
  8
IMAGE
100
AcDbLine
 10
24.52970381276379
 20
7.886758411654138
 30
0.0
 11
24.20256894704472
 21
7.886758411654138
 31
0.0
  0
LWPOLYLINE
  5
1A9
330
2
100
AcDbEntity
  8
IMAGE
100
AcDbPolyline
 90
        2
 70
     1
 43
0.0600476119612251
 10
23.5910984244686
 20
7.726103879306227
 42
1.0
 10
23.65114603642982
 20
7.726103879306227
 42
1.0
  0
LWPOLYLINE
  5
1AA
330
2
100
AcDbEntity
  8
IMAGE
100
AcDbPolyline
 90
       58
 70
     1
 43
0.0
 10
23.94562987890062
 20
7.644728798083106
 10
23.9465260075877
 20
7.644728798083106
 10
23.9474207764437
 20
7.644728798083106
 10
23.94831690513079
 20
7.644728798083106
 10
23.94921167398678
 20
7.644728798083106
 10
23.95040560568217
 20
7.644728798083106
 10
23.95130173436926
 20
7.644430995074805
 10
23.95219786305634
 20
7.644430995074805
 10
23.95339179475172
 20
7.644430995074805
 10
23.95428656360773
 20
7.644133192066504
 10
23.9551826922948
 20
7.64383402922711
 10
23.9560774611508
 20
7.643534866387721
 10
23.95697358983788
 20
7.64323706337942
 10
23.95786971852497
 20
7.642640097531725
 10
23.95846668437266
 20
7.64204313168403
 10
23.95995841907635
 20
7.640849199988645
 10
23.95966061606805
 20
7.631893352442151
 10
23.95846668437266
 20
7.63040161773846
 10
23.95727139284619
 20
7.629206326211988
 10
23.9560774611508
 20
7.628012394516597
 10
23.95488352945541
 20
7.626818462821212
 10
23.95368959776003
 20
7.625923693965217
 10
23.95219786305634
 20
7.625027565278132
 10
23.95070476852156
 20
7.624132796422136
 10
23.94891387097848
 20
7.623534470743353
 10
23.9474207764437
 20
7.622938864726746
 10
23.94562987890062
 20
7.622639701887357
 10
23.94383898135753
 20
7.622042736039662
 10
23.94204808381446
 20
7.621743573200273
 10
23.94025582644029
 20
7.621743573200273
 10
23.93846492889721
 20
7.621743573200273
 10
23.93488313381105
 20
7.622042736039662
 10
23.93428616796336
 20
7.622938864726746
 10
23.93428616796336
 20
7.624132796422136
 10
23.93428616796336
 20
7.625027565278132
 10
23.93458533080275
 20
7.626221496973517
 10
23.93488313381105
 20
7.627714591508296
 10
23.93548009965873
 20
7.628908523203687
 10
23.93607706550644
 20
7.630102454899072
 10
23.93697319419352
 20
7.631595549433844
 10
23.93757016004122
 20
7.632789481129235
 10
23.93846492889721
 20
7.633983412824626
 10
23.9393610575843
 20
7.635475147528311
 10
23.93995802343199
 20
7.636669079223702
 10
23.94085415211907
 20
7.638162173758481
 10
23.94145111796676
 20
7.639356105453866
 10
23.94294285267045
 20
7.64204313168403
 10
23.94324201550984
 20
7.642340934692336
 10
23.94324201550984
 20
7.642640097531725
 10
23.94353981851815
 20
7.642939260371114
 10
23.94353981851815
 20
7.64323706337942
 10
23.94383898135753
 20
7.643534866387721
 10
23.94383898135753
 20
7.64383402922711
 10
23.94413678436584
 20
7.644133192066504
 10
23.94413678436584
 20
7.644430995074805
 10
23.94443594720523
 20
7.644430995074805
 10
23.94473511004462
 20
7.644430995074805
 10
23.94562987890062
 20
7.644728798083106
  0
TEXT
  5
1AB
330
2
100
AcDbEntity
  8
IMAGE
100
AcDbText
 10
23.8405898206855
 20
8.048773676397637
 30
0.0
 40
0.03825
  1
Blue/White-
 41
0.9
  7
ROMANS
100
AcDbText
  0
LWPOLYLINE
  5
1AC
330
2
100
AcDbEntity
  8
IMAGE
100
AcDbPolyline
 90
        2
 70
     0
 43
0.002125
 10
23.82717191638168
 20
8.031258411654139
 10
23.98044185177275
 20
8.031258411654139
  0
LWPOLYLINE
  5
1AD
330
2
100
AcDbEntity
  8
IMAGE
100
AcDbPolyline
 90
        2
 70
     0
 43
0.002125
 10
24.18418591468354
 20
7.957982631747494
 10
24.18418591468354
 20
8.004594725932244
  0
LWPOLYLINE
  5
1AE
330
2
100
AcDbEntity
  8
IMAGE
100
AcDbPolyline
 90
        2
 70
     0
 43
0.002125
 10
23.98044185177275
 20
8.031258411654139
 10
24.18418591468354
 20
8.031258411654139
  0
TEXT
  5
1AF
330
2
100
AcDbEntity
  8
IMAGE
100
AcDbText
 10
24.01553889159806
 20
7.911550596576247
 30
0.0
 40
0.03825
  1
Blue+
 41
0.9
  7
ROMANS
100
AcDbText
  0
LWPOLYLINE
  5
1B0
330
2
100
AcDbEntity
  8
IMAGE
100
AcDbPolyline
 90
       39
 70
     0
 43
0.0
 10
24.27482554059795
 20
7.652425034935776
 10
24.27489121959639
 20
7.652490713934215
 10
24.27608515129178
 20
7.653684645629599
 10
24.27071245866254
 20
7.668014545636421
 10
24.27101026167084
 20
7.668014545636421
 10
24.27130942451023
 20
7.668014545636421
 10
24.27160722751853
 20
7.668312348644728
 10
24.27190639035792
 20
7.668014545636421
 10
24.27220555319732
 20
7.668014545636421
 10
24.27250335620562
 20
7.668014545636421
 10
24.27280251904501
 20
7.667715382797032
 10
24.27310032205331
 20
7.667715382797032
 10
24.2733994848927
 20
7.667416219957644
 10
24.273697287901
 20
7.667416219957644
 10
24.27399645074039
 20
7.667118416949343
 10
24.2742942537487
 20
7.667118416949343
 10
24.27459341658809
 20
7.666819254109949
 10
24.27489121959639
 20
7.666819254109949
 10
24.27578734828348
 20
7.667118416949343
 10
24.27101026167084
 20
7.680849991277382
 10
24.27130942451023
 20
7.680849991277382
 10
24.27190639035792
 20
7.680849991277382
 10
24.27220555319732
 20
7.680550828437993
 10
24.27250335620562
 20
7.680550828437993
 10
24.27310032205331
 20
7.680253025429686
 10
24.2733994848927
 20
7.679955222421385
 10
24.273697287901
 20
7.679656059581991
 10
24.2742942537487
 20
7.679656059581991
 10
24.27459341658809
 20
7.679356896742602
 10
24.27489121959639
 20
7.679059093734301
 10
24.27548954527518
 20
7.678759930894907
 10
24.27578734828348
 20
7.678759930894907
 10
24.27608515129178
 20
7.678759930894907
 10
24.27668211713947
 20
7.678759930894907
 10
24.27787740866595
 20
7.679356896742602
 10
24.27071245866254
 20
7.700253421074054
 10
24.27101026167084
 20
7.700253421074054
 10
24.27130942451023
 20
7.700253421074054
 10
24.27130942451023
 20
7.700253421074054
  0
HATCH
  5
1B1
330
2
100
AcDbEntity
  8
IMAGE
100
AcDbHatch
 10
0.0
 20
0.0
 30
0.0
210
0.0
220
0.0
230
1.0
  2
SOLID
 70
     1
 71
     1
 91
        3
 92
       21
 93
        1
 72
     3
 10
24.40350306319955
 20
7.816930488363622
 11
-0.0832999999999999
 21
0.0
 40
0.4351876185496216
 50
0.0
 51
360.0
 73
     1
 97
        1
330
1B6
 92
        5
 93
        2
 72
     3
 10
24.40350306319955
 20
7.816930488363622
 11
-0.0832999999999999
 21
0.0
 40
0.4351876185496216
 50
-6.879938349969204
 51
6.709902911056179
 73
     0
 72
     2
 10
24.31500166195279
 20
7.816757702040677
 40
0.0125784014402833
 50
49.98344234131828
 51
310.863604371778
 73
     1
 97
        2
330
1B6
330
1B5
 92
        5
 93
        2
 72
     3
 10
24.40350306319955
 20
7.816930488363622
 11
-0.0832999999999999
 21
0.0
 40
0.4351876185496216
 50
173.2900970889451
 51
186.8799383499664
 73
     0
 72
     2
 10
24.49200446444631
 20
7.816757702040677
 40
0.0125784014402833
 50
229.1363956282017
 51
490.0165576587045
 73
     1
 97
        2
330
1B6
330
1B4
 75
     0
 76
     1
 47
0.0005210908982081
 98
        3
 10
24.38933400642802
 20
7.813976369673298
 10
24.31223492025329
 20
7.817076859776651
 10
24.49346207781504
 20
7.813976369673298
  0
LWPOLYLINE
  5
1B2
330
2
100
AcDbEntity
  8
IMAGE
100
AcDbPolyline
 90
       35
 70
     1
 43
0.0
 10
24.39220792706352
 20
7.643534866387721
 10
24.40355163800079
 20
7.642939260371114
 10
24.40384944100909
 20
7.641743968844641
 10
24.40414860384849
 20
7.640849199988645
 10
24.40444640685679
 20
7.639953071301555
 10
24.40444640685679
 20
7.638759139606171
 10
24.40444640685679
 20
7.637864370750174
 10
24.40414860384849
 20
7.63696824206309
 10
24.40384944100909
 20
7.636073473207095
 10
24.40355163800079
 20
7.634878181680616
 10
24.40325383499249
 20
7.633983412824626
 10
24.40265550931371
 20
7.633087284137536
 10
24.40205854346601
 20
7.63219251528154
 10
24.40176074045771
 20
7.631296386594456
 10
24.40116377461002
 20
7.63040161773846
 10
24.40056680876232
 20
7.629505489051377
 10
24.39996984291463
 20
7.628012394516597
 10
24.39877455138815
 20
7.627116265829513
 10
24.39787978253216
 20
7.626520659812905
 10
24.39668585083677
 20
7.625923693965217
 10
24.39549191914138
 20
7.625325368286433
 10
24.394297987446
 20
7.624728402438738
 10
24.39310405575061
 20
7.624430599430437
 10
24.39161096121583
 20
7.624132796422136
 10
24.39041702952044
 20
7.623833633582748
 10
24.38892393498567
 20
7.623534470743353
 10
24.38743084045089
 20
7.623236667735053
 10
24.38623826858659
 20
7.623236667735053
 10
24.38474517405181
 20
7.623236667735053
 10
24.38325207951703
 20
7.622938864726746
 10
24.38205814782164
 20
7.622938864726746
 10
24.37937112159148
 20
7.623236667735053
 10
24.39161096121583
 20
7.643534866387721
 10
24.39190876422413
 20
7.643534866387721
 10
24.39220792706352
 20
7.643534866387721
  0
LWPOLYLINE
  5
1B3
330
2
100
AcDbEntity
  8
IMAGE
100
AcDbPolyline
 90
       10
 70
     0
 43
0.0
 10
24.27250335620562
 20
7.642640097531725
 10
24.27280251904501
 20
7.642640097531725
 10
24.27280251904501
 20
7.642939260371114
 10
24.27310032205331
 20
7.643534866387721
 10
24.26772762942407
 20
7.655475543172686
 10
24.26802543243237
 20
7.655774706012074
 10
24.26802543243237
 20
7.656073868851462
 10
24.26832459527176
 20
7.656073868851462
 10
24.26862239828006
 20
7.656371671859764
 10
24.27482554059795
 20
7.652425034935776
  0
ARC
  5
1B4
102
{ACAD_REACTORS
330
1B1
102
}
330
2
100
AcDbEntity
  8
IMAGE
100
AcDbCircle
 10
24.49200446444631
 20
7.816757702040677
 30
0.0
 40
0.0125784014402834
100
AcDbArc
 50
229.1363956322453
 51
130.0165576545509
  0
ARC
  5
1B5
102
{ACAD_REACTORS
330
1B1
102
}
330
2
100
AcDbEntity
  8
IMAGE
100
AcDbCircle
 10
24.31500166195279
 20
7.816757702040677
 30
0.0
 40
0.0125784014402834
100
AcDbArc
 50
49.98344234544904
 51
310.8636043677543
  0
ELLIPSE
  5
1B6
102
{ACAD_REACTORS
330
1B1
102
}
330
2
100
AcDbEntity
  8
IMAGE
100
AcDbEllipse
 10
24.40350306319955
 20
7.816930488363622
 30
0.0
 11
-0.0832999999999999
 21
0.0
 31
0.0
210
0.0
220
0.0
230
1.0
 40
0.4351876185496216
 41
0.0
 42
6.283185307179586
  0
TEXT
  5
1B7
330
2
100
AcDbEntity
  8
IMAGE
100
AcDbText
 10
25.14423550201067
 20
7.241450795945893
 30
0.0
 40
0.125
  1
RED
  7
L100
100
AcDbText
  0
LWPOLYLINE
  5
1B8
330
2
100
AcDbEntity
  8
IMAGE
100
AcDbPolyline
 90
        3
 70
     0
 43
0.0
 10
27.15368177188565
 20
7.24892319895473
 42
-0.5291747719520333
 10
27.15368177188565
 20
7.16953335674735
 42
0.5001668032613813
 10
27.15368177188565
 20
7.09014351453997
  0
LWPOLYLINE
  5
1B9
330
2
100
AcDbEntity
  8
IMAGE
100
AcDbPolyline
 90
        3
 70
     0
 43
0.0
 10
27.21902810829068
 20
7.24892319895473
 42
-0.5291747719520333
 10
27.21902810829068
 20
7.16953335674735
 42
0.5001668032613813
 10
27.21902810829068
 20
7.09014351453997
  0
LWPOLYLINE
  5
1BA
330
2
100
AcDbEntity
  8
IMAGE
100
AcDbPolyline
 90
        3
 70
     0
 43
0.0188
 10
26.44982097464275
 20
7.056920763190174
 10
26.44982097464275
 20
7.137538354265889
 10
27.1344288968106
 20
7.137538354265889
  0
LWPOLYLINE
  5
1BB
330
2
100
AcDbEntity
  8
IMAGE
100
AcDbPolyline
 90
        8
 70
     0
 10
27.23986253327618
 20
7.205178345816972
 40
0.0188
 41
0.0188
 10
27.45353813508106
 20
7.205178345816972
 40
0.018
 41
0.018
 10
27.8308165202569
 20
7.205178345816972
 40
0.018
 41
0.018
 10
27.89369624477477
 20
7.205178345816972
 40
0.018
 41
0.018
 10
27.93942695005425
 20
7.196608196884954
 40
0.018
 41
0.018
 10
27.97658314571453
 20
7.165184345210746
 40
0.018
 41
0.018
 10
27.96800863609533
 20
7.128047060915192
 40
0.018
 41
0.018
 10
27.87654722553638
 20
7.042345599338204
 40
0.018
 41
0.018
  0
LWPOLYLINE
  5
1BC
330
2
100
AcDbEntity
  8
IMAGE
100
AcDbPolyline
 90
        8
 70
     0
 10
27.19977523321563
 20
7.137538354265889
 40
0.0188
 41
0.0188
 10
27.41386517548558
 20
7.137538354265889
 40
0.018
 41
0.018
 10
27.57173586971759
 20
7.137538354265889
 40
0.018
 41
0.018
 10
27.70606982837251
 20
7.137538354265889
 40
0.018
 41
0.018
 10
27.85469461101364
 20
7.140395070576562
 40
0.018
 41
0.018
 10
27.88327629705473
 20
7.123254772712527
 40
0.018
 41
0.018
 10
27.88041813987122
 20
7.086117460673782
 40
0.018
 41
0.018
 10
27.83182927740824
 20
7.008986175772002
 40
0.018
 41
0.018
  0
ARC
  5
1BD
330
2
100
AcDbEntity
  8
IMAGE
100
AcDbCircle
 10
28.62686711101686
 20
7.123143410490251
 30
0.0
 40
0.0704477004764508
100
AcDbArc
 50
7.619275746447104
 51
232.19230261949
  0
ARC
  5
1BE
330
2
100
AcDbEntity
  8
IMAGE
100
AcDbCircle
 10
28.8448013643328
 20
7.094296142601205
 30
0.0
 40
0.1097332429163024
100
AcDbArc
 50
316.8144823509703
 51
129.0093566672406
  0
POLYLINE
  5
1BF
330
2
100
AcDbEntity
  8
IMAGE
100
AcDb2dPolyline
 66
     1
 10
0.0
 20
0.0
 30
0.0
 70
     4
 40
0.018
 41
0.018
 75
     6
  0
VERTEX
  5
1C0
330
1BF
100
AcDbEntity
  8
IMAGE
100
AcDbVertex
100
AcDb2dVertex
 10
28.93953390761921
 20
7.156638683920029
 30
0.0
 70
    16
  0
VERTEX
  5
1C1
330
1BF
100
AcDbEntity
  8
IMAGE
100
AcDbVertex
100
AcDb2dVertex
 10
28.93953390761921
 20
7.156638683920029
 30
0.0
 70
     8
  0
VERTEX
  5
1C2
330
1BF
100
AcDbEntity
  8
IMAGE
100
AcDbVertex
100
AcDb2dVertex
 10
28.95483062630895
 20
7.145448422025734
 30
0.0
 70
     8
  0
VERTEX
  5
1C3
330
1BF
100
AcDbEntity
  8
IMAGE
100
AcDbVertex
100
AcDb2dVertex
 10
28.96720445417868
 20
7.135973922297026
 30
0.0
 70
     8
  0
VERTEX
  5
1C4
330
1BF
100
AcDbEntity
  8
IMAGE
100
AcDbVertex
100
AcDb2dVertex
 10
28.97702893590502
 20
7.127945106755523
 30
0.0
 70
     8
  0
VERTEX
  5
1C5
330
1BF
100
AcDbEntity
  8
IMAGE
100
AcDbVertex
100
AcDb2dVertex
 10
28.98467761616456
 20
7.121091897422847
 30
0.0
 70
     8
  0
VERTEX
  5
1C6
330
1BF
100
AcDbEntity
  8
IMAGE
100
AcDbVertex
100
AcDb2dVertex
 10
28.9905240396339
 20
7.115144216320615
 30
0.0
 70
     8
  0
VERTEX
  5
1C7
330
1BF
100
AcDbEntity
  8
IMAGE
100
AcDbVertex
100
AcDb2dVertex
 10
28.99494175098964
 20
7.109831985470443
 30
0.0
 70
     8
  0
VERTEX
  5
1C8
330
1BF
100
AcDbEntity
  8
IMAGE
100
AcDbVertex
100
AcDb2dVertex
 10
28.99830429490839
 20
7.104885126893951
 30
0.0
 70
     8
  0
VERTEX
  5
1C9
330
1BF
100
AcDbEntity
  8
IMAGE
100
AcDbVertex
100
AcDb2dVertex
 10
29.00098521606675
 20
7.100033562612757
 30
0.0
 70
     8
  0
VERTEX
  5
1CA
330
1BF
100
AcDbEntity
  8
IMAGE
100
AcDbVertex
100
AcDb2dVertex
 10
29.00328938340179
 20
7.095044983728934
 30
0.0
 70
     8
  0
VERTEX
  5
1CB
330
1BF
100
AcDbEntity
  8
IMAGE
100
AcDbVertex
100
AcDb2dVertex
 10
29.00524696289257
 20
7.089838157666366
 30
0.0
 70
     8
  0
VERTEX
  5
1CC
330
1BF
100
AcDbEntity
  8
IMAGE
100
AcDbVertex
100
AcDb2dVertex
 10
29.0068194447786
 20
7.084369620929395
 30
0.0
 70
     8
  0
VERTEX
  5
1CD
330
1BF
100
AcDbEntity
  8
IMAGE
100
AcDbVertex
100
AcDb2dVertex
 10
29.00796831929942
 20
7.078595910022359
 30
0.0
 70
     8
  0
VERTEX
  5
1CE
330
1BF
100
AcDbEntity
  8
IMAGE
100
AcDbVertex
100
AcDb2dVertex
 10
29.00865507669454
 20
7.072473561449598
 30
0.0
 70
     8
  0
VERTEX
  5
1CF
330
1BF
100
AcDbEntity
  8
IMAGE
100
AcDbVertex
100
AcDb2dVertex
 10
29.00884120720351
 20
7.06595911171545
 30
0.0
 70
     8
  0
VERTEX
  5
1D0
330
1BF
100
AcDbEntity
  8
IMAGE
100
AcDbVertex
100
AcDb2dVertex
 10
29.00848820106582
 20
7.059009097324258
 30
0.0
 70
     8
  0
VERTEX
  5
1D1
330
1BF
100
AcDbEntity
  8
IMAGE
100
AcDbVertex
100
AcDb2dVertex
 10
29.00755754852103
 20
7.051580054780359
 30
0.0
 70
     8
  0
VERTEX
  5
1D2
330
1BF
100
AcDbEntity
  8
IMAGE
100
AcDbVertex
100
AcDb2dVertex
 10
29.00572384209311
 20
7.043503243453543
 30
0.0
 70
     8
  0
VERTEX
  5
1D3
330
1BF
100
AcDbEntity
  8
IMAGE
100
AcDbVertex
100
AcDb2dVertex
 10
29.00151408344393
 20
7.034108814175397
 30
0.0
 70
     8
  0
VERTEX
  5
1D4
330
1BF
100
AcDbEntity
  8
IMAGE
100
AcDbVertex
100
AcDb2dVertex
 10
28.9931683765198
 20
7.022601640642956
 30
0.0
 70
     8
  0
VERTEX
  5
1D5
330
1BF
100
AcDbEntity
  8
IMAGE
100
AcDbVertex
100
AcDb2dVertex
 10
28.97892682526706
 20
7.008186596553257
 30
0.0
 70
     8
  0
VERTEX
  5
1D6
330
1BF
100
AcDbEntity
  8
IMAGE
100
AcDbVertex
100
AcDb2dVertex
 10
28.95702953363203
 20
6.990068555603339
 30
0.0
 70
     8
  0
VERTEX
  5
1D7
330
1BF
100
AcDbEntity
  8
IMAGE
100
AcDbVertex
100
AcDb2dVertex
 10
28.92571660556103
 20
6.967452391490234
 30
0.0
 70
     8
  0
VERTEX
  5
1D8
330
1BF
100
AcDbEntity
  8
IMAGE
100
AcDbVertex
100
AcDb2dVertex
 10
28.88322814500038
 20
6.93954297791098
 30
0.0
 70
     8
  0
VERTEX
  5
1D9
330
1BF
100
AcDbEntity
  8
IMAGE
100
AcDbVertex
100
AcDb2dVertex
 10
28.82780425589642
 20
6.905545188562615
 30
0.0
 70
     8
  0
VERTEX
  5
1DA
330
1BF
100
AcDbEntity
  8
IMAGE
100
AcDbVertex
100
AcDb2dVertex
 10
28.98455438493104
 20
7.124270233333671
 30
0.0
 70
    16
  0
VERTEX
  5
1DB
330
1BF
100
AcDbEntity
  8
IMAGE
100
AcDbVertex
100
AcDb2dVertex
 10
29.00427138229389
 20
7.101897921898982
 30
0.0
 70
    16
  0
VERTEX
  5
1DC
330
1BF
100
AcDbEntity
  8
IMAGE
100
AcDbVertex
100
AcDb2dVertex
 10
29.01412988097531
 20
7.057153299029604
 30
0.0
 70
    16
  0
VERTEX
  5
1DD
330
1BF
100
AcDbEntity
  8
IMAGE
100
AcDbVertex
100
AcDb2dVertex
 10
28.99441288361246
 20
7.005030573453041
 30
0.0
 70
    16
  0
VERTEX
  5
1DE
330
1BF
100
AcDbEntity
  8
IMAGE
100
AcDbVertex
100
AcDb2dVertex
 10
28.82780425589642
 20
6.905545188562615
 30
0.0
 70
    16
  0
SEQEND
  5
1DF
330
1BF
100
AcDbEntity
  8
IMAGE
  0
LWPOLYLINE
  5
1E0
330
2
100
AcDbEntity
  8
IMAGE
100
AcDbPolyline
 90
        3
 70
     0
 43
0.018
 10
27.70991136210886
 20
7.259818584076579
 10
27.82352655447993
 20
6.995978544838203
 10
28.00048589788927
 20
6.74413983319271
  0
LINE
  5
1E1
330
2
100
AcDbEntity
  8
IMAGE
100
AcDbLine
 10
28.05698723580104
 20
6.748371943913624
 30
0.0
 11
28.77573007149454
 21
7.179563610644883
 31
0.0
  0
LWPOLYLINE
  5
1E2
330
2
100
AcDbEntity
  8
IMAGE
100
AcDbPolyline
 90
       78
 70
     0
 43
0.0264178667818252
 10
28.16100894790278
 20
7.053549354392573
 10
28.17293626912799
 20
7.057893152506009
 10
28.1858990699636
 20
7.06302105119905
 10
28.19696120053029
 20
7.067745883619275
 10
28.20681518343505
 20
7.072202005190956
 10
28.21615354128486
 20
7.076523771338367
 10
28.22554225492752
 20
7.080819412819946
 10
28.23504113817395
 20
7.085092661730814
 10
28.24458346307586
 20
7.089321125500256
 10
28.25410250168496
 20
7.093482411557564
 10
28.26353152605298
 20
7.097554127332023
 10
28.27280380823162
 20
7.101513880252923
 10
28.28185262027259
 20
7.105339277749551
 10
28.29061123422762
 20
7.109007927251195
 10
28.29903147943218
 20
7.112512317325908
 10
28.30713941435678
 20
7.115904461096799
 10
28.31497965475571
 20
7.119251252825741
 10
28.32259681638324
 20
7.122619586774609
 10
28.33003551499365
 20
7.126076357205277
 10
28.33734036634122
 20
7.129688458379615
 10
28.34455598618023
 20
7.133522784559502
 10
28.35172699026497
 20
7.13764623000681
 10
28.35888684041114
 20
7.142107170232949
 10
28.36602438268016
 20
7.146879905747481
 10
28.37311730919491
 20
7.15192021830951
 10
28.38014331207823
 20
7.157183889678133
 10
28.387080083453
 20
7.162626701612452
 10
28.39390531544207
 20
7.168204435871568
 10
28.40059670016831
 20
7.17387287421458
 10
28.40713192975456
 20
7.179587798400589
 10
28.41349241430322
 20
7.185312312653801
 10
28.41967443583476
 20
7.19103881105885
 10
28.42567799434919
 20
7.19676701016547
 10
28.4315030898465
 20
7.202496626523402
 10
28.43714972232669
 20
7.208227376682383
 10
28.44261789178977
 20
7.21395897719215
 10
28.44790759823572
 20
7.219691144602441
 10
28.45301884166457
 20
7.225423595462994
 10
28.4579552748281
 20
7.231159825660376
 10
28.46273516148539
 20
7.236918448428471
 10
28.46738041814732
 20
7.24272185633799
 10
28.47191296132475
 20
7.248592441959644
 10
28.47635470752855
 20
7.254552597864147
 10
28.48072757326961
 20
7.260624716622208
 10
28.4850534750588
 20
7.266831190804542
 10
28.48935432940699
 20
7.273194412981861
 10
28.4936410293419
 20
7.279736728483164
 10
28.49788037395867
 20
7.286480293670613
 10
28.5020281388693
 20
7.293447217664656
 10
28.50604009968576
 20
7.300659609585745
 10
28.50987203202004
 20
7.30813957855433
 10
28.51347971148412
 20
7.315909233690858
 10
28.51681891369
 20
7.323990684115781
 10
28.51984541424966
 20
7.332406038949549
 10
28.5225335786727
 20
7.341162620657267
 10
28.52493213205919
 20
7.350208605082667
 10
28.52710838940681
 20
7.359477381414138
 10
28.52912966571325
 20
7.36890233884007
 10
28.5310632759762
 20
7.378416866548849
 10
28.53297653519334
 20
7.387954353728864
 10
28.53493675836235
 20
7.397448189568503
 10
28.53701126048092
 20
7.406831763256157
 10
28.53925042995574
 20
7.41607004506359
 10
28.54163694882956
 20
7.425254329596077
 10
28.54413657255414
 20
7.434507492542274
 10
28.54671505658124
 20
7.443952409590833
 10
28.54933815636263
 20
7.453711956430407
 10
28.55197162735005
 20
7.463909008749653
 10
28.55458122499527
 20
7.474666442237222
 10
28.55713270475004
 20
7.48610713258177
 10
28.55958829976974
 20
7.499066265980796
 10
28.56189615402418
 20
7.51722827066721
 10
28.56400088918676
 20
7.544989885382767
 10
28.56584712693091
 20
7.586747848869221
 10
28.56737948893004
 20
7.646898899868329
 10
28.56854259685758
 20
7.729839777121846
 10
28.56928107238692
 20
7.839967219371528
 10
28.5695395371915
 20
7.98167796535913
  0
LINE
  5
1E3
330
2
100
AcDbEntity
  8
IMAGE
100
AcDbLine
 10
27.80949998752054
 20
6.994817532564327
 30
0.0
 11
27.73716297791569
 21
6.94881242121198
 31
0.0
  0
LINE
  5
1E4
330
2
100
AcDbEntity
  8
IMAGE
100
AcDbLine
 10
27.80449955444226
 20
6.734884550740932
 30
0.0
 11
27.7384929452517
 21
6.698044220890025
 31
0.0
  0
LINE
  5
1E5
330
2
100
AcDbEntity
  8
IMAGE
100
AcDbLine
 10
27.69267565911205
 20
6.893192065848126
 30
0.0
 11
27.81628965744168
 21
6.717710777360617
 31
0.0
  0
LINE
  5
1E6
330
2
100
AcDbEntity
  8
IMAGE
100
AcDbLine
 10
27.73716297791569
 20
6.94881242121198
 30
0.0
 11
27.88549061848269
 21
6.73824787482783
 31
0.0
  0
LWPOLYLINE
  5
1E7
330
2
100
AcDbEntity
  8
IMAGE
100
AcDbPolyline
 90
       73
 70
     0
 43
0.0264178667818252
 10
27.61853829734484
 20
6.744184007941293
 10
27.56275643952761
 20
6.740140282880223
 10
27.51513906906037
 20
6.736555605518749
 10
27.4747114882586
 20
6.733351601859379
 10
27.44049899943783
 20
6.730449897904619
 10
27.41152690491354
 20
6.727772119656979
 10
27.38682050700126
 20
6.725239893118968
 10
27.36540510801646
 20
6.722774844293092
 10
27.34630601027467
 20
6.72029859918186
 10
27.32868308085905
 20
6.717751444263374
 10
27.31223444592338
 20
6.715148307918107
 10
27.29679279638911
 20
6.71252277900213
 10
27.28219082317771
 20
6.709908446371506
 10
27.26826121721062
 20
6.707338898882309
 10
27.25483666940931
 20
6.704847725390601
 10
27.2417498706952
 20
6.702468514752455
 10
27.22883351198978
 20
6.700234855823937
 10
27.21594803860548
 20
6.698159858179671
 10
27.20306491341878
 20
6.696174714268516
 10
27.19018335369713
 20
6.694190137257885
 10
27.17730257670802
 20
6.692116840315192
 10
27.1644217997189
 20
6.689865536607853
 10
27.15154023999726
 20
6.687346939303282
 10
27.13865711481056
 20
6.68447176156889
 10
27.12577164142626
 20
6.681150716572096
 10
27.11289073398173
 20
6.677313036230773
 10
27.10005209409388
 20
6.672962027464648
 10
27.08730112024952
 20
6.668119515943909
 10
27.07468321093548
 20
6.662807327338744
 10
27.06224376463855
 20
6.657047287319338
 10
27.05002817984555
 20
6.650861221555881
 10
27.03808185504329
 20
6.644270955718559
 10
27.02645018871857
 20
6.637298315477562
 10
27.01517094771604
 20
6.629961536133087
 10
27.0042513723116
 20
6.622264491505386
 10
26.99369107113899
 20
6.614207465044721
 10
26.98348965283194
 20
6.605790740201353
 10
26.97364672602419
 20
6.597014600425545
 10
26.96416189934947
 20
6.587879329167558
 10
26.95503478144152
 20
6.578385209877656
 10
26.94626498093406
 20
6.5685325260061
 10
26.93786339085483
 20
6.5583327100468
 10
26.92988604180753
 20
6.547841790668242
 10
26.92240024878982
 20
6.537126945582564
 10
26.9154733267994
 20
6.526255352501904
 10
26.90917259083395
 20
6.515294189138396
 10
26.90356535589117
 20
6.504310633204174
 10
26.89871893696872
 20
6.493371862411378
 10
26.8947006490643
 20
6.482545054472141
 10
26.89155536884303
 20
6.471886238054954
 10
26.88923821963979
 20
6.461406845653726
 10
26.88768188645689
 20
6.451107160718717
 10
26.88681905429664
 20
6.440987466700191
 10
26.88658240816137
 20
6.431048047048409
 10
26.8869046330534
 20
6.421289185213634
 10
26.88771841397501
 20
6.411711164646128
 10
26.88895643592855
 20
6.402314268796152
 10
26.89057571385251
 20
6.393089309151042
 10
26.89263058243008
 20
6.38398920934642
 10
26.89519970628067
 20
6.374957421054984
 10
26.89836175002364
 20
6.365937395949428
 10
26.90219537827841
 20
6.356872585702448
 10
26.90677925566434
 20
6.34770644198674
 10
26.91219204680083
 20
6.338382416474999
 10
26.91851241630727
 20
6.328843960839922
 10
26.92602058242982
 20
6.31890404515018
 10
26.93580297792183
 20
6.307853713058362
 10
26.9491475891634
 20
6.294853526613029
 10
26.96734240253464
 20
6.279064047862745
 10
26.99167540441569
 20
6.259645838856075
 10
27.02343458118665
 20
6.235759461641579
 10
27.06390791922763
 20
6.206565478267823
 10
27.0980103635564
 20
6.182688235566578
  0
TEXT
  5
1E8
330
2
100
AcDbEntity
  8
IMAGE
100
AcDbText
 10
26.92134365308428
 20
6.942076858370476
 30
0.0
 40
0.125
  1
BLACK
  7
L100
100
AcDbText
  0
LINE
  5
1E9
330
2
100
AcDbEntity
  8
IMAGE
100
AcDbLine
 10
26.41705033428952
 20
6.879349915552787
 30
0.0
 11
26.42276693269415
 21
7.037702922721817
 31
0.0
  0
LINE
  5
1EA
330
2
100
AcDbEntity
  8
IMAGE
100
AcDbLine
 10
26.4333673996725
 20
6.879340645255333
 30
0.0
 11
26.4458357912904
 21
7.037689816493696
 31
0.0
  0
LINE
  5
1EB
330
2
100
AcDbEntity
  8
IMAGE
100
AcDbLine
 10
26.38390016999085
 20
6.879368749324453
 30
0.0
 11
26.37161171380606
 21
7.037731985796839
 31
0.0
  0
LINE
  5
1EC
330
2
100
AcDbEntity
  8
IMAGE
100
AcDbLine
 10
26.40021723537383
 20
6.879359479026995
 30
0.0
 11
26.39468057240231
 21
7.037718879568722
 31
0.0
  0
LINE
  5
1ED
330
2
100
AcDbEntity
  8
IMAGE
100
AcDbLine
 10
26.4640325996212
 20
7.037679478248311
 30
0.0
 11
26.44710663582267
 21
6.874233405878844
 31
0.0
  0
ARC
  5
1EE
330
2
100
AcDbEntity
  8
IMAGE
100
AcDbCircle
 10
26.40863415928166
 20
6.880013783470873
 30
0.0
 40
0.0389042956022208
100
AcDbArc
 50
188.4795072373393
 51
351.4553892836563
  0
LINE
  5
1EF
330
2
100
AcDbEntity
  8
IMAGE
100
AcDbLine
 10
26.47846092337396
 20
7.037671281011253
 30
0.0
 11
26.47847184862041
 21
7.056901296175312
 31
0.0
  0
LINE
  5
1F0
330
2
100
AcDbEntity
  8
IMAGE
100
AcDbLine
 10
27.70490187390908
 20
6.875088141820839
 30
0.0
 11
27.64399924571316
 21
6.832186602602784
 31
0.0
  0
LINE
  5
1F1
330
2
100
AcDbEntity
  8
IMAGE
100
AcDbLine
 10
27.72663060816342
 20
6.714092813381162
 30
0.0
 11
27.66975986378365
 21
6.682351492208784
 31
0.0
  0
LINE
  5
1F2
330
2
100
AcDbEntity
  8
IMAGE
100
AcDbLine
 10
27.60314947717759
 20
6.776910980828458
 30
0.0
 11
27.66975986378365
 21
6.682351492208784
 31
0.0
  0
LINE
  5
1F3
330
2
100
AcDbEntity
  8
IMAGE
100
AcDbLine
 10
27.64399924571316
 20
6.832186602602784
 30
0.0
 11
27.7384929452517
 21
6.698044220890025
 31
0.0
  0
LINE
  5
1F4
330
2
100
AcDbEntity
  8
IMAGE
100
AcDbLine
 10
27.65661040766318
 20
6.81457037704504
 30
0.0
 11
27.60314947717759
 21
6.776910980828458
 31
0.0
  0
LINE
  5
1F5
330
2
100
AcDbEntity
  8
IMAGE
100
AcDbLine
 10
27.75339371968298
 20
6.928204453350677
 30
0.0
 11
27.69267565911205
 21
6.893192065848126
 31
0.0
  0
LWPOLYLINE
  5
1F6
330
2
100
AcDbEntity
  8
IMAGE
100
AcDbPolyline
 90
        2
 70
     0
 43
0.018
 10
28.68395624767453
 20
6.732719011736766
 42
1.0
 10
29.02780751770758
 20
6.732719011736766
 42
1.0
  0
LINE
  5
1F7
330
2
100
AcDbEntity
  8
IMAGE
100
AcDbLine
 10
27.95971345592819
 20
6.718220682120943
 30
0.0
 11
28.11265216880507
 21
6.501110300142283
 31
0.0
  0
LINE
  5
1F8
330
2
100
AcDbEntity
  8
IMAGE
100
AcDbLine
 10
27.98519039699727
 20
6.734416442116048
 30
0.0
 11
28.13812910987415
 21
6.517306060137388
 31
0.0
  0
LINE
  5
1F9
330
2
100
AcDbEntity
  8
IMAGE
100
AcDbLine
 10
28.01631080292714
 20
6.754199767909502
 30
0.0
 11
28.16924951580402
 21
6.537089385930842
 31
0.0
  0
LINE
  5
1FA
330
2
100
AcDbEntity
  8
IMAGE
100
AcDbLine
 10
28.04157048741125
 20
6.77025741730891
 30
0.0
 11
28.18382303468
 21
6.568317017170859
 31
0.0
  0
LINE
  5
1FB
330
2
100
AcDbEntity
  8
IMAGE
100
AcDbLine
 10
28.18863647154515
 20
6.560745180629057
 30
0.0
 11
28.92481244032006
 21
7.019198790315727
 31
0.0
  0
LINE
  5
1FC
330
2
100
AcDbEntity
  8
IMAGE
100
AcDbLine
 10
28.11265216880507
 20
6.501110300142283
 30
0.0
 11
28.19376669332214
 21
6.552675021653914
 31
0.0
  0
LINE
  5
1FD
330
2
100
AcDbEntity
  8
IMAGE
100
AcDbLine
 10
28.18382303468
 20
6.568317017170859
 30
0.0
 11
28.19376669332214
 21
6.552675021653914
 31
0.0
  0
LINE
  5
1FE
330
2
100
AcDbEntity
  8
IMAGE
100
AcDbLine
 10
28.03481005477453
 20
6.869787374471935
 30
0.0
 11
28.09040423675567
 21
6.909648032293545
 31
0.0
  0
LINE
  5
1FF
330
2
100
AcDbEntity
  8
IMAGE
100
AcDbLine
 10
27.80949998752054
 20
6.994817532564327
 30
0.0
 11
27.95782762808755
 21
6.784252986180176
 31
0.0
  0
LINE
  5
200
330
2
100
AcDbEntity
  8
IMAGE
100
AcDbLine
 10
27.78785899849748
 20
6.981320764880516
 30
0.0
 11
27.93618663906449
 21
6.770756218496364
 31
0.0
  0
LINE
  5
201
330
2
100
AcDbEntity
  8
IMAGE
100
AcDbLine
 10
27.90030252536585
 20
7.063044057438521
 30
0.0
 11
28.04743760068257
 21
6.851644467179497
 31
0.0
  0
LINE
  5
202
330
2
100
AcDbEntity
  8
IMAGE
100
AcDbLine
 10
27.85241564311796
 20
7.0265238518055
 30
0.0
 11
27.99955071843468
 21
6.815124261546477
 31
0.0
  0
LINE
  5
203
330
2
100
AcDbEntity
  8
IMAGE
100
AcDbLine
 10
27.83233118828006
 20
7.010804124782705
 30
0.0
 11
27.97946626359678
 21
6.799404534523681
 31
0.0
  0
LINE
  5
204
330
2
100
AcDbEntity
  8
IMAGE
100
AcDbLine
 10
27.95892557158775
 20
6.783242024412166
 30
0.0
 11
27.88612487426197
 21
6.737974246711087
 31
0.0
  0
LINE
  5
205
330
2
100
AcDbEntity
  8
IMAGE
100
AcDbLine
 10
27.95971345592819
 20
6.718220682120943
 30
0.0
 11
28.04157048741125
 21
6.77025741730891
 31
0.0
  0
LINE
  5
206
330
2
100
AcDbEntity
  8
IMAGE
100
AcDbLine
 10
27.98004073919692
 20
6.798027036280178
 30
0.0
 11
28.04747779929291
 21
6.850954875407838
 31
0.0
  0
LINE
  5
207
330
2
100
AcDbEntity
  8
IMAGE
100
AcDbLine
 10
27.87276072327137
 20
6.756319116306779
 30
0.0
 11
27.81628965744168
 21
6.717710777360617
 31
0.0
  0
LINE
  5
208
330
2
100
AcDbEntity
  8
IMAGE
100
AcDbLine
 10
28.10767230448148
 20
7.130181962496274
 30
0.0
 11
28.17374713863036
 21
7.035247475696047
 31
0.0
  0
LINE
  5
209
330
2
100
AcDbEntity
  8
IMAGE
100
AcDbLine
 10
28.07829860806346
 20
6.926600872020917
 30
0.0
 11
28.13549274535087
 21
6.976026705552672
 31
0.0
  0
LINE
  5
20A
330
2
100
AcDbEntity
  8
IMAGE
100
AcDbLine
 10
28.04175878217711
 20
7.110701060839016
 30
0.0
 11
28.13549274535087
 21
6.976026705552672
 31
0.0
  0
LINE
  5
20B
330
2
100
AcDbEntity
  8
IMAGE
100
AcDbLine
 10
28.05399936193918
 20
7.092825350623211
 30
0.0
 11
28.10767230448148
 21
7.130181962496274
 31
0.0
  0
LINE
  5
20C
330
2
100
AcDbEntity
  8
IMAGE
100
AcDbLine
 10
27.91411645755543
 20
7.040743819880347
 30
0.0
 11
27.96778410415661
 21
7.085825233638288
 31
0.0
  0
LINE
  5
20D
330
2
100
AcDbEntity
  8
IMAGE
100
AcDbLine
 10
27.98061463009926
 20
7.068144453183681
 30
0.0
 11
28.04175878217711
 21
7.110701060839016
 31
0.0
  0
LINE
  5
20E
330
2
100
AcDbEntity
  8
IMAGE
100
AcDbLine
 10
27.83233118828006
 20
7.010804124782705
 30
0.0
 11
27.90030252536585
 21
7.063044057438521
 31
0.0
  0
LINE
  5
20F
330
2
100
AcDbEntity
  8
IMAGE
100
AcDbLine
 10
27.96778410415661
 20
7.085825233638288
 30
0.0
 11
28.09040423675567
 21
6.909648032293545
 31
0.0
  0
LINE
  5
210
330
2
100
AcDbEntity
  8
IMAGE
100
AcDbLine
 10
28.12446914659924
 20
6.992662589439791
 30
0.0
 11
28.17374713863036
 21
7.035247475696047
 31
0.0
  0
ARC
  5
211
330
2
100
AcDbEntity
  8
IMAGE
100
AcDbCircle
 10
28.76288933701405
 20
6.88674655266561
 30
0.0
 40
0.0704477004764508
100
AcDbArc
 50
189.188991973977
 51
53.76201884701993
  0
LWPOLYLINE
  5
212
330
2
100
AcDbEntity
  8
IMAGE
100
AcDbPolyline
 90
        2
 70
     0
 43
0.018
 10
28.68395624767453
 20
6.732719011736764
 42
-1.0
 10
29.02780751770758
 20
6.732719011736764
 42
-1.0
  0
LWPOLYLINE
  5
213
330
2
100
AcDbEntity
  8
IMAGE
100
AcDbPolyline
 90
        3
 70
     0
 43
0.0188
 10
26.75024572068876
 20
7.285795936892687
 10
26.75024572068876
 20
7.205178345816972
 10
27.17451619687114
 20
7.205178345816972
  0
TEXT
  5
214
330
2
100
AcDbEntity
  8
IMAGE
100
AcDbText
 10
26.93318032006317
 20
7.283198591263126
 30
0.0
 40
0.125
  1
RED
  7
L100
100
AcDbText
  0
LINE
  5
215
330
2
100
AcDbEntity
  8
IMAGE
100
AcDbLine
 10
26.76547749856347
 20
7.305018899280177
 30
0.0
 11
26.74873726453058
 21
7.468484098598067
 31
0.0
  0
LINE
  5
216
330
2
100
AcDbEntity
  8
IMAGE
100
AcDbLine
 10
26.7186751686649
 20
7.463401744295409
 30
0.0
 11
26.72421183163642
 21
7.305042343753682
 31
0.0
  0
LINE
  5
217
330
2
100
AcDbEntity
  8
IMAGE
100
AcDbLine
 10
26.73499223404788
 20
7.463392473997951
 30
0.0
 11
26.74728069023267
 21
7.305029237525565
 31
0.0
  0
LINE
  5
218
330
2
100
AcDbEntity
  8
IMAGE
100
AcDbLine
 10
26.70184206974921
 20
7.463411307769617
 30
0.0
 11
26.69612547134458
 21
7.305058300600587
 31
0.0
  0
LINE
  5
219
330
2
100
AcDbEntity
  8
IMAGE
100
AcDbLine
 10
26.65485980441753
 20
7.305081745074093
 30
0.0
 11
26.67178576821606
 21
7.468527817443557
 31
0.0
  0
LINE
  5
21A
330
2
100
AcDbEntity
  8
IMAGE
100
AcDbLine
 10
26.68552500436623
 20
7.463420578067071
 30
0.0
 11
26.67305661274832
 21
7.305071406828708
 31
0.0
  0
LINE
  5
21B
330
2
100
AcDbEntity
  8
IMAGE
100
AcDbLine
 10
26.77990582231623
 20
7.305010702043122
 30
0.0
 11
26.64043148066477
 21
7.305089942311151
 31
0.0
  0
LINE
  5
21C
330
2
100
AcDbEntity
  8
IMAGE
100
AcDbLine
 10
26.77989489706979
 20
7.285780686879076
 30
0.0
 11
26.64042055541832
 21
7.285859927147094
 31
0.0
  0
LINE
  5
21D
330
2
100
AcDbEntity
  8
IMAGE
100
AcDbLine
 10
26.64043148066477
 20
7.305089942311151
 30
0.0
 11
26.64042055541832
 21
7.285859927147094
 31
0.0
  0
LINE
  5
21E
330
2
100
AcDbEntity
  8
IMAGE
100
AcDbLine
 10
26.77990582231623
 20
7.305010702043122
 30
0.0
 11
26.77989489706979
 21
7.285780686879076
 31
0.0
  0
ARC
  5
21F
330
2
100
AcDbEntity
  8
IMAGE
100
AcDbCircle
 10
26.71025824475707
 20
7.462747439851525
 30
0.0
 40
0.0389042956022208
100
AcDbArc
 50
8.479507237339326
 51
171.4553892836564
  0
TEXT
  5
220
330
2
100
AcDbEntity
  8
IMAGE
100
AcDbText
 10
23.62143211061426
 20
8.919433196822627
 30
0.0
 40
0.125
  1
BLUE/WHITE
  7
ROMANS
100
AcDbText
  0
LWPOLYLINE
  5
221
330
2
100
AcDbEntity
  8
IMAGE
100
AcDbPolyline
 90
        4
 70
     0
 10
25.57026615818687
 20
9.125409495801211
 40
0.0188
 41
0.0188
 10
26.11488712209953
 20
9.125409495801211
 40
0.0188
 41
0.0188
 10
26.11488575628675
 20
8.777877074792716
 40
0.0188
 41
0.0188
 10
26.11488712209953
 20
8.701872769063838
 40
0.0
 41
0.0
  0
LWPOLYLINE
  5
222
330
2
100
AcDbEntity
  8
IMAGE
100
AcDbPolyline
 90
        4
 70
     0
 10
25.60993911778234
 20
9.193049487352293
 40
0.0188
 41
0.0188
 10
26.20436086094475
 20
9.193049487352293
 40
0.0188
 41
0.0188
 10
26.20436086094475
 20
8.957740478278063
 40
0.0188
 41
0.0188
 10
26.20431666603188
 20
8.884300899160576
 40
0.0
 41
0.0
  0
LWPOLYLINE
  5
223
330
2
100
AcDbEntity
  8
IMAGE
100
AcDbPolyline
 90
        3
 70
     0
 43
0.0188
 10
24.98092079957351
 20
9.044791904725496
 10
24.98092079957351
 20
9.125409495801211
 10
25.57026615818687
 20
9.125409495801211
  0
TEXT
  5
224
330
2
100
AcDbEntity
  8
IMAGE
100
AcDbText
 10
24.92940565822993
 20
8.609353304600482
 30
0.0
 40
0.125
  1
BLUE/WHITE
  7
ROMANS
100
AcDbText
  0
ARC
  5
225
330
2
100
AcDbEntity
  8
IMAGE
100
AcDbCircle
 10
24.93973398421242
 20
8.867884925006196
 30
0.0
 40
0.0389042956022208
100
AcDbArc
 50
188.4795072373393
 51
351.4553892836564
  0
LINE
  5
226
330
2
100
AcDbEntity
  8
IMAGE
100
AcDbLine
 10
24.87008640665326
 20
9.025621662814602
 30
0.0
 11
25.00956074830472
 21
9.025542422546577
 31
0.0
  0
LINE
  5
227
330
2
100
AcDbEntity
  8
IMAGE
100
AcDbLine
 10
24.8700973318997
 20
9.044851677978654
 30
0.0
 11
25.00957167355117
 21
9.044772437710635
 31
0.0
  0
LINE
  5
228
330
2
100
AcDbEntity
  8
IMAGE
100
AcDbLine
 10
24.20256894704472
 20
8.175758411654141
 30
0.0
 11
24.52970381276379
 21
8.175758411654141
 31
0.0
  0
LINE
  5
229
330
2
100
AcDbEntity
  8
IMAGE
100
AcDbLine
 10
24.64870381276378
 20
8.239508411654137
 30
0.0
 11
24.10750112335712
 21
8.239508411654144
 31
0.0
  0
LINE
  5
22A
330
2
100
AcDbEntity
  8
IMAGE
100
AcDbLine
 10
24.64870381276378
 20
8.282008411654141
 30
0.0
 11
24.09116911832374
 21
8.282008411654135
 31
0.0
  0
LINE
  5
22B
330
2
100
AcDbEntity
  8
IMAGE
100
AcDbLine
 10
24.10750112335712
 20
8.239508411654144
 30
0.0
 11
23.72004208178494
 21
8.239508411654137
 31
0.0
  0
LWPOLYLINE
  5
22C
330
2
100
AcDbEntity
  8
IMAGE
100
AcDbPolyline
 90
        2
 70
     0
 43
0.002125
 10
24.13798922631661
 20
8.175723942339477
 10
23.82717191638168
 20
8.17548277556073
  0
LWPOLYLINE
  5
22D
330
2
100
AcDbEntity
  8
IMAGE
100
AcDbPolyline
 90
        2
 70
     0
 43
0.002125
 10
24.18418591468354
 20
8.100549281299478
 10
24.18418591468354
 20
8.106875695711146
  0
LWPOLYLINE
  5
22E
330
2
100
AcDbEntity
  8
IMAGE
100
AcDbPolyline
 90
        3
 70
     0
 43
0.002125
 10
24.18418591468354
 20
8.106875695711146
 10
24.18418591468354
 20
8.175758411654141
 10
24.13798922631661
 20
8.175723942339477
  0
ARC
  5
22F
330
2
100
AcDbEntity
  8
IMAGE
100
AcDbCircle
 10
24.64870381276378
 20
8.175758411654141
 30
0.0
 40
0.06375
100
AcDbArc
 50
0.0
 51
90.0
  0
ARC
  5
230
330
2
100
AcDbEntity
  8
IMAGE
100
AcDbCircle
 10
24.64870381276378
 20
8.175758411654141
 30
0.0
 40
0.10625
100
AcDbArc
 50
0.0
 51
90.0
  0
LINE
  5
231
330
2
100
AcDbEntity
  8
IMAGE
100
AcDbLine
 10
24.87008640665326
 20
9.025621662814602
 30
0.0
 11
24.8700973318997
 21
9.044851677978654
 31
0.0
  0
LINE
  5
232
330
2
100
AcDbEntity
  8
IMAGE
100
AcDbLine
 10
24.88451473040602
 20
9.025613465577551
 30
0.0
 11
24.9012549644389
 21
8.862148266259657
 31
0.0
  0
LINE
  5
233
330
2
100
AcDbEntity
  8
IMAGE
100
AcDbLine
 10
24.94815015922028
 20
8.86722105708811
 30
0.0
 11
24.95386675762491
 21
9.02557406425714
 31
0.0
  0
LINE
  5
234
330
2
100
AcDbEntity
  8
IMAGE
100
AcDbLine
 10
24.91499999492161
 20
8.867239890859776
 30
0.0
 11
24.90271153873681
 21
9.025603127332162
 31
0.0
  0
LINE
  5
235
330
2
100
AcDbEntity
  8
IMAGE
100
AcDbLine
 10
24.93131706030458
 20
8.867230620562319
 30
0.0
 11
24.92578039733307
 21
9.025590021104045
 31
0.0
  0
LWPOLYLINE
  5
236
330
2
100
AcDbEntity
  8
IMAGE
100
AcDbPolyline
 90
        3
 70
     0
 10
26.20431666603188
 20
8.884300899160576
 40
0.0188
 41
0.0188
 10
26.20431666603188
 20
8.884300899160576
 40
0.0188
 41
0.0188
 10
26.20435962674722
 20
8.178129634476238
 40
0.0
 41
0.0
  0
LWPOLYLINE
  5
237
330
2
100
AcDbEntity
  8
IMAGE
100
AcDbPolyline
 90
        3
 70
     0
 10
26.11488712209953
 20
8.701872769063838
 40
0.0188
 41
0.0188
 10
26.11488712209953
 20
8.701872769063838
 40
0.0188
 41
0.0188
 10
26.11488712209953
 20
8.105327715032192
 40
0.0
 41
0.0
  0
LINE
  5
238
330
2
100
AcDbEntity
  8
IMAGE
100
AcDbLine
 10
25.00956074830472
 20
9.025542422546577
 30
0.0
 11
25.00957167355117
 21
9.044772437710635
 31
0.0
  0
LINE
  5
239
330
2
100
AcDbEntity
  8
IMAGE
100
AcDbLine
 10
24.96446722460326
 20
8.867211786790656
 30
0.0
 11
24.97693561622116
 21
9.02556095802902
 31
0.0
  0
LINE
  5
23A
330
2
100
AcDbEntity
  8
IMAGE
100
AcDbLine
 10
24.99513242455195
 20
9.025550619783635
 30
0.0
 11
24.97820646075342
 21
8.862104547414167
 31
0.0
  0
TEXT
  5
23B
330
2
100
AcDbEntity
  8
IMAGE
100
AcDbText
 10
24.73474739329596
 20
9.723776319022903
 30
0.0
 40
0.125
  1
RED
  7
ROMANS
100
AcDbText
  0
TEXT
  5
23C
330
2
100
AcDbEntity
  8
IMAGE
100
AcDbText
 10
24.53890126206792
 20
9.296238598265247
 30
0.0
 40
0.125
  1
BLUE
  7
ROMANS
100
AcDbText
  0
SOLID
  5
23D
330
2
100
AcDbEntity
  8
IMAGE
100
AcDbTrace
 10
23.84707791563741
 20
9.829209493052939
 30
0.0
 11
23.84707791563741
 21
9.75420949305294
 31
0.0
 12
24.07207791563741
 22
9.791709493052938
 32
0.0
 13
24.07207791563741
 23
9.791709493052938
 33
0.0
  0
LINE
  5
23E
330
2
100
AcDbEntity
  8
IMAGE
100
AcDbLine
 10
23.84707791563741
 20
9.791709493052938
 30
0.0
 11
23.62316782018278
 21
9.791709493052938
 31
0.0
  0
SOLID
  5
23F
330
2
100
AcDbEntity
  8
IMAGE
100
AcDbTrace
 10
24.51783402169393
 20
9.829209493052939
 30
0.0
 11
24.51783402169393
 21
9.75420949305294
 31
0.0
 12
24.29283402169392
 22
9.791709493052938
 32
0.0
 13
24.29283402169392
 23
9.791709493052938
 33
0.0
  0
LINE
  5
240
330
2
100
AcDbEntity
  8
IMAGE
100
AcDbLine
 10
24.51783402169393
 20
9.791709493052938
 30
0.0
 11
24.72475492710865
 21
9.791709493052938
 31
0.0
  0
LINE
  5
241
330
2
100
AcDbEntity
  8
IMAGE
100
AcDbLine
 10
25.18595962934829
 20
9.292952886609416
 30
0.0
 11
25.20288559314682
 21
9.45639895897888
 31
0.0
  0
LINE
  5
242
330
2
100
AcDbEntity
  8
IMAGE
100
AcDbLine
 10
25.29657732349423
 20
9.2928900408155
 30
0.0
 11
25.27983708946134
 21
9.45635524013339
 31
0.0
  0
LINE
  5
243
330
2
100
AcDbEntity
  8
IMAGE
100
AcDbLine
 10
25.24977499359566
 20
9.451272885830732
 30
0.0
 11
25.25531165656718
 21
9.292913485289005
 31
0.0
  0
LINE
  5
244
330
2
100
AcDbEntity
  8
IMAGE
100
AcDbLine
 10
25.26609205897864
 20
9.451263615533274
 30
0.0
 11
25.27838051516343
 21
9.292900379060888
 31
0.0
  0
LINE
  5
245
330
2
100
AcDbEntity
  8
IMAGE
100
AcDbLine
 10
25.21662482929698
 20
9.451291719602394
 30
0.0
 11
25.20415643767908
 21
9.292942548364031
 31
0.0
  0
LINE
  5
246
330
2
100
AcDbEntity
  8
IMAGE
100
AcDbLine
 10
25.23294189467996
 20
9.45128244930494
 30
0.0
 11
25.22722529627534
 21
9.29292944213591
 31
0.0
  0
LWPOLYLINE
  5
247
330
2
100
AcDbEntity
  8
IMAGE
100
AcDbPolyline
 90
        3
 70
     0
 10
25.60993911778234
 20
9.193049487352293
 40
0.0188
 41
0.0188
 10
25.28134554561951
 20
9.193049487352293
 40
0.0188
 41
0.0188
 10
25.28134554561951
 20
9.273667078428008
 40
0.0
 41
0.0
  0
LINE
  5
248
330
2
100
AcDbEntity
  8
IMAGE
100
AcDbLine
 10
25.31100564724699
 20
9.292881843578445
 30
0.0
 11
25.17153130559552
 21
9.292961083846474
 31
0.0
  0
LINE
  5
249
330
2
100
AcDbEntity
  8
IMAGE
100
AcDbLine
 10
25.31099472200054
 20
9.273651828414397
 30
0.0
 11
25.17152038034907
 21
9.273731068682415
 31
0.0
  0
LINE
  5
24A
330
2
100
AcDbEntity
  8
IMAGE
100
AcDbLine
 10
25.31100564724699
 20
9.292881843578445
 30
0.0
 11
25.31099472200054
 21
9.273651828414397
 31
0.0
  0
LINE
  5
24B
330
2
100
AcDbEntity
  8
IMAGE
100
AcDbLine
 10
25.17153130559552
 20
9.292961083846474
 30
0.0
 11
25.17152038034907
 21
9.273731068682415
 31
0.0
  0
ARC
  5
24C
330
2
100
AcDbEntity
  8
IMAGE
100
AcDbCircle
 10
25.24135806968782
 20
9.450618581386851
 30
0.0
 40
0.0389042956022208
100
AcDbArc
 50
8.479507237339326
 51
171.4553892836564
  0
TEXT
  5
24D
330
2
100
AcDbEntity
  8
IMAGE
100
AcDbText
 10
25.64962728605642
 20
9.296238598265247
 30
0.0
 40
0.125
  1
BLUE
  7
ROMANS
100
AcDbText
  0
LINE
  5
24E
330
2
100
AcDbEntity
  8
IMAGE
100
AcDbLine
 10
23.70065239610199
 20
10.34891961765
 30
0.0
 11
23.53881194351339
 21
10.34891961765
 31
0.0
  0
LWPOLYLINE
  5
24F
330
2
100
AcDbEntity
  8
IMAGE
100
AcDbPolyline
 90
        3
 70
     0
 43
0.01875
 10
24.02287277377036
 20
10.13852837180136
 10
24.02287277377036
 20
10.05791078072564
 10
21.87743491607438
 20
10.05791078072564
  0
LWPOLYLINE
  5
250
330
2
100
AcDbEntity
  8
IMAGE
100
AcDbPolyline
 90
        3
 70
     0
 43
0.01875
 10
24.24362887982688
 20
10.71942511441849
 10
24.24362887982688
 20
10.63880752334277
 10
21.87743491607438
 20
10.63880752334277
  0
LINE
  5
251
330
2
100
AcDbEntity
  8
IMAGE
100
AcDbLine
 10
22.01377673547037
 20
10.34891961765
 30
0.0
 11
22.18184183988592
 21
10.34891961765
 31
0.0
  0
SOLID
  5
252
330
2
100
AcDbEntity
  8
IMAGE
100
AcDbTrace
 10
22.05127673547036
 20
10.29392423525335
 30
0.0
 11
21.97627673547037
 21
10.29392423525335
 31
0.0
 12
22.01377673547037
 22
10.06892423525335
 32
0.0
 13
22.01377673547037
 23
10.06892423525335
 33
0.0
  0
LINE
  5
253
330
2
100
AcDbEntity
  8
IMAGE
100
AcDbLine
 10
22.01377673547037
 20
10.29392423525335
 30
0.0
 11
22.01377673547037
 21
10.34891961765
 31
0.0
  0
INSERT
  5
254
330
2
100
AcDbEntity
  8
IMAGE
100
AcDbBlockReference
  2
IDAEP
 10
21.87743491607438
 20
10.63880752334277
 30
0.0
 41
0.1875
 42
0.1875
 43
0.1875
  0
TEXT
  5
255
330
2
100
AcDbEntity
  8
IMAGE
100
AcDbText
 10
22.2306720629225
 20
10.38628006708122
 30
0.0
 40
0.125
  1
2 WIRE PATH
  7
ROMANS
100
AcDbText
  0
TEXT
  5
256
330
2
100
AcDbEntity
  8
IMAGE
100
AcDbText
 10
22.2306720629225
 20
10.1967373857543
 30
0.0
 40
0.125
  1
(SEE NOTE)
  7
ROMANS
100
AcDbText
  0
LWPOLYLINE
  5
257
330
2
100
AcDbEntity
  8
IMAGE
100
AcDbPolyline
 90
        3
 70
     0
 43
0.01875
 10
24.12128305750445
 20
10.13852837180136
 10
24.12128305750445
 20
10.05791078072564
 10
26.50851398952256
 20
10.05791078072564
  0
LWPOLYLINE
  5
258
330
2
100
AcDbEntity
  8
IMAGE
100
AcDbPolyline
 90
        3
 70
     0
 43
0.01875
 10
24.34203916356097
 20
10.71942511441849
 10
24.34203916356097
 20
10.63880752334277
 10
26.50851398952256
 20
10.63880752334277
  0
SOLID
  5
259
330
2
100
AcDbEntity
  8
IMAGE
100
AcDbTrace
 10
23.66315239610199
 20
10.39769291079231
 30
0.0
 11
23.73815239610199
 21
10.39769291079231
 31
0.0
 12
23.70065239610199
 22
10.62269291079231
 32
0.0
 13
23.70065239610199
 23
10.62269291079231
 33
0.0
  0
LINE
  5
25A
330
2
100
AcDbEntity
  8
IMAGE
100
AcDbLine
 10
24.06376225914256
 20
10.31614732772573
 30
0.0
 11
24.05804566073793
 21
10.1577943205567
 31
0.0
  0
LINE
  5
25B
330
2
100
AcDbEntity
  8
IMAGE
100
AcDbLine
 10
24.04744519375958
 20
10.31615659802318
 30
0.0
 11
24.03497680214168
 21
10.15780742678482
 31
0.0
  0
LINE
  5
25C
330
2
100
AcDbEntity
  8
IMAGE
100
AcDbLine
 10
24.09691242344123
 20
10.31612849395406
 30
0.0
 11
24.10920087962603
 21
10.15776525748167
 31
0.0
  0
LINE
  5
25D
330
2
100
AcDbEntity
  8
IMAGE
100
AcDbLine
 10
24.08059535805826
 20
10.31613776425152
 30
0.0
 11
24.08613202102977
 21
10.15777836370979
 31
0.0
  0
LINE
  5
25E
330
2
100
AcDbEntity
  8
IMAGE
100
AcDbLine
 10
24.12739768795682
 20
10.15775491923629
 30
0.0
 11
24.11065745392394
 21
10.32122011855418
 31
0.0
  0
LINE
  5
25F
330
2
100
AcDbEntity
  8
IMAGE
100
AcDbLine
 10
24.01677999381089
 20
10.1578177650302
 30
0.0
 11
24.03370595760942
 21
10.32126383739967
 31
0.0
  0
LINE
  5
260
330
2
100
AcDbEntity
  8
IMAGE
100
AcDbLine
 10
24.14182601170959
 20
10.15774672199923
 30
0.0
 11
24.14181508646314
 21
10.13851670683518
 31
0.0
  0
LINE
  5
261
330
2
100
AcDbEntity
  8
IMAGE
100
AcDbLine
 10
24.00235167005812
 20
10.15782596226726
 30
0.0
 11
24.00234074481167
 21
10.1385959471032
 31
0.0
  0
LINE
  5
262
330
2
100
AcDbEntity
  8
IMAGE
100
AcDbLine
 10
24.14182601170959
 20
10.15774672199923
 30
0.0
 11
24.00235167005812
 21
10.15782596226726
 31
0.0
  0
LINE
  5
263
330
2
100
AcDbEntity
  8
IMAGE
100
AcDbLine
 10
24.14181508646314
 20
10.13851670683518
 30
0.0
 11
24.00234074481167
 21
10.1385959471032
 31
0.0
  0
LINE
  5
264
330
2
100
AcDbEntity
  8
IMAGE
100
AcDbLine
 10
23.70065239610199
 20
10.39769291079231
 30
0.0
 11
23.70065239610199
 21
10.34891961765
 31
0.0
  0
ARC
  5
265
330
2
100
AcDbEntity
  8
IMAGE
100
AcDbCircle
 10
24.07217843415042
 20
10.31548345980764
 30
0.0
 40
0.0389042956022208
100
AcDbArc
 50
8.479507237339326
 51
171.4553892836564
  0
LINE
  5
266
330
2
100
AcDbEntity
  8
IMAGE
100
AcDbLine
 10
24.2682012998161
 20
10.89705334064031
 30
0.0
 11
24.25573290819819
 21
10.73870416940195
 31
0.0
  0
ARC
  5
267
330
2
100
AcDbEntity
  8
IMAGE
100
AcDbCircle
 10
24.29293454020693
 20
10.89638020242477
 30
0.0
 40
0.0389042956022208
100
AcDbArc
 50
8.479507237339326
 51
171.4553892836564
  0
LINE
  5
268
330
2
100
AcDbEntity
  8
IMAGE
100
AcDbLine
 10
24.36257119251965
 20
10.71941344945231
 30
0.0
 11
24.22309685086819
 21
10.71949268972033
 31
0.0
  0
LINE
  5
269
330
2
100
AcDbEntity
  8
IMAGE
100
AcDbLine
 10
24.3625821177661
 20
10.73864346461636
 30
0.0
 11
24.22310777611464
 21
10.73872270488439
 31
0.0
  0
LINE
  5
26A
330
2
100
AcDbEntity
  8
IMAGE
100
AcDbLine
 10
24.2375360998674
 20
10.73871450764733
 30
0.0
 11
24.25446206366593
 21
10.9021605800168
 31
0.0
  0
LINE
  5
26B
330
2
100
AcDbEntity
  8
IMAGE
100
AcDbLine
 10
24.22310777611464
 20
10.73872270488439
 30
0.0
 11
24.22309685086819
 21
10.71949268972033
 31
0.0
  0
LINE
  5
26C
330
2
100
AcDbEntity
  8
IMAGE
100
AcDbLine
 10
24.34815379401334
 20
10.73865166185342
 30
0.0
 11
24.33141355998045
 21
10.90211686117131
 31
0.0
  0
LINE
  5
26D
330
2
100
AcDbEntity
  8
IMAGE
100
AcDbLine
 10
24.30135146411477
 20
10.89703450686865
 30
0.0
 11
24.30688812708629
 21
10.73867510632692
 31
0.0
  0
LINE
  5
26E
330
2
100
AcDbEntity
  8
IMAGE
100
AcDbLine
 10
24.31766852949775
 20
10.89702523657119
 30
0.0
 11
24.32995698568254
 21
10.73866200009881
 31
0.0
  0
LINE
  5
26F
330
2
100
AcDbEntity
  8
IMAGE
100
AcDbLine
 10
24.28451836519907
 20
10.89704407034286
 30
0.0
 11
24.27880176679445
 21
10.73869106317383
 31
0.0
  0
LINE
  5
270
330
2
100
AcDbEntity
  8
IMAGE
100
AcDbLine
 10
24.3625821177661
 20
10.73864346461636
 30
0.0
 11
24.36257119251965
 21
10.71941344945231
 31
0.0
  0
TEXT
  5
271
330
2
100
AcDbEntity
  8
IMAGE
100
AcDbText
 10
25.49176792584639
 20
10.09841739766512
 30
0.0
 40
0.125
  1
BLACK
  7
ROMANS
100
AcDbText
  0
TEXT
  5
272
330
2
100
AcDbEntity
  8
IMAGE
100
AcDbText
 10
25.49176792584639
 20
10.68325313706896
 30
0.0
 40
0.125
  1
RED
  7
ROMANS
100
AcDbText
  0
INSERT
  5
273
330
2
100
AcDbEntity
  8
IMAGE
100
AcDbBlockReference
  2
IDAEP
 10
26.50851398952256
 20
10.63880752334277
 30
0.0
 41
0.1875
 42
0.1875
 43
0.1875
 50
180.0
  0
MTEXT
  5
274
330
2
100
AcDbEntity
  8
TEXT_BUBBLES
100
AcDbMText
 10
30.62300814892672
 20
11.73425762859033
 30
0.0
 40
0.1250000019
 41
3.7237
 71
     1
 72
     5
  3
RAIN BIRD PULSE DECODER SET FOR A CHANNEL (1 THRU 28) DEC-PUL\P\PRAIN BIRD ANEMOMETER WIND SPEED SENSOR ON POLE IN UNOBSTRUCTED AREA\P\PRAIN BIRD MODEL PT322 TRANSMITTER\P\PRAIN BIRD PTPWRSUPP POWER SUPPLY\P\PGREEN WIRE TO GROUND\P\PNOTE:\PUSE RAIN B
  1
IRD MSP-1 FOR PROPER SURGE PROTECTION.
  7
L100
 73
     2
 44
1.0
  0
INSERT
  5
276
330
2
100
AcDbEntity
  8
TEXT_BUBBLES
100
AcDbBlockReference
 66
     1
  2
bubble
 10
30.26838399053365
 20
9.577572493037209
 30
0.0
  0
ATTRIB
  5
277
330
276
100
AcDbEntity
  8
TEXT_BUBBLES
100
AcDbText
 10
30.20588399053365
 20
9.515072493037209
 30
0.0
 40
0.125
  1
4
  7
ROMANS
 72
     4
 11
30.26838399053365
 21
9.577572493037209
 31
0.0
100
AcDbAttribute
  2
XX
 70
     0
  0
SEQEND
  5
278
330
276
100
AcDbEntity
  8
TEXT_BUBBLES
  0
INSERT
  5
279
330
2
100
AcDbEntity
  8
TEXT_BUBBLES
100
AcDbBlockReference
 66
     1
  2
bubble
 10
30.26838399053365
 20
11.04878552171374
 30
0.0
  0
ATTRIB
  5
27A
330
279
100
AcDbEntity
  8
TEXT_BUBBLES
100
AcDbText
 10
30.20886018100984
 20
10.98628552171374
 30
0.0
 40
0.125
  1
2
  7
ROMANS
 72
     4
 11
30.26838399053365
 21
11.04878552171374
 31
0.0
100
AcDbAttribute
  2
XX
 70
     0
  0
SEQEND
  5
27B
330
279
100
AcDbEntity
  8
TEXT_BUBBLES
  0
INSERT
  5
27C
330
2
100
AcDbEntity
  8
TEXT_BUBBLES
100
AcDbBlockReference
 66
     1
  2
bubble
 10
30.26838399053365
 20
10.1974331256144
 30
0.0
  0
ATTRIB
  5
27D
330
27C
100
AcDbEntity
  8
TEXT_BUBBLES
100
AcDbText
 10
30.20886018100984
 20
10.1349331256144
 30
0.0
 40
0.125
  1
3
  7
ROMANS
 72
     4
 11
30.26838399053365
 21
10.1974331256144
 31
0.0
100
AcDbAttribute
  2
XX
 70
     0
  0
SEQEND
  5
27E
330
27C
100
AcDbEntity
  8
TEXT_BUBBLES
  0
INSERT
  5
27F
330
2
100
AcDbEntity
  8
TEXT_BUBBLES
100
AcDbBlockReference
 66
     1
  2
bubble
 10
30.26838399053365
 20
11.68457011510013
 30
0.0
  0
ATTRIB
  5
280
330
27F
100
AcDbEntity
  8
TEXT_BUBBLES
100
AcDbText
 10
30.21778875243841
 20
11.62207011510013
 30
0.0
 40
0.125
  1
1
  7
ROMANS
 72
     4
 11
30.26838399053365
 21
11.68457011510013
 31
0.0
100
AcDbAttribute
  2
XX
 70
     0
  0
SEQEND
  5
281
330
27F
100
AcDbEntity
  8
TEXT_BUBBLES
  0
CIRCLE
  5
2A8
330
2
100
AcDbEntity
  8
IMAGE
100
AcDbCircle
 10
22.66075937338155
 20
8.061000785150866
 30
0.0
 40
0.0286458333333333
  0
LWPOLYLINE
  5
2A9
330
2
100
AcDbEntity
  8
IMAGE
100
AcDbPolyline
 90
        5
 70
     0
 43
0.0
 10
22.65762623536072
 20
8.090318005317532
 10
22.67732024577739
 20
8.036607067817532
 10
22.66389251140239
 20
8.031683565213368
 10
22.64419850098572
 20
8.085394502713368
 10
22.65762623536072
 20
8.090318005317532
  0
LWPOLYLINE
  5
2AA
330
2
100
AcDbEntity
  8
IMAGE
100
AcDbPolyline
 90
        5
 70
     0
 43
0.0
 10
22.68940520671488
 20
8.096808076817536
 10
22.61779062338155
 20
8.096808076817536
 10
22.61779062338155
 20
8.0251934934842
 10
22.68940520671488
 20
8.0251934934842
 10
22.68940520671488
 20
8.096808076817536
  0
LWPOLYLINE
  5
2AB
330
2
100
AcDbEntity
  8
IMAGE
100
AcDbPolyline
 90
        4
 70
     0
 43
0.0
 10
22.61779062338155
 20
8.0896466184842
 10
22.57482187338155
 20
8.0896466184842
 10
22.56049895671488
 20
8.075323701817536
 10
22.55333749838155
 20
8.075323701817536
  0
LWPOLYLINE
  5
2AC
330
2
100
AcDbEntity
  8
IMAGE
100
AcDbPolyline
 90
        4
 70
     0
 43
0.0
 10
22.61779062338155
 20
8.032354951817536
 10
22.57482187338155
 20
8.032354951817536
 10
22.56049895671488
 20
8.0466778684842
 10
22.55333749838155
 20
8.0466778684842
  0
LWPOLYLINE
  5
2AD
330
2
100
AcDbEntity
  8
IMAGE
100
AcDbPolyline
 90
        9
 70
     0
 43
0.0
 10
22.55333749838155
 20
8.096808076817536
 10
22.55333749838155
 20
8.0251934934842
 10
22.51036874838155
 20
8.0251934934842
 10
22.44591562338155
 20
8.018032035150865
 10
22.38146249838155
 20
8.018032035150865
 10
22.38146249838155
 20
8.103969535150865
 10
22.44591562338155
 20
8.103969535150865
 10
22.51036874838155
 20
8.096808076817536
 10
22.55333749838155
 20
8.096808076817536
  0
LINE
  5
2AE
330
2
100
AcDbEntity
  8
IMAGE
100
AcDbLine
 10
22.42870937338155
 20
8.018032035150865
 30
0.0
 11
22.42870937338155
 21
7.987313454140966
 31
0.0
  0
LWPOLYLINE
  5
2AF
330
2
100
AcDbEntity
  8
IMAGE
100
AcDbPolyline
 90
        4
 70
     0
 43
0.01
 10
22.38146249838155
 20
8.061000785150866
 10
20.78169082910232
 20
8.061000785150866
 42
0.4634086362512573
 10
20.69855809047345
 20
7.962880926422264
 10
20.69855809047345
 20
6.716389892382461
  0
LINE
  5
2B0
330
2
100
AcDbEntity
  8
IMAGE
100
AcDbLine
 10
20.86311049363705
 20
6.716389892382461
 30
0.0
 11
20.53400568730985
 21
6.716389892382461
 31
0.0
  0
LINE
  5
2B1
330
2
100
AcDbEntity
  8
IMAGE
100
AcDbLine
 10
20.78831395045759
 20
6.631666923293326
 30
0.0
 11
20.69855809047345
 21
6.631666923293326
 31
0.0
  0
LINE
  5
2B2
330
2
100
AcDbEntity
  8
IMAGE
100
AcDbLine
 10
20.74215399227888
 20
6.562329920129887
 30
0.0
 11
20.69855809047345
 21
6.562329920129887
 31
0.0
  0
LINE
  5
2B3
330
2
100
AcDbEntity
  8
IMAGE
100
AcDbLine
 10
20.60880223048931
 20
6.631666923293326
 30
0.0
 11
20.69855809047345
 21
6.631666923293326
 31
0.0
  0
LINE
  5
2B4
330
2
100
AcDbEntity
  8
IMAGE
100
AcDbLine
 10
20.65496218866802
 20
6.562329920129887
 30
0.0
 11
20.69855809047345
 21
6.562329920129887
 31
0.0
  0
LINE
  5
2B5
330
2
100
AcDbEntity
  8
IMAGE
100
AcDbLine
 10
22.42935381276378
 20
8.018032035150865
 30
0.0
 11
22.42935381276378
 21
7.994121080644239
 31
0.0
  0
LINE
  5
2B7
330
2
100
AcDbEntity
  8
IMAGE
100
AcDbLine
 10
22.38685381276379
 20
8.018032035150865
 30
0.0
 11
22.38685381276379
 21
7.94422250590081
 31
0.0
  0
INSERT
  5
2B8
330
2
100
AcDbEntity
  8
TEXT_BUBBLES
100
AcDbBlockReference
 66
     1
  2
bubble
 10
30.26838399053365
 20
8.974805549303201
 30
0.0
  0
ATTRIB
  5
2B9
330
2B8
100
AcDbEntity
  8
TEXT_BUBBLES
100
AcDbText
 10
30.20886018100984
 20
8.912305549303201
 30
0.0
 40
0.125
  1
5
  7
ROMANS
 72
     4
 11
30.26838399053365
 21
8.974805549303201
 31
0.0
100
AcDbAttribute
  2
XX
 70
     0
  0
SEQEND
  5
2BA
330
2B8
100
AcDbEntity
  8
TEXT_BUBBLES
  0
INSERT
  5
2C3
330
2
100
AcDbEntity
  8
TITLE
100
AcDbBlockReference
  2
A$C0109281F
 10
21.05961553675732
 20
8.062548839674388
 30
0.0
  0
ENDSEC
  0
SECTION
  2
OBJECTS
  0
DICTIONARY
  5
7
330
0
100
AcDbDictionary
281
     1
  3
ACAD_GROUP
350
1F
  3
ACAD_LAYOUT
350
B
  3
ACAD_MLINESTYLE
350
20
  3
ACAD_PLOTSETTINGS
350
21
  3
ACAD_PLOTSTYLENAME
350
6
  3
AcDbVariableDictionary
350
285
  0
DICTIONARY
  5
295
330
10
100
AcDbDictionary
280
     1
281
     1
  3
ACAD_LAYERSTATES
360
296
  0
DICTIONARY
  5
1F
102
{ACAD_REACTORS
330
7
102
}
330
7
100
AcDbDictionary
281
     1
  0
DICTIONARY
  5
B
102
{ACAD_REACTORS
330
7
102
}
330
7
100
AcDbDictionary
281
     1
  3
Layout1
350
F
  3
Model
350
A
  0
DICTIONARY
  5
20
102
{ACAD_REACTORS
330
7
102
}
330
7
100
AcDbDictionary
281
     1
  3
Standard
350
24
  0
DICTIONARY
  5
21
102
{ACAD_REACTORS
330
7
102
}
330
7
100
AcDbDictionary
281
     1
  0
ACDBDICTIONARYWDFLT
  5
6
102
{ACAD_REACTORS
330
7
102
}
330
7
100
AcDbDictionary
281
     1
  3
Normal
350
5
100
AcDbDictionaryWithDefault
340
5
  0
DICTIONARY
  5
285
102
{ACAD_REACTORS
330
7
102
}
330
7
100
AcDbDictionary
281
     1
  3
DIMASSOC
350
287
  3
HIDETEXT
350
286
  3
SORTENTS
350
2CC
  0
DICTIONARY
  5
296
102
{ACAD_REACTORS
330
295
102
}
330
295
100
AcDbDictionary
281
     1
  0
LAYOUT
  5
F
102
{ACAD_REACTORS
330
B
102
}
330
B
100
AcDbPlotSettings
  1

  2
S:\AutoCAD 2002\Plotters\1055ColorDraftShaded.pc3
  4

  6

 40
0.0
 41
0.0
 42
0.0
 43
0.0
 44
0.0
 45
0.0
 46
0.0
 47
0.0
 48
0.0
 49
0.0
140
0.0
141
0.0
142
1.0
143
1.0
 70
   688
 72
     0
 73
     0
 74
     5
  7
Black&White.ctb
 75
    16
147
1.0
148
0.0
149
0.0
100
AcDbLayout
  1
Layout1
 70
     0
 71
     1
 10
0.0
 20
0.0
 11
12.0
 21
9.0
 12
0.0
 22
0.0
 32
0.0
 14
1.000000000000000E+20
 24
1.000000000000000E+20
 34
1.000000000000000E+20
 15
-1.000000000000000E+20
 25
-1.000000000000000E+20
 35
-1.000000000000000E+20
146
0.0
 13
0.0
 23
0.0
 33
0.0
 16
1.0
 26
0.0
 36
0.0
 17
0.0
 27
1.0
 37
0.0
 76
     0
330
C
  0
LAYOUT
  5
A
102
{ACAD_REACTORS
330
B
102
}
330
B
100
AcDbPlotSettings
  1

  2
8500ColorShaded.pc3
  4
11x17
  6
PS1
 40
5.027083396911621
 41
5.027085304260253
 42
5.027099609375
 43
5.027069091796875
 44
279.3999938964843
 45
431.7999877929687
 46
0.0
 47
0.0
 48
180360.0524337165
 49
80033.77936194791
140
180369.1574725906
141
80037.61796031875
142
1.0
143
1.0
 70
 11952
 72
     0
 73
     1
 74
     3
  7
8500ColorShaded.ctb
 75
    16
147
1.0
148
-522.9361184461601
149
-46.29653527114128
100
AcDbLayout
  1
Model
 70
     1
 71
     0
 10
0.0
 20
0.0
 11
12.0
 21
9.0
 12
0.0
 22
0.0
 32
0.0
 14
0.0
 24
0.0
 34
0.0
 15
0.0
 25
0.0
 35
0.0
146
0.0
 13
0.0
 23
0.0
 33
0.0
 16
1.0
 26
0.0
 36
0.0
 17
0.0
 27
1.0
 37
0.0
 76
     0
330
2
  0
MLINESTYLE
  5
24
102
{ACAD_REACTORS
330
20
102
}
330
20
100
AcDbMlineStyle
  2
STANDARD
 70
     0
  3

 62
   256
 51
90.0
 52
90.0
 71
     2
 49
0.5
 62
   256
  6
BYLAYER
 49
-0.5
 62
   256
  6
BYLAYER
  0
ACDBPLACEHOLDER
  5
5
102
{ACAD_REACTORS
330
6
102
}
330
6
  0
DICTIONARYVAR
  5
287
102
{ACAD_REACTORS
330
285
102
}
330
285
100
DictionaryVariables
280
     0
  1
1
  0
DICTIONARYVAR
  5
286
102
{ACAD_REACTORS
330
285
102
}
330
285
100
DictionaryVariables
280
     0
  1
1
  0
DICTIONARYVAR
  5
2CC
102
{ACAD_REACTORS
330
285
102
}
330
285
100
DictionaryVariables
280
     0
  1
1
  0
ENDSEC
  0
EOF
