  0
SECTION
  2
HEADER
  9
$ACADVER
  1
AC1015
  9
$ACADMAINTVER
 70
    13
  9
$DWGCODEPAGE
  3
ANSI_1252
  9
$INSBASE
 10
0.0
 20
0.0
 30
0.0
  9
$EXTMIN
 10
0.0
 20
0.0
 30
0.0
  9
$EXTMAX
 10
16.48999999999999
 20
10.44
 30
0.03
  9
$LIMMIN
 10
0.0
 20
0.0
  9
$LIMMAX
 10
12.0
 20
9.0
  9
$ORTHOMODE
 70
     1
  9
$REGENMODE
 70
     1
  9
$FILLMODE
 70
     1
  9
$QTEXTMODE
 70
     0
  9
$MIRRTEXT
 70
     0
  9
$LTSCALE
 40
1.0
  9
$ATTMODE
 70
     1
  9
$TEXTSIZE
 40
0.1
  9
$TRACEWID
 40
0.05
  9
$TEXTSTYLE
  7
SIMPLEX
  9
$CLAYER
  8
IMAGE
  9
$CELTYPE
  6
ByLayer
  9
$CECOLOR
 62
   256
  9
$CELTSCALE
 40
1.0
  9
$DISPSILH
 70
     0
  9
$DIMSCALE
 40
1.0
  9
$DIMASZ
 40
0.18
  9
$DIMEXO
 40
0.0625
  9
$DIMDLI
 40
0.38
  9
$DIMRND
 40
0.0
  9
$DIMDLE
 40
0.0
  9
$DIMEXE
 40
0.18
  9
$DIMTP
 40
0.0
  9
$DIMTM
 40
0.0
  9
$DIMTXT
 40
0.18
  9
$DIMCEN
 40
0.09
  9
$DIMTSZ
 40
0.0
  9
$DIMTOL
 70
     0
  9
$DIMLIM
 70
     0
  9
$DIMTIH
 70
     1
  9
$DIMTOH
 70
     1
  9
$DIMSE1
 70
     0
  9
$DIMSE2
 70
     0
  9
$DIMTAD
 70
     0
  9
$DIMZIN
 70
     0
  9
$DIMBLK
  1

  9
$DIMASO
 70
     1
  9
$DIMSHO
 70
     1
  9
$DIMPOST
  1

  9
$DIMAPOST
  1

  9
$DIMALT
 70
     0
  9
$DIMALTD
 70
     2
  9
$DIMALTF
 40
25.4
  9
$DIMLFAC
 40
1.0
  9
$DIMTOFL
 70
     0
  9
$DIMTVP
 40
0.0
  9
$DIMTIX
 70
     0
  9
$DIMSOXD
 70
     0
  9
$DIMSAH
 70
     0
  9
$DIMBLK1
  1

  9
$DIMBLK2
  1

  9
$DIMSTYLE
  2
Standard
  9
$DIMCLRD
 70
     0
  9
$DIMCLRE
 70
     0
  9
$DIMCLRT
 70
     0
  9
$DIMTFAC
 40
1.0
  9
$DIMGAP
 40
0.09
  9
$DIMJUST
 70
     0
  9
$DIMSD1
 70
     0
  9
$DIMSD2
 70
     0
  9
$DIMTOLJ
 70
     1
  9
$DIMTZIN
 70
     0
  9
$DIMALTZ
 70
     0
  9
$DIMALTTZ
 70
     0
  9
$DIMUPT
 70
     0
  9
$DIMDEC
 70
     4
  9
$DIMTDEC
 70
     4
  9
$DIMALTU
 70
     2
  9
$DIMALTTD
 70
     2
  9
$DIMTXSTY
  7
STANDARD
  9
$DIMAUNIT
 70
     0
  9
$DIMADEC
 70
     0
  9
$DIMALTRND
 40
0.0
  9
$DIMAZIN
 70
     0
  9
$DIMDSEP
 70
    46
  9
$DIMATFIT
 70
     3
  9
$DIMFRAC
 70
     0
  9
$DIMLDRBLK
  1

  9
$DIMLUNIT
 70
     2
  9
$DIMLWD
 70
    -2
  9
$DIMLWE
 70
    -2
  9
$DIMTMOVE
 70
     2
  9
$LUNITS
 70
     2
  9
$LUPREC
 70
     4
  9
$SKETCHINC
 40
0.1
  9
$FILLETRAD
 40
0.0
  9
$AUNITS
 70
     0
  9
$AUPREC
 70
     0
  9
$MENU
  1
ACAD
  9
$ELEVATION
 40
0.0
  9
$PELEVATION
 40
0.0
  9
$THICKNESS
 40
0.0
  9
$LIMCHECK
 70
     0
  9
$CHAMFERA
 40
0.0
  9
$CHAMFERB
 40
0.0
  9
$CHAMFERC
 40
0.0
  9
$CHAMFERD
 40
0.0
  9
$SKPOLY
 70
     0
  9
$TDCREATE
 40
2449623.385097569
  9
$TDUCREATE
 40
2449623.676764236
  9
$TDUPDATE
 40
2453019.457850474
  9
$TDUUPDATE
 40
2453019.749517141
  9
$TDINDWG
 40
0.3208061921
  9
$TDUSRTIMER
 40
0.3208061921
  9
$USRTIMER
 70
     1
  9
$ANGBASE
 50
0.0
  9
$ANGDIR
 70
     0
  9
$PDMODE
 70
     0
  9
$PDSIZE
 40
0.0
  9
$PLINEWID
 40
0.0
  9
$SPLFRAME
 70
     0
  9
$SPLINETYPE
 70
     6
  9
$SPLINESEGS
 70
     8
  9
$HANDSEED
  5
5F2
  9
$SURFTAB1
 70
     6
  9
$SURFTAB2
 70
     6
  9
$SURFTYPE
 70
     6
  9
$SURFU
 70
     6
  9
$SURFV
 70
     6
  9
$UCSBASE
  2

  9
$UCSNAME
  2

  9
$UCSORG
 10
0.0
 20
0.0
 30
0.0
  9
$UCSXDIR
 10
1.0
 20
0.0
 30
0.0
  9
$UCSYDIR
 10
0.0
 20
1.0
 30
0.0
  9
$UCSORTHOREF
  2

  9
$UCSORTHOVIEW
 70
     0
  9
$UCSORGTOP
 10
0.0
 20
0.0
 30
0.0
  9
$UCSORGBOTTOM
 10
0.0
 20
0.0
 30
0.0
  9
$UCSORGLEFT
 10
0.0
 20
0.0
 30
0.0
  9
$UCSORGRIGHT
 10
0.0
 20
0.0
 30
0.0
  9
$UCSORGFRONT
 10
0.0
 20
0.0
 30
0.0
  9
$UCSORGBACK
 10
0.0
 20
0.0
 30
0.0
  9
$PUCSBASE
  2

  9
$PUCSNAME
  2

  9
$PUCSORG
 10
0.0
 20
0.0
 30
0.0
  9
$PUCSXDIR
 10
1.0
 20
0.0
 30
0.0
  9
$PUCSYDIR
 10
0.0
 20
1.0
 30
0.0
  9
$PUCSORTHOREF
  2

  9
$PUCSORTHOVIEW
 70
     0
  9
$PUCSORGTOP
 10
0.0
 20
0.0
 30
0.0
  9
$PUCSORGBOTTOM
 10
0.0
 20
0.0
 30
0.0
  9
$PUCSORGLEFT
 10
0.0
 20
0.0
 30
0.0
  9
$PUCSORGRIGHT
 10
0.0
 20
0.0
 30
0.0
  9
$PUCSORGFRONT
 10
0.0
 20
0.0
 30
0.0
  9
$PUCSORGBACK
 10
0.0
 20
0.0
 30
0.0
  9
$USERI1
 70
     0
  9
$USERI2
 70
     0
  9
$USERI3
 70
     0
  9
$USERI4
 70
     0
  9
$USERI5
 70
     0
  9
$USERR1
 40
0.0
  9
$USERR2
 40
0.0
  9
$USERR3
 40
0.0
  9
$USERR4
 40
0.0
  9
$USERR5
 40
0.0
  9
$WORLDVIEW
 70
     1
  9
$SHADEDGE
 70
     3
  9
$SHADEDIF
 70
    70
  9
$TILEMODE
 70
     1
  9
$MAXACTVP
 70
    16
  9
$PINSBASE
 10
0.0
 20
0.0
 30
0.0
  9
$PLIMCHECK
 70
     0
  9
$PEXTMIN
 10
1.000000000000000E+20
 20
1.000000000000000E+20
 30
1.000000000000000E+20
  9
$PEXTMAX
 10
-1.000000000000000E+20
 20
-1.000000000000000E+20
 30
-1.000000000000000E+20
  9
$PLIMMIN
 10
0.0
 20
0.0
  9
$PLIMMAX
 10
12.0
 20
9.0
  9
$UNITMODE
 70
     0
  9
$VISRETAIN
 70
     0
  9
$PLINEGEN
 70
     1
  9
$PSLTSCALE
 70
     1
  9
$TREEDEPTH
 70
  3020
  9
$CMLSTYLE
  2
Standard
  9
$CMLJUST
 70
     0
  9
$CMLSCALE
 40
1.0
  9
$PROXYGRAPHICS
 70
     1
  9
$MEASUREMENT
 70
     0
  9
$CELWEIGHT
370
    -1
  9
$ENDCAPS
280
     0
  9
$JOINSTYLE
280
     0
  9
$LWDISPLAY
290
     0
  9
$INSUNITS
 70
     0
  9
$HYPERLINKBASE
  1

  9
$STYLESHEET
  1
Color.ctb
  9
$XEDIT
290
     1
  9
$CEPSNTYPE
380
     0
  9
$PSTYLEMODE
290
     1
  9
$FINGERPRINTGUID
  2
{5B09C9E7-8174-4CFF-9F5B-C4C209DED8F7}
  9
$VERSIONGUID
  2
{B8E1A9C0-DE24-4B28-8C55-194EEF4701FB}
  9
$EXTNAMES
290
     1
  9
$PSVPSCALE
 40
0.0
  9
$OLESTARTUP
290
     0
  0
ENDSEC
  0
SECTION
  2
CLASSES
  0
CLASS
  1
ACDBDICTIONARYWDFLT
  2
AcDbDictionaryWithDefault
  3
AutoCAD 2000
 90
        0
280
     0
281
     0
  0
CLASS
  1
ACDBPLACEHOLDER
  2
AcDbPlaceHolder
  3
AutoCAD 2000
 90
        0
280
     0
281
     0
  0
CLASS
  1
LAYOUT
  2
AcDbLayout
  3
AutoCAD 2000
 90
        0
280
     0
281
     0
  0
CLASS
  1
DICTIONARYVAR
  2
AcDbDictionaryVar
  3
AutoCAD 2000
 90
        0
280
     0
281
     0
  0
ENDSEC
  0
SECTION
  2
TABLES
  0
TABLE
  2
VPORT
  5
8
330
0
100
AcDbSymbolTable
 70
     2
  0
VPORT
  5
5F1
330
8
100
AcDbSymbolTableRecord
100
AcDbViewportTableRecord
  2
*Active
 70
     0
 10
0.0
 20
0.0
 11
1.0
 21
1.0
 12
8.245000076789889
 22
5.22000004861652
 13
0.0
 23
0.0
 14
0.14
 24
0.14
 15
0.14
 25
0.14
 16
0.0
 26
0.0
 36
1.0
 17
0.0
 27
0.0
 37
0.0
 40
11.02100795646245
 41
1.505548705302096
 42
50.0
 43
0.0
 44
0.0
 50
0.0
 51
0.0
 71
     0
 72
  5000
 73
     1
 74
     1
 75
     0
 76
     0
 77
     0
 78
     0
281
     0
 65
     1
110
0.0
120
0.0
130
0.0
111
1.0
121
0.0
131
0.0
112
0.0
122
1.0
132
0.0
 79
     0
146
0.0
  0
ENDTAB
  0
TABLE
  2
LTYPE
  5
5
330
0
100
AcDbSymbolTable
 70
     1
  0
LTYPE
  5
13
330
5
100
AcDbSymbolTableRecord
100
AcDbLinetypeTableRecord
  2
ByBlock
 70
     0
  3

 72
    65
 73
     0
 40
0.0
  0
LTYPE
  5
14
330
5
100
AcDbSymbolTableRecord
100
AcDbLinetypeTableRecord
  2
ByLayer
 70
     0
  3

 72
    65
 73
     0
 40
0.0
  0
LTYPE
  5
15
330
5
100
AcDbSymbolTableRecord
100
AcDbLinetypeTableRecord
  2
CONTINUOUS
 70
     0
  3
Solid line
 72
    65
 73
     0
 40
0.0
  0
ENDTAB
  0
TABLE
  2
LAYER
  5
2
330
0
100
AcDbSymbolTable
 70
     7
  0
LAYER
  5
10
330
2
100
AcDbSymbolTableRecord
100
AcDbLayerTableRecord
  2
0
 70
     0
 62
     7
  6
CONTINUOUS
370
    -3
390
F
  0
LAYER
  5
2A
330
2
100
AcDbSymbolTableRecord
100
AcDbLayerTableRecord
  2
TEXT_BUBBLES
 70
     0
 62
     6
  6
CONTINUOUS
370
    -3
390
F
  0
LAYER
  5
2B
330
2
100
AcDbSymbolTableRecord
100
AcDbLayerTableRecord
  2
IMAGE
 70
     0
 62
     7
  6
CONTINUOUS
370
    -3
390
F
  0
LAYER
  5
2C
330
2
100
AcDbSymbolTableRecord
100
AcDbLayerTableRecord
  2
BORDER
 70
     0
 62
     4
  6
CONTINUOUS
370
    -3
390
F
  0
LAYER
  5
2E
330
2
100
AcDbSymbolTableRecord
100
AcDbLayerTableRecord
  2
TEXT_LEADERS
 70
     0
 62
    -5
  6
CONTINUOUS
370
    -3
390
F
  0
LAYER
  5
30
330
2
100
AcDbSymbolTableRecord
100
AcDbLayerTableRecord
  2
INSTRUCT-CALLOUT
 70
     0
 62
     4
  6
CONTINUOUS
370
    -3
390
F
  0
LAYER
  5
522
330
2
100
AcDbSymbolTableRecord
100
AcDbLayerTableRecord
  2
TITLE
 70
     0
 62
     4
  6
CONTINUOUS
370
    -3
390
F
  0
ENDTAB
  0
TABLE
  2
STYLE
  5
3
330
0
100
AcDbSymbolTable
 70
     6
  0
STYLE
  5
11
330
3
100
AcDbSymbolTableRecord
100
AcDbTextStyleTableRecord
  2
STANDARD
 70
     0
 40
0.0
 41
1.0
 50
0.0
 71
     0
 42
0.2
  3
txt
  4

  0
STYLE
  5
24
330
3
100
AcDbSymbolTableRecord
100
AcDbTextStyleTableRecord
  2
ROMANS
 70
     0
 40
0.0
 41
1.0
 50
0.0
 71
     0
 42
0.1
  3
ROMANS.SHX
  4

  0
STYLE
  5
25
330
3
100
AcDbSymbolTableRecord
100
AcDbTextStyleTableRecord
  2
SIMPLEX
 70
     0
 40
0.0
 41
1.0
 50
0.0
 71
     0
 42
0.1
  3
SIMPLEX
  4

  0
STYLE
  5
523
330
3
100
AcDbSymbolTableRecord
100
AcDbTextStyleTableRecord
  2
L100
 70
     0
 40
0.1
 41
1.0
 50
0.0
 71
     0
 42
0.1
  3
romans.shx
  4

  0
STYLE
  5
524
330
3
100
AcDbSymbolTableRecord
100
AcDbTextStyleTableRecord
  2
L200
 70
     0
 40
0.2
 41
1.0
 50
0.0
 71
     0
 42
0.081
  3
ARIAL.TTF
  4

1001
ACAD
1000
Arial
1071
       34
  0
STYLE
  5
525
330
3
100
AcDbSymbolTableRecord
100
AcDbTextStyleTableRecord
  2
L80
 70
     0
 40
0.08
 41
1.0
 50
0.0
 71
     0
 42
0.08
  3
ROMANS
  4

  0
ENDTAB
  0
TABLE
  2
VIEW
  5
6
330
0
100
AcDbSymbolTable
 70
     0
  0
ENDTAB
  0
TABLE
  2
UCS
  5
7
330
0
100
AcDbSymbolTable
 70
     0
  0
ENDTAB
  0
TABLE
  2
APPID
  5
9
330
0
100
AcDbSymbolTable
 70
     3
  0
APPID
  5
12
330
9
100
AcDbSymbolTableRecord
100
AcDbRegAppTableRecord
  2
ACAD
 70
     0
  0
APPID
  5
526
330
9
100
AcDbSymbolTableRecord
100
AcDbRegAppTableRecord
  2
RAK
 70
     0
  0
APPID
  5
527
330
9
100
AcDbSymbolTableRecord
100
AcDbRegAppTableRecord
  2
DCO15
 70
     0
  0
ENDTAB
  0
TABLE
  2
DIMSTYLE
  5
A
330
0
100
AcDbSymbolTable
 70
     1
100
AcDbDimStyleTable
 71
     0
  0
DIMSTYLE
105
516
330
A
100
AcDbSymbolTableRecord
100
AcDbDimStyleTableRecord
  2
Standard
 70
     0
340
11
  0
ENDTAB
  0
TABLE
  2
BLOCK_RECORD
  5
1
330
0
100
AcDbSymbolTable
 70
     1
  0
BLOCK_RECORD
  5
1E
330
1
100
AcDbSymbolTableRecord
100
AcDbBlockTableRecord
  2
*Model_Space
340
21
  0
BLOCK_RECORD
  5
1A
330
1
100
AcDbSymbolTableRecord
100
AcDbBlockTableRecord
  2
*Paper_Space
340
1D
  0
BLOCK_RECORD
  5
528
330
1
100
AcDbSymbolTableRecord
100
AcDbBlockTableRecord
  2
titleblock
340
0
102
{BLKREFS
331
537
102
}
  0
ENDTAB
  0
ENDSEC
  0
SECTION
  2
BLOCKS
  0
BLOCK
  5
34
330
1E
100
AcDbEntity
  8
0
100
AcDbBlockBegin
  2
*Model_Space
 70
     0
 10
0.0
 20
0.0
 30
0.0
  3
*Model_Space
  1

  0
ENDBLK
  5
35
330
1E
100
AcDbEntity
  8
0
100
AcDbBlockEnd
  0
BLOCK
  5
32
330
1A
100
AcDbEntity
 67
     1
  8
0
100
AcDbBlockBegin
  2
*Paper_Space
 70
     0
 10
0.0
 20
0.0
 30
0.0
  3
*Paper_Space
  1

  0
ENDBLK
  5
33
330
1A
100
AcDbEntity
 67
     1
  8
0
100
AcDbBlockEnd
  0
BLOCK
  5
534
330
528
100
AcDbEntity
  8
0
100
AcDbBlockBegin
  2
titleblock
 70
     2
 10
0.0
 20
0.0
 30
0.0
  3
titleblock
  1

  0
LWPOLYLINE
  5
529
330
528
100
AcDbEntity
  8
IMAGE
100
AcDbPolyline
 90
        4
 70
     1
 43
0.0
 10
0.0
 20
0.0
 10
16.48999999999999
 20
0.0000000000000001
 10
16.48999999999999
 20
10.44
 10
0.0
 20
10.44
  0
ATTDEF
  5
52A
330
528
100
AcDbEntity
  8
TITLE
100
AcDbText
 10
0.5055556038023421
 20
0.7842270964783673
 30
0.0
 40
0.2
  1
D
  7
L200
 72
     4
 11
0.6064423705144839
 21
0.8842270964783672
 31
0.0
100
AcDbAttributeDefinition
  3
#
  2
D
 70
     0
  0
ATTDEF
  5
52B
330
528
100
AcDbEntity
  8
TITLE
100
AcDbText
 10
1.231442370514484
 20
1.34371230274675
 30
0.0
 40
0.2
  1

  7
L200
100
AcDbAttributeDefinition
  3
DETAIL TITLE TOP LINE
  2
TITLE1
 70
     0
  0
ATTDEF
  5
52C
330
528
100
AcDbEntity
  8
TITLE
100
AcDbText
 10
1.231442370514484
 20
0.9842270964783674
 30
0.0
 40
0.2
  1
TITLE
  7
L200
100
AcDbAttributeDefinition
  3
DETAIL TITLE TOP 2ND LINE
  2
TITLE2
 70
     0
  0
ATTDEF
  5
52D
330
528
100
AcDbEntity
  8
TITLE
100
AcDbText
 10
2.713645751168312
 20
0.5927927664583189
 30
0.0
 40
0.2
  1
TITLE2
  7
L200
100
AcDbAttributeDefinition
  3
DETAIL TITLE BOTTOM 1
  2
TITLE3
 70
     0
  0
ATTDEF
  5
52E
330
528
100
AcDbEntity
  8
TITLE
100
AcDbText
 10
2.713645751168312
 20
0.2692560808167741
 30
0.0
 40
0.2
  1

  7
L200
100
AcDbAttributeDefinition
  3
DETAIL TITLE BOTTOM 2
  2
TITLE4
 70
     0
  0
ATTDEF
  5
52F
330
528
100
AcDbEntity
  8
TITLE
 62
     7
100
AcDbText
 10
8.177214829966379
 20
0.9696027915446398
 30
0.0
 40
0.08
  1
-
  7
L80
 72
     2
 11
8.261024353775903
 21
0.9696027915446398
 31
0.0
100
AcDbAttributeDefinition
  3
REVISION DATE
  2
REVISED
 70
     0
  0
ATTDEF
  5
530
330
528
100
AcDbEntity
  8
TITLE
 62
     7
100
AcDbText
 10
0.2639423705144838
 20
0.0847116480207214
 30
0.0
 40
0.08
  1
-
  7
L80
100
AcDbAttributeDefinition
  3
DWG-NAME
  2
DWG-NAME
 70
     0
  0
LWPOLYLINE
  5
531
330
528
100
AcDbEntity
  8
TITLE
 62
     3
100
AcDbPolyline
 90
        2
 70
     1
 43
0.03
 10
0.6064423705144839
 20
0.5417270964783675
 42
0.9999999999999998
 10
0.6064423705144839
 20
1.226727096478367
 42
0.9999999999999998
  0
ATTDEF
  5
532
330
528
100
AcDbEntity
  8
TITLE
 62
     7
100
AcDbText
 10
1.231442370514484
 20
0.7005637793954894
 30
0.0
 40
0.1
  1
N.T.S.
  7
L100
100
AcDbAttributeDefinition
  3
SCALE
  2
SCALE
 70
     0
  0
LWPOLYLINE
  5
533
330
528
100
AcDbEntity
  8
TITLE
 62
     3
100
AcDbPolyline
 90
        2
 70
     0
 43
0.04
 39
0.03
 10
0.9489423705144833
 20
0.8842270964783672
 10
8.261024353775903
 20
0.8842270964783672
  0
ENDBLK
  5
535
330
528
100
AcDbEntity
  8
0
100
AcDbBlockEnd
  0
ENDSEC
  0
SECTION
  2
ENTITIES
  0
TEXT
  5
D3
330
1E
100
AcDbEntity
  8
TEXT_BUBBLES
100
AcDbText
 10
6.004250242940461
 20
8.04581358910115
 30
0.0
 40
0.125
  1
1
  7
ROMANS
 72
     4
 11
6.054845481035699
 21
8.10831358910115
 31
0.0
100
AcDbText
  0
LWPOLYLINE
  5
D6
330
1E
100
AcDbEntity
  8
IMAGE
100
AcDbPolyline
 90
        2
 70
     0
 43
0.0
 10
2.35128185965488
 20
6.490294162055627
 10
2.538661298550847
 20
6.490294162055627
  0
LINE
  5
DA
330
1E
100
AcDbEntity
  8
IMAGE
100
AcDbLine
 10
2.335461184074549
 20
6.464883350486382
 30
0.0
 11
2.554855087240273
 21
6.464883350486382
 31
0.0
  0
LINE
  5
DB
330
1E
100
AcDbEntity
  8
IMAGE
100
AcDbLine
 10
2.554855087240273
 20
6.517099464822272
 30
0.0
 11
2.554855087240271
 21
5.750742670490549
 31
0.0
  0
LINE
  5
DC
330
1E
100
AcDbEntity
  8
IMAGE
100
AcDbLine
 10
2.335461184074549
 20
6.517099464822272
 30
0.0
 11
2.335461184074548
 21
5.750742670490549
 31
0.0
  0
LWPOLYLINE
  5
DD
330
1E
100
AcDbEntity
  8
IMAGE
100
AcDbPolyline
 90
        2
 70
     0
 43
0.0
 10
2.811591818783318
 20
4.666485301455851
 10
2.772780889908206
 20
4.483169274003754
  0
LINE
  5
E1
330
1E
100
AcDbEntity
  8
IMAGE
100
AcDbLine
 10
2.839662206717527
 20
4.676575959320923
 30
0.0
 11
2.794220288321533
 21
4.461939716345083
 31
0.0
  0
LINE
  5
E2
330
1E
100
AcDbEntity
  8
IMAGE
100
AcDbLine
 10
4.109239823615574
 20
4.407112957768104
 30
0.0
 11
4.063797905219578
 21
4.192476714792267
 31
0.0
  0
LWPOLYLINE
  5
E3
330
1E
100
AcDbEntity
  8
IMAGE
100
AcDbPolyline
 90
        2
 70
     0
 43
0.0
 10
4.131320588416516
 20
4.386220327326068
 10
4.092509659541404
 20
4.202904299873971
  0
LWPOLYLINE
  5
E7
330
1E
100
AcDbEntity
  8
IMAGE
100
AcDbPolyline
 90
        2
 70
     0
 43
0.0
 10
2.35128185965488
 20
4.8831514560659
 10
2.538661298550847
 20
4.8831514560659
  0
LINE
  5
EB
330
1E
100
AcDbEntity
  8
IMAGE
100
AcDbLine
 10
2.335461184074549
 20
4.910177138629598
 30
0.0
 11
2.554855087240273
 21
4.910177138629598
 31
0.0
  0
TEXT
  5
EC
330
1E
100
AcDbEntity
  8
TEXT_BUBBLES
100
AcDbText
 10
6.326663212346389
 20
4.376349354675395
 30
0.0
 40
0.125
  1
  (LENGTH AS REQUIRED)
  7
SIMPLEX
100
AcDbText
  0
TEXT
  5
EE
330
1E
100
AcDbEntity
  8
TEXT_BUBBLES
100
AcDbText
 10
6.326663212346389
 20
4.901349354675395
 30
0.0
 40
0.125
  1
PVC SCH 40 STREET ELL
  7
SIMPLEX
100
AcDbText
  0
TEXT
  5
EF
330
1E
100
AcDbEntity
  8
TEXT_BUBBLES
100
AcDbText
 10
6.326663212346389
 20
4.551349354675395
 30
0.0
 40
0.125
  1
PVC SCH 80 NIPPLE
  7
SIMPLEX
100
AcDbText
  0
TEXT
  5
F0
330
1E
100
AcDbEntity
  8
TEXT_BUBBLES
100
AcDbText
 10
6.326663212346389
 20
4.026349354675395
 30
0.0
 40
0.125
  1
PVC SCH 40 TEE OR ELL
  7
SIMPLEX
100
AcDbText
  0
TEXT
  5
F1
330
1E
100
AcDbEntity
  8
TEXT_BUBBLES
100
AcDbText
 10
6.326663212346389
 20
3.676349354675395
 30
0.0
 40
0.125
  1
PVC LATERAL PIPE
  7
SIMPLEX
100
AcDbText
  0
TEXT
  5
F2
330
1E
100
AcDbEntity
  8
TEXT_BUBBLES
100
AcDbText
 10
6.326663212346389
 20
6.126349354675395
 30
0.0
 40
0.125
  1
PVC SCH 40 ELL
  7
SIMPLEX
100
AcDbText
  0
LWPOLYLINE
  5
F3
330
1E
100
AcDbEntity
  8
IMAGE
100
AcDbPolyline
 90
        4
 70
     0
 43
0.0
 10
1.623888035770155
 20
4.347339865822723
 42
0.6332430429610296
 10
1.623888035770155
 20
4.216522377422439
 42
-0.6332430429610812
 10
1.623888035770155
 20
4.085704889022157
 42
-0.6134111328532366
 10
1.623888035770155
 20
4.216522377422439
 42
-0.6134111328532366
  0
LWPOLYLINE
  5
F9
330
1E
100
AcDbEntity
  8
IMAGE
100
AcDbPolyline
 90
        4
 70
     0
 43
0.0
 10
5.312998424096177
 20
4.349225298389569
 42
-0.6332430429610296
 10
5.312998424096177
 20
4.218407809989287
 42
0.6332430429610812
 10
5.312998424096177
 20
4.087590321589001
 42
0.6134111328532366
 10
5.312998424096173
 20
4.218407809989283
 42
0.6134111328532366
  0
ARC
  5
FF
330
1E
100
AcDbEntity
  8
IMAGE
100
AcDbCircle
 10
2.445659409689113
 20
4.652043337961671
 30
0.0
 40
0.1293594744712923
100
AcDbArc
 50
179.379115872957
 51
0.2371380430744057
  0
LINE
  5
100
330
1E
100
AcDbEntity
  8
IMAGE
100
AcDbLine
 10
4.114062728960531
 20
4.181603688333526
 30
0.0
 11
2.742884459275506
 21
4.471904013075992
 31
0.0
  0
LINE
  5
101
330
1E
100
AcDbEntity
  8
IMAGE
100
AcDbLine
 10
4.159936210021305
 20
4.396148109099151
 30
0.0
 11
2.788757940336278
 21
4.686448433841618
 31
0.0
  0
LINE
  5
102
330
1E
100
AcDbEntity
  8
IMAGE
100
AcDbLine
 10
2.31737499028075
 20
4.857854334698564
 30
0.0
 11
2.574608285282316
 21
4.857854334698564
 31
0.0
  0
LINE
  5
103
330
1E
100
AcDbEntity
  8
IMAGE
100
AcDbLine
 10
2.31737499028075
 20
4.857854334698564
 30
0.0
 11
2.316299935217822
 21
4.652043337961671
 31
0.0
  0
LINE
  5
104
330
1E
100
AcDbEntity
  8
IMAGE
100
AcDbLine
 10
2.574608285282318
 20
4.857854334698564
 30
0.0
 11
2.575018884160405
 21
4.652043337961671
 31
0.0
  0
LINE
  5
105
330
1E
100
AcDbEntity
  8
IMAGE
100
AcDbLine
 10
4.817850274846543
 20
4.381465430453573
 30
0.0
 11
4.81785027484654
 21
4.056556494572582
 31
0.0
  0
LINE
  5
106
330
1E
100
AcDbEntity
  8
IMAGE
100
AcDbLine
 10
4.162220147208977
 20
4.40826883694614
 30
0.0
 11
4.478573153996981
 21
4.341116419201574
 31
0.0
  0
LINE
  5
107
330
1E
100
AcDbEntity
  8
IMAGE
100
AcDbLine
 10
4.111028279785854
 20
4.168851001407265
 30
0.0
 11
4.427281181682181
 21
4.101230405850486
 31
0.0
  0
LINE
  5
108
330
1E
100
AcDbEntity
  8
IMAGE
100
AcDbLine
 10
4.478573153996981
 20
4.341116419201574
 30
0.0
 11
4.49368320567647
 21
4.312595682193613
 31
0.0
  0
LINE
  5
109
330
1E
100
AcDbEntity
  8
IMAGE
100
AcDbLine
 10
4.427281181682181
 20
4.101230405850486
 30
0.0
 11
4.454331523752573
 21
4.117806991631441
 31
0.0
  0
LINE
  5
10A
330
1E
100
AcDbEntity
  8
IMAGE
100
AcDbLine
 10
4.454331523752573
 20
4.117806991631439
 30
0.0
 11
4.49368320567647
 21
4.312595682193613
 31
0.0
  0
ARC
  5
10B
330
1E
100
AcDbEntity
  8
IMAGE
100
AcDbCircle
 10
4.450067172252639
 20
4.220037792438962
 30
0.0
 40
0.1023197015606605
100
AcDbArc
 50
272.3885930691139
 51
64.76879059918148
  0
LINE
  5
10C
330
1E
100
AcDbEntity
  8
IMAGE
100
AcDbLine
 10
2.740295983881511
 20
4.459601975195658
 30
0.0
 11
2.438872310705539
 21
4.522862035433481
 31
0.0
  0
LINE
  5
10D
330
1E
100
AcDbEntity
  8
IMAGE
100
AcDbLine
 10
2.790706818955262
 20
4.699185478324639
 30
0.0
 11
2.574841953848745
 21
4.744939484022297
 31
0.0
  0
LINE
  5
10E
330
1E
100
AcDbEntity
  8
IMAGE
100
AcDbLine
 10
2.790706818955262
 20
4.699185478324639
 30
0.0
 11
2.740295983881511
 21
4.45960197519566
 31
0.0
  0
LINE
  5
10F
330
1E
100
AcDbEntity
  8
IMAGE
100
AcDbLine
 10
4.162220147208977
 20
4.40826883694614
 30
0.0
 11
4.111028279785854
 21
4.168851001407265
 31
0.0
  0
LINE
  5
110
330
1E
100
AcDbEntity
  8
IMAGE
100
AcDbLine
 10
4.817850274846543
 20
4.056556494572582
 30
0.0
 11
4.080679314383827
 21
4.056556494572582
 31
0.0
  0
LINE
  5
111
330
1E
100
AcDbEntity
  8
IMAGE
100
AcDbLine
 10
4.080679314383827
 20
4.188671490024152
 30
0.0
 11
4.080679314383827
 21
4.056556494572584
 31
0.0
  0
LINE
  5
112
330
1E
100
AcDbEntity
  8
IMAGE
100
AcDbLine
 10
4.478573153996981
 20
4.341116419201576
 30
0.0
 11
4.427281181682181
 21
4.101230405850486
 31
0.0
  0
LINE
  5
113
330
1E
100
AcDbEntity
  8
IMAGE
100
AcDbLine
 10
5.312998424096177
 20
4.349225298389569
 30
0.0
 11
4.817850274846543
 21
4.349225298389569
 31
0.0
  0
LINE
  5
114
330
1E
100
AcDbEntity
  8
IMAGE
100
AcDbLine
 10
5.312998424096177
 20
4.087590321589001
 30
0.0
 11
4.817850274846543
 21
4.087590321589001
 31
0.0
  0
LINE
  5
115
330
1E
100
AcDbEntity
  8
IMAGE
100
AcDbLine
 10
4.080679314383827
 20
4.085704889022155
 30
0.0
 11
2.312792602025814
 21
4.085704889022157
 31
0.0
  0
LINE
  5
116
330
1E
100
AcDbEntity
  8
IMAGE
100
AcDbLine
 10
3.331239474196854
 20
4.347339865822723
 30
0.0
 11
2.312792602025814
 21
4.347339865822723
 31
0.0
  0
LINE
  5
117
330
1E
100
AcDbEntity
  8
IMAGE
100
AcDbLine
 10
4.288490183655589
 20
4.381465430453573
 30
0.0
 11
4.817850274846543
 21
4.381465430453575
 31
0.0
  0
TEXT
  5
118
330
1E
100
AcDbEntity
  8
TEXT_BUBBLES
100
AcDbText
 10
6.326663212346389
 20
6.826349354675395
 30
0.0
 40
0.125
  1
UV RADIATION RESISTANT
  7
SIMPLEX
100
AcDbText
  0
TEXT
  5
119
330
1E
100
AcDbEntity
  8
TEXT_BUBBLES
100
AcDbText
 10
6.326663212346389
 20
6.651349354675396
 30
0.0
 40
0.125
  1
  PVC SCH 80 NIPPLE
  7
SIMPLEX
100
AcDbText
  0
TEXT
  5
11A
330
1E
100
AcDbEntity
  8
TEXT_BUBBLES
100
AcDbText
 10
6.326663212346389
 20
6.476349354675395
 30
0.0
 40
0.125
  1
  (LENGTH AS REQUIRED)
  7
SIMPLEX
100
AcDbText
  0
LINE
  5
11B
330
1E
100
AcDbEntity
  8
IMAGE
100
AcDbLine
 10
2.554855087240271
 20
5.540619144750396
 30
0.0
 11
3.410140113514999
 21
5.540619144750396
 31
0.0
  0
LINE
  5
11C
330
1E
100
AcDbEntity
  8
IMAGE
100
AcDbLine
 10
0.7717059140902514
 20
5.538669072691772
 30
0.0
 11
2.098797060386056
 21
5.538669072691715
 31
0.0
  0
LINE
  5
11D
330
1E
100
AcDbEntity
  8
IMAGE
100
AcDbLine
 10
2.312792602025814
 20
6.742129483769801
 30
0.0
 11
2.312792602025814
 21
6.641112604804829
 31
0.0
  0
LINE
  5
11E
330
1E
100
AcDbEntity
  8
IMAGE
100
AcDbLine
 10
2.098797060386056
 20
6.742129483769801
 30
0.0
 11
2.098797060386056
 21
6.641112604804829
 31
0.0
  0
LINE
  5
11F
330
1E
100
AcDbEntity
  8
IMAGE
100
AcDbLine
 10
2.098797060386056
 20
4.085704889022157
 30
0.0
 11
2.098797060386056
 21
3.220411446849839
 31
0.0
  0
ARC
  5
120
330
1E
100
AcDbEntity
  8
IMAGE
100
AcDbCircle
 10
2.214365687124365
 20
6.60200733196649
 30
0.0
 40
0.0363347932812923
100
AcDbArc
 50
142.5532855597031
 51
232.8116314160015
  0
LINE
  5
121
330
1E
100
AcDbEntity
  8
IMAGE
100
AcDbLine
 10
2.581888766812825
 20
6.641112604804829
 30
0.0
 11
2.097912427828504
 21
6.641112604804829
 31
0.0
  0
LINE
  5
122
330
1E
100
AcDbEntity
  8
IMAGE
100
AcDbLine
 10
2.581888766812825
 20
6.556048252555655
 30
0.0
 11
2.097912427828504
 21
6.556048252555655
 31
0.0
  0
ARC
  5
123
330
1E
100
AcDbEntity
  8
IMAGE
100
AcDbCircle
 10
2.140510772559281
 20
6.60200733196649
 30
0.0
 40
0.0363347932812923
100
AcDbArc
 50
142.5532855597031
 51
232.8116314160015
  0
LINE
  5
124
330
1E
100
AcDbEntity
  8
IMAGE
100
AcDbLine
 10
2.111663884347468
 20
6.624099734354974
 30
0.0
 11
2.118548664518892
 21
6.573061123005402
 31
0.0
  0
ARC
  5
125
330
1E
100
AcDbEntity
  8
IMAGE
100
AcDbCircle
 10
2.158661556647217
 20
6.60200733196649
 30
0.0
 40
0.0363347932812923
100
AcDbArc
 50
142.5532855597031
 51
232.8116314160015
  0
LINE
  5
126
330
1E
100
AcDbEntity
  8
IMAGE
100
AcDbLine
 10
2.129814668435626
 20
6.624099734354974
 30
0.0
 11
2.136699448606732
 21
6.573061123005402
 31
0.0
  0
ARC
  5
127
330
1E
100
AcDbEntity
  8
IMAGE
100
AcDbCircle
 10
2.176812340735375
 20
6.60200733196649
 30
0.0
 40
0.0363347932812923
100
AcDbArc
 50
142.5532855597031
 51
232.8116314160015
  0
LINE
  5
128
330
1E
100
AcDbEntity
  8
IMAGE
100
AcDbLine
 10
2.147965452523459
 20
6.624099734354974
 30
0.0
 11
2.154850232694878
 21
6.573061123005402
 31
0.0
  0
ARC
  5
129
330
1E
100
AcDbEntity
  8
IMAGE
100
AcDbCircle
 10
2.195589013929714
 20
6.60200733196649
 30
0.0
 40
0.0363347932812923
100
AcDbArc
 50
142.5532855597031
 51
232.8116314160015
  0
LINE
  5
12A
330
1E
100
AcDbEntity
  8
IMAGE
100
AcDbLine
 10
2.166742125718002
 20
6.624099734354974
 30
0.0
 11
2.173626905889324
 21
6.573061123005402
 31
0.0
  0
ARC
  5
12B
330
1E
100
AcDbEntity
  8
IMAGE
100
AcDbCircle
 10
2.090564374950544
 20
6.559521031347282
 30
0.0
 40
0.0101391053531439
100
AcDbArc
 50
221.6972960676141
 51
316.4458918268223
  0
LINE
  5
12C
330
1E
100
AcDbEntity
  8
IMAGE
100
AcDbLine
 10
2.082993813462229
 20
6.55277654796373
 30
0.0
 11
2.074059883128098
 21
6.563058697013786
 31
0.0
  0
LINE
  5
12D
330
1E
100
AcDbEntity
  8
IMAGE
100
AcDbLine
 10
2.084278051134168
 20
6.553892393477832
 30
0.0
 11
2.075729375751398
 21
6.563731148782602
 31
0.0
  0
ARC
  5
12E
330
1E
100
AcDbEntity
  8
IMAGE
100
AcDbCircle
 10
2.090564374950544
 20
6.559521031347282
 30
0.0
 40
0.0084378183081614
100
AcDbArc
 50
221.6972960676141
 51
330.5572729070301
  0
ARC
  5
12F
330
1E
100
AcDbEntity
  8
IMAGE
100
AcDbCircle
 10
2.090564374950544
 20
6.634126362877607
 30
0.0
 40
0.0084378183081614
100
AcDbArc
 50
29.4427270929698
 51
138.3027039323858
  0
LINE
  5
130
330
1E
100
AcDbEntity
  8
IMAGE
100
AcDbLine
 10
2.084278051134168
 20
6.639755000747056
 30
0.0
 11
2.075729375751398
 21
6.629916245442286
 31
0.0
  0
LINE
  5
131
330
1E
100
AcDbEntity
  8
IMAGE
100
AcDbLine
 10
2.082993813462229
 20
6.640870846261151
 30
0.0
 11
2.074059883128098
 21
6.630588697211095
 31
0.0
  0
CIRCLE
  5
132
330
1E
100
AcDbEntity
  8
IMAGE
100
AcDbCircle
 10
2.061429916845321
 20
6.596823697112421
 30
0.0
 40
0.0360498443820563
  0
ARC
  5
133
330
1E
100
AcDbEntity
  8
IMAGE
100
AcDbCircle
 10
2.090564374950544
 20
6.634126362877607
 30
0.0
 40
0.0101391053531439
100
AcDbArc
 50
43.55410817317756
 51
138.3027039323858
  0
LWPOLYLINE
  5
134
330
1E
100
AcDbEntity
  8
IMAGE
100
AcDbPolyline
 90
        2
 70
     0
 43
0.0
 10
2.069517379290715
 20
6.57430936602774
 10
2.061429916845321
 20
6.569640067407909
  0
LWPOLYLINE
  5
138
330
1E
100
AcDbEntity
  8
IMAGE
100
AcDbPolyline
 90
        5
 70
     0
 43
0.0
 10
2.053342454400036
 20
6.619338028197147
 10
2.061429916845321
 20
6.624007326817035
 10
2.084971630736703
 20
6.610415511964673
 10
2.084971630736703
 20
6.583231882260213
 10
2.076884168291195
 20
6.578562583640274
  0
ARC
  5
13F
330
1E
100
AcDbEntity
  8
IMAGE
100
AcDbCircle
 10
2.061429916845321
 20
6.596823697112421
 30
0.0
 40
0.019416878360384
100
AcDbArc
 50
132.6530910809695
 51
287.3469089190293
  0
LWPOLYLINE
  5
140
330
1E
100
AcDbEntity
  8
IMAGE
100
AcDbPolyline
 90
        4
 70
     0
 43
0.0
 10
2.061429916845321
 20
6.569640067407909
 10
2.037888202954258
 20
6.583231882260213
 10
2.037888202954258
 20
6.610415511964673
 10
2.04597566539955
 20
6.615084810584613
  0
LINE
  5
146
330
1E
100
AcDbEntity
  8
IMAGE
100
AcDbLine
 10
2.053342454400036
 20
6.619338028197148
 30
0.0
 11
2.076884168291195
 21
6.578562583640275
 31
0.0
  0
LINE
  5
147
330
1E
100
AcDbEntity
  8
IMAGE
100
AcDbLine
 10
2.04597566539955
 20
6.615084810584614
 30
0.0
 11
2.069517379290715
 21
6.57430936602774
 31
0.0
  0
ARC
  5
148
330
1E
100
AcDbEntity
  8
IMAGE
100
AcDbCircle
 10
2.061429916845321
 20
6.596823697112421
 30
0.0
 40
0.019416878360384
100
AcDbArc
 50
312.6530910809717
 51
107.3469089190281
  0
CIRCLE
  5
149
330
1E
100
AcDbEntity
  8
IMAGE
100
AcDbCircle
 10
2.061429916845321
 20
6.596823697112421
 30
0.0
 40
0.0322956548274434
  0
LINE
  5
14A
330
1E
100
AcDbEntity
  8
IMAGE
100
AcDbLine
 10
2.185518798912557
 20
6.624099734354974
 30
0.0
 11
2.192403579083878
 21
6.573061123005402
 31
0.0
  0
ARC
  5
14B
330
1E
100
AcDbEntity
  8
IMAGE
100
AcDbCircle
 10
2.233142360318812
 20
6.60200733196649
 30
0.0
 40
0.0363347932812923
100
AcDbArc
 50
142.5532855597031
 51
232.8116314160015
  0
LINE
  5
14C
330
1E
100
AcDbEntity
  8
IMAGE
100
AcDbLine
 10
2.204295472107004
 20
6.624099734354974
 30
0.0
 11
2.211180252278428
 21
6.573061123005402
 31
0.0
  0
ARC
  5
14D
330
1E
100
AcDbEntity
  8
IMAGE
100
AcDbCircle
 10
2.253170811726262
 20
6.60200733196649
 30
0.0
 40
0.0363347932812923
100
AcDbArc
 50
142.5532855597031
 51
232.8116314160015
  0
LINE
  5
14E
330
1E
100
AcDbEntity
  8
IMAGE
100
AcDbLine
 10
2.224323923514555
 20
6.624099734354974
 30
0.0
 11
2.231208703685878
 21
6.573061123005402
 31
0.0
  0
ARC
  5
14F
330
1E
100
AcDbEntity
  8
IMAGE
100
AcDbCircle
 10
2.272573374027315
 20
6.60200733196649
 30
0.0
 40
0.0363347932812923
100
AcDbArc
 50
142.5532855597031
 51
232.8116314160015
  0
LINE
  5
150
330
1E
100
AcDbEntity
  8
IMAGE
100
AcDbLine
 10
2.243726485815505
 20
6.624099734354974
 30
0.0
 11
2.250611265986817
 21
6.573061123005402
 31
0.0
  0
ARC
  5
151
330
1E
100
AcDbEntity
  8
IMAGE
100
AcDbCircle
 10
2.291350047221863
 20
6.60200733196649
 30
0.0
 40
0.0363347932812923
100
AcDbArc
 50
142.5532855597031
 51
232.8116314160015
  0
LINE
  5
152
330
1E
100
AcDbEntity
  8
IMAGE
100
AcDbLine
 10
2.262503159009941
 20
6.624099734354974
 30
0.0
 11
2.269387939181365
 21
6.573061123005402
 31
0.0
  0
ARC
  5
153
330
1E
100
AcDbEntity
  8
IMAGE
100
AcDbCircle
 10
2.311378498629204
 20
6.60200733196649
 30
0.0
 40
0.0363347932812923
100
AcDbArc
 50
142.5532855597031
 51
232.8116314160015
  0
LINE
  5
154
330
1E
100
AcDbEntity
  8
IMAGE
100
AcDbLine
 10
2.282531610417601
 20
6.624099734354974
 30
0.0
 11
2.289416390588707
 21
6.573061123005402
 31
0.0
  0
ARC
  5
155
330
1E
100
AcDbEntity
  8
IMAGE
100
AcDbCircle
 10
2.330781060930149
 20
6.60200733196649
 30
0.0
 40
0.0363347932812923
100
AcDbArc
 50
142.5532855597031
 51
232.8116314160015
  0
LINE
  5
156
330
1E
100
AcDbEntity
  8
IMAGE
100
AcDbLine
 10
2.301934172718546
 20
6.624099734354974
 30
0.0
 11
2.308818952889652
 21
6.573061123005402
 31
0.0
  0
ARC
  5
157
330
1E
100
AcDbEntity
  8
IMAGE
100
AcDbCircle
 10
2.350183623231101
 20
6.60200733196649
 30
0.0
 40
0.0363347932812923
100
AcDbArc
 50
142.5532855597031
 51
232.8116314160015
  0
LINE
  5
158
330
1E
100
AcDbEntity
  8
IMAGE
100
AcDbLine
 10
2.321336735019498
 20
6.624099734354974
 30
0.0
 11
2.328221515190813
 21
6.573061123005402
 31
0.0
  0
ARC
  5
159
330
1E
100
AcDbEntity
  8
IMAGE
100
AcDbCircle
 10
2.369586185532142
 20
6.60200733196649
 30
0.0
 40
0.0363347932812923
100
AcDbArc
 50
142.5532855597031
 51
232.8116314160015
  0
LINE
  5
15A
330
1E
100
AcDbEntity
  8
IMAGE
100
AcDbLine
 10
2.340739297320443
 20
6.624099734354974
 30
0.0
 11
2.347624077491758
 21
6.573061123005402
 31
0.0
  0
ARC
  5
15B
330
1E
100
AcDbEntity
  8
IMAGE
100
AcDbCircle
 10
2.388362858726697
 20
6.60200733196649
 30
0.0
 40
0.0363347932812923
100
AcDbArc
 50
142.5532855597031
 51
232.8116314160015
  0
LINE
  5
15C
330
1E
100
AcDbEntity
  8
IMAGE
100
AcDbLine
 10
2.359515970514991
 20
6.624099734354974
 30
0.0
 11
2.366400750686205
 21
6.573061123005402
 31
0.0
  0
ARC
  5
15D
330
1E
100
AcDbEntity
  8
IMAGE
100
AcDbCircle
 10
2.407765421027642
 20
6.60200733196649
 30
0.0
 40
0.0363347932812923
100
AcDbArc
 50
142.5532855597031
 51
232.8116314160015
  0
LINE
  5
15E
330
1E
100
AcDbEntity
  8
IMAGE
100
AcDbLine
 10
2.378918532816049
 20
6.624099734354974
 30
0.0
 11
2.385803312987144
 21
6.573061123005402
 31
0.0
  0
LINE
  5
15F
330
1E
100
AcDbEntity
  8
IMAGE
100
AcDbLine
 10
2.581888766812825
 20
6.641112604804829
 30
0.0
 11
2.581888766812825
 21
6.556048252555655
 31
0.0
  0
LINE
  5
160
330
1E
100
AcDbEntity
  8
IMAGE
100
AcDbLine
 10
2.475305455214487
 20
6.624099734354974
 30
0.0
 11
2.482190235385582
 21
6.573061123005402
 31
0.0
  0
ARC
  5
161
330
1E
100
AcDbEntity
  8
IMAGE
100
AcDbCircle
 10
2.504152343426079
 20
6.60200733196649
 30
0.0
 40
0.0363347932812923
100
AcDbArc
 50
142.5532855597031
 51
232.8116314160015
  0
LINE
  5
162
330
1E
100
AcDbEntity
  8
IMAGE
100
AcDbLine
 10
2.455902892913428
 20
6.624099734354974
 30
0.0
 11
2.462787673084642
 21
6.573061123005402
 31
0.0
  0
ARC
  5
163
330
1E
100
AcDbEntity
  8
IMAGE
100
AcDbCircle
 10
2.484749781125135
 20
6.60200733196649
 30
0.0
 40
0.0363347932812923
100
AcDbArc
 50
142.5532855597031
 51
232.8116314160015
  0
LINE
  5
164
330
1E
100
AcDbEntity
  8
IMAGE
100
AcDbLine
 10
2.43712621971888
 20
6.624099734354974
 30
0.0
 11
2.444010999890195
 21
6.573061123005402
 31
0.0
  0
ARC
  5
165
330
1E
100
AcDbEntity
  8
IMAGE
100
AcDbCircle
 10
2.465973107930579
 20
6.60200733196649
 30
0.0
 40
0.0363347932812923
100
AcDbArc
 50
142.5532855597031
 51
232.8116314160015
  0
LINE
  5
166
330
1E
100
AcDbEntity
  8
IMAGE
100
AcDbLine
 10
2.417723657417935
 20
6.624099734354974
 30
0.0
 11
2.424608437589251
 21
6.573061123005402
 31
0.0
  0
ARC
  5
167
330
1E
100
AcDbEntity
  8
IMAGE
100
AcDbCircle
 10
2.446570545629539
 20
6.60200733196649
 30
0.0
 40
0.0363347932812923
100
AcDbArc
 50
142.5532855597031
 51
232.8116314160015
  0
LINE
  5
168
330
1E
100
AcDbEntity
  8
IMAGE
100
AcDbLine
 10
2.398321095116983
 20
6.624099734354974
 30
0.0
 11
2.405205875288089
 21
6.573061123005402
 31
0.0
  0
ARC
  5
169
330
1E
100
AcDbEntity
  8
IMAGE
100
AcDbCircle
 10
2.427167983328587
 20
6.60200733196649
 30
0.0
 40
0.0363347932812923
100
AcDbArc
 50
142.5532855597031
 51
232.8116314160015
  0
ARC
  5
16A
330
1E
100
AcDbEntity
  8
IMAGE
100
AcDbCircle
 10
2.523554905726985
 20
6.602007331966559
 30
0.0
 40
0.0363347932812923
100
AcDbArc
 50
142.5532855597031
 51
232.8116314160015
  0
LINE
  5
16B
330
1E
100
AcDbEntity
  8
IMAGE
100
AcDbLine
 10
2.494708017515284
 20
6.624099734355041
 30
0.0
 11
2.501592797686601
 21
6.573061123005471
 31
0.0
  0
ARC
  5
16C
330
1E
100
AcDbEntity
  8
IMAGE
100
AcDbCircle
 10
2.542331578921539
 20
6.602007331966559
 30
0.0
 40
0.0363347932812923
100
AcDbArc
 50
142.5532855597031
 51
232.8116314160015
  0
LINE
  5
16D
330
1E
100
AcDbEntity
  8
IMAGE
100
AcDbLine
 10
2.513484690709834
 20
6.624099734355041
 30
0.0
 11
2.520369470881048
 21
6.573061123005471
 31
0.0
  0
ARC
  5
16E
330
1E
100
AcDbEntity
  8
IMAGE
100
AcDbCircle
 10
2.561734141222485
 20
6.602007331966559
 30
0.0
 40
0.0363347932812923
100
AcDbArc
 50
142.5532855597031
 51
232.8116314160015
  0
LINE
  5
16F
330
1E
100
AcDbEntity
  8
IMAGE
100
AcDbLine
 10
2.532887253010892
 20
6.624099734355041
 30
0.0
 11
2.539772033181987
 21
6.573061123005471
 31
0.0
  0
ARC
  5
170
330
1E
100
AcDbEntity
  8
IMAGE
100
AcDbCircle
 10
2.581136703523425
 20
6.602007331966564
 30
0.0
 40
0.0363347932812923
100
AcDbArc
 50
142.5532855597031
 51
232.8116314160015
  0
LINE
  5
171
330
1E
100
AcDbEntity
  8
IMAGE
100
AcDbLine
 10
2.552289815311832
 20
6.624099734355048
 30
0.0
 11
2.559174595482927
 21
6.573061123005476
 31
0.0
  0
LINE
  5
172
330
1E
100
AcDbEntity
  8
IMAGE
100
AcDbLine
 10
2.371849881261701
 20
7.044570882202895
 30
0.0
 11
2.371849881261701
 21
7.051617416798666
 31
0.0
  0
LINE
  5
173
330
1E
100
AcDbEntity
  8
IMAGE
100
AcDbLine
 10
2.371849881261701
 20
7.15232905797249
 30
0.0
 11
2.447217017874422
 21
7.15232905797249
 31
0.0
  0
LINE
  5
174
330
1E
100
AcDbEntity
  8
IMAGE
100
AcDbLine
 10
2.371849881261701
 20
7.15232905797249
 30
0.0
 11
2.367753841228326
 21
7.15232905797249
 31
0.0
  0
LINE
  5
175
330
1E
100
AcDbEntity
  8
IMAGE
100
AcDbLine
 10
2.367753841228326
 20
7.15232905797249
 30
0.0
 11
2.367753841228326
 21
7.157244306012431
 31
0.0
  0
LINE
  5
176
330
1E
100
AcDbEntity
  8
IMAGE
100
AcDbLine
 10
2.367753841228326
 20
7.157244306012431
 30
0.0
 11
2.447217017874422
 21
7.157244306012431
 31
0.0
  0
LINE
  5
177
330
1E
100
AcDbEntity
  8
IMAGE
100
AcDbLine
 10
2.367753841228326
 20
7.157244306012431
 30
0.0
 11
2.367753841228326
 21
7.167074802092459
 31
0.0
  0
LINE
  5
178
330
1E
100
AcDbEntity
  8
IMAGE
100
AcDbLine
 10
2.367753841228326
 20
7.167074802092459
 30
0.0
 11
2.447217017874422
 21
7.167074802092459
 31
0.0
  0
LINE
  5
179
330
1E
100
AcDbEntity
  8
IMAGE
100
AcDbLine
 10
2.526680194520526
 20
7.167074802092459
 30
0.0
 11
2.447217017874422
 21
7.167074802092459
 31
0.0
  0
LINE
  5
17A
330
1E
100
AcDbEntity
  8
IMAGE
100
AcDbLine
 10
2.526680194520526
 20
7.157244306012431
 30
0.0
 11
2.526680194520526
 21
7.167074802092459
 31
0.0
  0
LINE
  5
17B
330
1E
100
AcDbEntity
  8
IMAGE
100
AcDbLine
 10
2.526680194520526
 20
7.157244306012431
 30
0.0
 11
2.447217017874422
 21
7.157244306012431
 31
0.0
  0
LINE
  5
17C
330
1E
100
AcDbEntity
  8
IMAGE
100
AcDbLine
 10
2.526680194520526
 20
7.15232905797249
 30
0.0
 11
2.526680194520526
 21
7.157244306012431
 31
0.0
  0
LINE
  5
17D
330
1E
100
AcDbEntity
  8
IMAGE
100
AcDbLine
 10
2.522584154487075
 20
7.15232905797249
 30
0.0
 11
2.526680194520526
 21
7.15232905797249
 31
0.0
  0
LINE
  5
17E
330
1E
100
AcDbEntity
  8
IMAGE
100
AcDbLine
 10
2.522584154487075
 20
7.15232905797249
 30
0.0
 11
2.447217017874422
 21
7.15232905797249
 31
0.0
  0
LINE
  5
17F
330
1E
100
AcDbEntity
  8
IMAGE
100
AcDbLine
 10
2.522584154487075
 20
7.044570882202895
 30
0.0
 11
2.522584154487075
 21
7.051562403866189
 31
0.0
  0
LINE
  5
180
330
1E
100
AcDbEntity
  8
IMAGE
100
AcDbLine
 10
2.393149289434663
 20
7.167074802092459
 30
0.0
 11
2.393149289434663
 21
7.170178123552039
 31
0.0
  0
LINE
  5
181
330
1E
100
AcDbEntity
  8
IMAGE
100
AcDbLine
 10
2.393149289434663
 20
7.21049282644544
 30
0.0
 11
2.447217017874422
 21
7.21049282644544
 31
0.0
  0
LINE
  5
182
330
1E
100
AcDbEntity
  8
IMAGE
100
AcDbLine
 10
2.50128474631396
 20
7.21049282644544
 30
0.0
 11
2.447217017874422
 21
7.21049282644544
 31
0.0
  0
LINE
  5
183
330
1E
100
AcDbEntity
  8
IMAGE
100
AcDbLine
 10
2.50128474631396
 20
7.168860320273827
 30
0.0
 11
2.50128474631396
 21
7.19358211791086
 31
0.0
  0
LINE
  5
184
330
1E
100
AcDbEntity
  8
IMAGE
100
AcDbLine
 10
2.393149289434663
 20
7.21049282644544
 30
0.0
 11
2.378678878368061
 21
7.21049282644544
 31
0.0
  0
LINE
  5
185
330
1E
100
AcDbEntity
  8
IMAGE
100
AcDbLine
 10
2.378678878368061
 20
7.26436769126067
 30
0.0
 11
2.447217017874422
 21
7.26436769126067
 31
0.0
  0
LINE
  5
186
330
1E
100
AcDbEntity
  8
IMAGE
100
AcDbLine
 10
2.515709880967374
 20
7.26436769126067
 30
0.0
 11
2.447217017874422
 21
7.26436769126067
 31
0.0
  0
LINE
  5
187
330
1E
100
AcDbEntity
  8
IMAGE
100
AcDbLine
 10
2.515709880967374
 20
7.21049282644544
 30
0.0
 11
2.50128474631396
 21
7.21049282644544
 31
0.0
  0
LINE
  5
188
330
1E
100
AcDbEntity
  8
IMAGE
100
AcDbLine
 10
2.446023095302937
 20
7.871232984118387
 30
0.0
 11
2.536470817235104
 21
7.871232984118387
 31
0.0
  0
LINE
  5
189
330
1E
100
AcDbEntity
  8
IMAGE
100
AcDbLine
 10
2.68203205202999
 20
7.517324968007761
 30
0.0
 11
2.658723442492052
 21
7.580491299856939
 31
0.0
  0
LINE
  5
18A
330
1E
100
AcDbEntity
  8
IMAGE
100
AcDbLine
 10
2.444851810937926
 20
7.830238031343823
 30
0.0
 11
2.478098331323506
 21
7.830238031343823
 31
0.0
  0
LINE
  5
18B
330
1E
100
AcDbEntity
  8
IMAGE
100
AcDbLine
 10
2.501073460457499
 20
7.479775618672308
 30
0.0
 11
2.501073460457499
 21
7.503433694867874
 31
0.0
  0
ARC
  5
18C
330
1E
100
AcDbEntity
  8
IMAGE
100
AcDbCircle
 10
2.521316576678257
 20
7.808760431296809
 30
0.0
 40
0.0214776000468803
100
AcDbArc
 50
16.40204759851894
 51
38.26431209438186
  0
ARC
  5
18D
330
1E
100
AcDbEntity
  8
IMAGE
100
AcDbCircle
 10
2.536470817235104
 20
7.849755384071558
 30
0.0
 40
0.0214776000468803
100
AcDbArc
 50
20.25424690312324
 51
90.0
  0
ARC
  5
18E
330
1E
100
AcDbEntity
  8
IMAGE
100
AcDbCircle
 10
2.357917942100639
 20
7.849755384071558
 30
0.0
 40
0.0214776000468803
100
AcDbArc
 50
90.0
 51
159.7457530968767
  0
LINE
  5
18F
330
1E
100
AcDbEntity
  8
IMAGE
100
AcDbLine
 10
2.448365664032804
 20
7.871232984118387
 30
0.0
 11
2.357917942100639
 21
7.871232984118387
 31
0.0
  0
ARC
  5
190
330
1E
100
AcDbEntity
  8
IMAGE
100
AcDbCircle
 10
2.373072182657478
 20
7.808760431296809
 30
0.0
 40
0.0214776000468803
100
AcDbArc
 50
90.0
 51
163.597952401481
  0
LINE
  5
191
330
1E
100
AcDbEntity
  8
IMAGE
100
AcDbLine
 10
2.449536948397813
 20
7.830238031343823
 30
0.0
 11
2.373072182657478
 21
7.830238031343823
 31
0.0
  0
LINE
  5
192
330
1E
100
AcDbEntity
  8
IMAGE
100
AcDbLine
 10
2.352468637517665
 20
7.814825184503332
 30
0.0
 11
2.306414844370687
 21
7.658368462578954
 31
0.0
  0
LINE
  5
193
330
1E
100
AcDbEntity
  8
IMAGE
100
AcDbLine
 10
2.498806458460441
 20
7.509444611282571
 30
0.0
 11
2.498806458460441
 21
7.527215431110951
 31
0.0
  0
LINE
  5
194
330
1E
100
AcDbEntity
  8
IMAGE
100
AcDbLine
 10
2.498806458460441
 20
7.639205329750575
 30
0.0
 11
2.575357103546243
 21
7.639205329750575
 31
0.0
  0
LINE
  5
195
330
1E
100
AcDbEntity
  8
IMAGE
100
AcDbLine
 10
2.39549008633079
 20
7.639205329750575
 30
0.0
 11
2.365501286648147
 21
7.639205329750575
 31
0.0
  0
LINE
  5
196
330
1E
100
AcDbEntity
  8
IMAGE
100
AcDbLine
 10
2.631475771186545
 20
7.654332489094082
 30
0.0
 11
2.556620364451402
 21
7.857190641346987
 31
0.0
  0
LINE
  5
197
330
1E
100
AcDbEntity
  8
IMAGE
100
AcDbLine
 10
2.646138433701706
 20
7.614596673678287
 30
0.0
 11
2.645825109183517
 21
7.615445783122906
 31
0.0
  0
LINE
  5
198
330
1E
100
AcDbEntity
  8
IMAGE
100
AcDbLine
 10
2.328212770348299
 20
7.577741327506492
 30
0.0
 11
1.772731922076102
 21
7.577741327506492
 31
0.0
  0
LINE
  5
199
330
1E
100
AcDbEntity
  8
IMAGE
100
AcDbLine
 10
2.264402277257616
 20
7.658368462578954
 30
0.0
 11
2.33776839488434
 21
7.857190641346987
 31
0.0
  0
LINE
  5
19A
330
1E
100
AcDbEntity
  8
IMAGE
100
AcDbLine
 10
2.631475771186545
 20
7.654332489094082
 30
0.0
 11
2.658723442492052
 21
7.580491299856939
 31
0.0
  0
ARC
  5
19B
330
1E
100
AcDbEntity
  8
IMAGE
100
AcDbCircle
 10
1.77384198588272
 20
7.639640352759878
 30
0.0
 40
0.061899025253335
100
AcDbArc
 50
83.40222704928685
 51
269.9999999999997
  0
LINE
  5
19C
330
1E
100
AcDbEntity
  8
IMAGE
100
AcDbLine
 10
2.416967686377843
 20
7.660682929797554
 30
0.0
 11
2.416967686377843
 21
7.678981071297487
 31
0.0
  0
LINE
  5
19D
330
1E
100
AcDbEntity
  8
IMAGE
100
AcDbLine
 10
2.416967686377843
 20
7.825676255979788
 30
0.0
 11
2.447838961518337
 21
7.825676255979788
 31
0.0
  0
LINE
  5
19E
330
1E
100
AcDbEntity
  8
IMAGE
100
AcDbLine
 10
2.436262233340677
 20
7.871018441342679
 30
0.0
 11
2.436262233340677
 21
7.89417189769818
 31
0.0
  0
LINE
  5
19F
330
1E
100
AcDbEntity
  8
IMAGE
100
AcDbLine
 10
2.436262233340677
 20
7.89417189769818
 30
0.0
 11
2.448803688866421
 21
7.89417189769818
 31
0.0
  0
ARC
  5
1A0
330
1E
100
AcDbEntity
  8
IMAGE
100
AcDbCircle
 10
2.39549008633079
 20
7.660682929797554
 30
0.0
 40
0.0214776000468803
100
AcDbArc
 50
270.0
 51
335.6585948707891
  0
ARC
  5
1A1
330
1E
100
AcDbEntity
  8
IMAGE
100
AcDbCircle
 10
2.500187836705888
 20
7.660682929797554
 30
0.0
 40
0.0214776000468803
100
AcDbArc
 50
180.0
 51
270.0
  0
LINE
  5
1A2
330
1E
100
AcDbEntity
  8
IMAGE
100
AcDbLine
 10
2.478710236659061
 20
7.660682929797554
 30
0.0
 11
2.478710236659061
 21
7.665975117418797
 31
0.0
  0
LINE
  5
1A3
330
1E
100
AcDbEntity
  8
IMAGE
100
AcDbLine
 10
2.478710236659061
 20
7.825676255979788
 30
0.0
 11
2.447838961518337
 21
7.825676255979788
 31
0.0
  0
LINE
  5
1A4
330
1E
100
AcDbEntity
  8
IMAGE
100
AcDbLine
 10
2.459415689696147
 20
7.871018441342679
 30
0.0
 11
2.459415689696147
 21
7.89417189769818
 31
0.0
  0
LINE
  5
1A5
330
1E
100
AcDbEntity
  8
IMAGE
100
AcDbLine
 10
2.459415689696147
 20
7.89417189769818
 30
0.0
 11
2.448803688866421
 21
7.89417189769818
 31
0.0
  0
LINE
  5
1A6
330
1E
100
AcDbEntity
  8
IMAGE
100
AcDbLine
 10
2.328212770348299
 20
7.577741327506492
 30
0.0
 11
2.341114344244106
 21
7.577741327506492
 31
0.0
  0
LINE
  5
1A7
330
1E
100
AcDbEntity
  8
IMAGE
100
AcDbLine
 10
2.551277810559573
 20
7.615366955069825
 30
0.0
 11
2.360675097229467
 21
7.666387897629087
 31
0.0
  0
LINE
  5
1A8
330
1E
100
AcDbEntity
  8
IMAGE
100
AcDbLine
 10
2.553708999975134
 20
7.623014510778213
 30
0.0
 11
2.36142085286071
 21
7.674449611858198
 31
0.0
  0
LINE
  5
1A9
330
1E
100
AcDbEntity
  8
IMAGE
100
AcDbLine
 10
2.478919009974747
 20
7.657695570688597
 30
0.0
 11
2.548345063842411
 21
7.65130667002605
 31
0.0
  0
LINE
  5
1AA
330
1E
100
AcDbEntity
  8
IMAGE
100
AcDbLine
 10
2.548345063842411
 20
7.65130667002605
 30
0.0
 11
2.36323059071287
 21
7.690300690986136
 31
0.0
  0
LINE
  5
1AB
330
1E
100
AcDbEntity
  8
IMAGE
100
AcDbLine
 10
2.36142085286071
 20
7.674449611858198
 30
0.0
 11
2.416967686377843
 21
7.670245379046162
 31
0.0
  0
LINE
  5
1AC
330
1E
100
AcDbEntity
  8
IMAGE
100
AcDbLine
 10
2.548345063842411
 20
7.660301678458329
 30
0.0
 11
2.362448222908099
 21
7.698423380861859
 31
0.0
  0
LINE
  5
1AD
330
1E
100
AcDbEntity
  8
IMAGE
100
AcDbLine
 10
2.362448222908099
 20
7.698423380861859
 30
0.0
 11
2.416967686377843
 21
7.700563867880342
 31
0.0
  0
LINE
  5
1AE
330
1E
100
AcDbEntity
  8
IMAGE
100
AcDbLine
 10
2.402990293423895
 20
7.663330214176729
 30
0.0
 11
2.416967686377843
 21
7.662336006309734
 31
0.0
  0
LINE
  5
1AF
330
1E
100
AcDbEntity
  8
IMAGE
100
AcDbLine
 10
2.478710236659061
 20
7.665572204368883
 30
0.0
 11
2.48169566068582
 21
7.665346243376111
 31
0.0
  0
LINE
  5
1B0
330
1E
100
AcDbEntity
  8
IMAGE
100
AcDbLine
 10
2.478710236659061
 20
7.702987940293235
 30
0.0
 11
2.549639407483958
 21
7.705772688339459
 31
0.0
  0
LINE
  5
1B1
330
1E
100
AcDbEntity
  8
IMAGE
100
AcDbLine
 10
2.478710236659061
 20
7.695372514561364
 30
0.0
 11
2.547916730107562
 21
7.698423380861859
 31
0.0
  0
LINE
  5
1B2
330
1E
100
AcDbEntity
  8
IMAGE
100
AcDbLine
 10
2.545346727698255
 20
7.736116749530582
 30
0.0
 11
2.362019889173398
 21
7.761816773622877
 31
0.0
  0
LINE
  5
1B3
330
1E
100
AcDbEntity
  8
IMAGE
100
AcDbLine
 10
2.549431642068382
 20
7.705764531267698
 30
0.0
 11
2.362448222908099
 21
7.741256754348937
 31
0.0
  0
LINE
  5
1B4
330
1E
100
AcDbEntity
  8
IMAGE
100
AcDbLine
 10
2.362448222908099
 20
7.741256754348937
 30
0.0
 11
2.416967686377843
 21
7.742405876529902
 31
0.0
  0
LINE
  5
1B5
330
1E
100
AcDbEntity
  8
IMAGE
100
AcDbLine
 10
2.545346727698255
 20
7.745111757962865
 30
0.0
 11
2.361591555438552
 21
7.770811782055227
 31
0.0
  0
LINE
  5
1B6
330
1E
100
AcDbEntity
  8
IMAGE
100
AcDbLine
 10
2.361591555438552
 20
7.770811782055227
 30
0.0
 11
2.416967686377843
 21
7.773554467785677
 31
0.0
  0
LINE
  5
1B7
330
1E
100
AcDbEntity
  8
IMAGE
100
AcDbLine
 10
2.416967686377843
 20
7.687243122224094
 30
0.0
 11
2.416967686377843
 21
7.722346938763022
 31
0.0
  0
LINE
  5
1B8
330
1E
100
AcDbEntity
  8
IMAGE
100
AcDbLine
 10
2.416967686377843
 20
7.730976744712046
 30
0.0
 11
2.416967686377843
 21
7.754113811397937
 31
0.0
  0
LINE
  5
1B9
330
1E
100
AcDbEntity
  8
IMAGE
100
AcDbLine
 10
2.478710236659061
 20
7.674581631498236
 30
0.0
 11
2.478710236659061
 21
7.711118554618019
 31
0.0
  0
LINE
  5
1BA
330
1E
100
AcDbEntity
  8
IMAGE
100
AcDbLine
 10
2.478710236659061
 20
7.74370724175838
 30
0.0
 11
2.489568641343323
 21
7.743936107430764
 31
0.0
  0
LINE
  5
1BB
330
1E
100
AcDbEntity
  8
IMAGE
100
AcDbLine
 10
2.478710236659061
 20
7.734865360027482
 30
0.0
 11
2.545346727698255
 21
7.736116749530582
 31
0.0
  0
LINE
  5
1BC
330
1E
100
AcDbEntity
  8
IMAGE
100
AcDbLine
 10
2.395263871666037
 20
7.691693904503603
 30
0.0
 11
2.416836987551901
 21
7.692644923533412
 31
0.0
  0
LINE
  5
1BD
330
1E
100
AcDbEntity
  8
IMAGE
100
AcDbLine
 10
2.515031606441334
 20
7.704513218577792
 30
0.0
 11
2.362448222908099
 21
7.7322617459167
 31
0.0
  0
LINE
  5
1BE
330
1E
100
AcDbEntity
  8
IMAGE
100
AcDbLine
 10
2.403555407426749
 20
7.733454001731979
 30
0.0
 11
2.416967686377843
 21
7.733705875515175
 31
0.0
  0
LINE
  5
1BF
330
1E
100
AcDbEntity
  8
IMAGE
100
AcDbLine
 10
2.407434980393549
 20
7.764590388553719
 30
0.0
 11
2.416967686377843
 21
7.765087354268482
 31
0.0
  0
LINE
  5
1C0
330
1E
100
AcDbEntity
  8
IMAGE
100
AcDbLine
 10
2.478710236659061
 20
7.75443154691939
 30
0.0
 11
2.478710236659061
 21
7.778950123017699
 31
0.0
  0
LINE
  5
1C1
330
1E
100
AcDbEntity
  8
IMAGE
100
AcDbLine
 10
2.416967686377843
 20
7.763101774827456
 30
0.0
 11
2.416967686377843
 21
7.78537512904082
 31
0.0
  0
LINE
  5
1C2
330
1E
100
AcDbEntity
  8
IMAGE
100
AcDbLine
 10
2.351739879536317
 20
7.85819186396896
 30
0.0
 11
2.541063390349631
 21
7.85819186396896
 31
0.0
  0
LINE
  5
1C3
330
1E
100
AcDbEntity
  8
IMAGE
100
AcDbLine
 10
2.478710236659061
 20
7.776612471455299
 30
0.0
 11
2.490949241787479
 21
7.777218648595985
 31
0.0
  0
LINE
  5
1C4
330
1E
100
AcDbEntity
  8
IMAGE
100
AcDbLine
 10
2.478710236659061
 20
7.768306160207268
 30
0.0
 11
2.543205059024092
 21
7.771668449524922
 31
0.0
  0
LINE
  5
1C5
330
1E
100
AcDbEntity
  8
IMAGE
100
AcDbLine
 10
2.543205059024092
 20
7.771668449524922
 30
0.0
 11
2.362448222908099
 21
7.791371801329015
 31
0.0
  0
LINE
  5
1C6
330
1E
100
AcDbEntity
  8
IMAGE
100
AcDbLine
 10
2.542348391554325
 20
7.801651810965948
 30
0.0
 11
2.362019889173398
 21
7.814073489277264
 31
0.0
  0
LINE
  5
1C7
330
1E
100
AcDbEntity
  8
IMAGE
100
AcDbLine
 10
2.54149172408448
 20
7.822211830239739
 30
0.0
 11
2.363658948056684
 21
7.843689218648934
 31
0.0
  0
LINE
  5
1C8
330
1E
100
AcDbEntity
  8
IMAGE
100
AcDbLine
 10
2.542841003450877
 20
7.779848101758146
 30
0.0
 11
2.362019889173398
 21
7.800366809761365
 31
0.0
  0
LINE
  5
1C9
330
1E
100
AcDbEntity
  8
IMAGE
100
AcDbLine
 10
2.362019889173398
 20
7.800366809761365
 30
0.0
 11
2.416839817574063
 21
7.803484530807788
 31
0.0
  0
LINE
  5
1CA
330
1E
100
AcDbEntity
  8
IMAGE
100
AcDbLine
 10
2.542776725289021
 20
7.810646819398227
 30
0.0
 11
2.362019889173398
 21
7.822211830239739
 31
0.0
  0
LINE
  5
1CB
330
1E
100
AcDbEntity
  8
IMAGE
100
AcDbLine
 10
2.362019889173398
 20
7.822211830239739
 30
0.0
 11
2.416967686377843
 21
7.824959220100021
 31
0.0
  0
LINE
  5
1CC
330
1E
100
AcDbEntity
  8
IMAGE
100
AcDbLine
 10
2.541370709268781
 20
7.831270840444934
 30
0.0
 11
2.365706907015301
 21
7.851736526144444
 31
0.0
  0
LINE
  5
1CD
330
1E
100
AcDbEntity
  8
IMAGE
100
AcDbLine
 10
2.478710236659061
 20
7.798015344971856
 30
0.0
 11
2.542348391554325
 21
7.801651810965948
 31
0.0
  0
LINE
  5
1CE
330
1E
100
AcDbEntity
  8
IMAGE
100
AcDbLine
 10
2.478710236659061
 20
7.819358126265969
 30
0.0
 11
2.54149172408448
 21
7.822211830239739
 31
0.0
  0
LINE
  5
1CF
330
1E
100
AcDbEntity
  8
IMAGE
100
AcDbLine
 10
2.408061652764649
 20
7.795142212474361
 30
0.0
 11
2.416967686377843
 21
7.795651128680797
 31
0.0
  0
LINE
  5
1D0
330
1E
100
AcDbEntity
  8
IMAGE
100
AcDbLine
 10
2.416967686377843
 20
7.79993847602641
 30
0.0
 11
2.416967686377843
 21
7.810309050132881
 31
0.0
  0
LINE
  5
1D1
330
1E
100
AcDbEntity
  8
IMAGE
100
AcDbLine
 10
2.416967686377843
 20
7.794131598730961
 30
0.0
 11
2.416967686377843
 21
7.79993847602641
 31
0.0
  0
LINE
  5
1D2
330
1E
100
AcDbEntity
  8
IMAGE
100
AcDbLine
 10
2.478710236659061
 20
7.787125351890603
 30
0.0
 11
2.478710236659061
 21
7.806035436837577
 31
0.0
  0
LINE
  5
1D3
330
1E
100
AcDbEntity
  8
IMAGE
100
AcDbLine
 10
2.478710236659061
 20
7.814745860139973
 30
0.0
 11
2.478710236659061
 21
7.825676255979788
 31
0.0
  0
LINE
  5
1D4
330
1E
100
AcDbEntity
  8
IMAGE
100
AcDbLine
 10
2.416967686377843
 20
7.818785160360695
 30
0.0
 11
2.416967686377843
 21
7.825676255979788
 31
0.0
  0
LINE
  5
1D5
330
1E
100
AcDbEntity
  8
IMAGE
100
AcDbLine
 10
2.416418273501909
 20
7.845828405776972
 30
0.0
 11
2.416418273501909
 21
7.85819186396896
 31
0.0
  0
LINE
  5
1D6
330
1E
100
AcDbEntity
  8
IMAGE
100
AcDbLine
 10
2.478954998793268
 20
7.838542573704286
 30
0.0
 11
2.478954998793268
 21
7.857763530234075
 31
0.0
  0
ARC
  5
1D7
330
1E
100
AcDbEntity
  8
IMAGE
100
AcDbCircle
 10
2.538928202464568
 20
7.826707898643258
 30
0.0
 40
0.0051755457862211
100
AcDbArc
 50
299.6904749881143
 51
61.84020771027801
  0
ARC
  5
1D8
330
1E
100
AcDbEntity
  8
IMAGE
100
AcDbCircle
 10
2.541180020981082
 20
7.806215150298248
 30
0.0
 40
0.0047105366635529
100
AcDbArc
 50
284.3611712576872
 51
70.18620675450574
  0
ARC
  5
1D9
330
1E
100
AcDbEntity
  8
IMAGE
100
AcDbCircle
 10
2.540843999304817
 20
7.775661292689184
 30
0.0
 40
0.0046386851081559
100
AcDbArc
 50
300.5967983237887
 51
64.50001470819097
  0
ARC
  5
1DA
330
1E
100
AcDbEntity
  8
IMAGE
100
AcDbCircle
 10
2.3666086470984
 20
7.847222795715063
 30
0.0
 40
0.0046029226526689
100
AcDbArc
 50
101.2976632281976
 51
230.1461164898265
  0
LINE
  5
1DB
330
1E
100
AcDbEntity
  8
IMAGE
100
AcDbLine
 10
2.533353383121855
 20
7.853480192885379
 30
0.0
 11
2.505511690355293
 21
7.853480192885379
 31
0.0
  0
LINE
  5
1DC
330
1E
100
AcDbEntity
  8
IMAGE
100
AcDbLine
 10
2.505511690355293
 20
7.853480192885379
 30
0.0
 11
2.505511690355293
 21
7.843628516983335
 31
0.0
  0
LINE
  5
1DD
330
1E
100
AcDbEntity
  8
IMAGE
100
AcDbLine
 10
2.505511690355293
 20
7.843628516983335
 30
0.0
 11
2.533353383121855
 21
7.843628516983335
 31
0.0
  0
LINE
  5
1DE
330
1E
100
AcDbEntity
  8
IMAGE
100
AcDbLine
 10
2.36673156025694
 20
7.624749978464029
 30
0.0
 11
2.418287003772302
 21
7.624749978464029
 31
0.0
  0
LINE
  5
1DF
330
1E
100
AcDbEntity
  8
IMAGE
100
AcDbLine
 10
2.418287003772302
 20
7.624749978464029
 30
0.0
 11
2.418287003772302
 21
7.614469968826947
 31
0.0
  0
LINE
  5
1E0
330
1E
100
AcDbEntity
  8
IMAGE
100
AcDbLine
 10
2.418287003772302
 20
7.614469968826947
 30
0.0
 11
2.367087516833469
 21
7.614469968826947
 31
0.0
  0
ARC
  5
1E1
330
1E
100
AcDbEntity
  8
IMAGE
100
AcDbCircle
 10
2.533353383121855
 20
7.848554354934334
 30
0.0
 40
0.004925837951024
100
AcDbArc
 50
270.0
 51
90.00000000000003
  0
ARC
  5
1E2
330
1E
100
AcDbEntity
  8
IMAGE
100
AcDbCircle
 10
2.545537157092175
 20
7.74063352023535
 30
0.0
 40
0.004520783223477
100
AcDbArc
 50
267.5858099772507
 51
97.86681201058431
  0
ARC
  5
1E3
330
1E
100
AcDbEntity
  8
IMAGE
100
AcDbCircle
 10
2.548629772541504
 20
7.702132795290255
 30
0.0
 40
0.0037773251004148
100
AcDbArc
 50
259.1190383125036
 51
74.4970305123563
  0
ARC
  5
1E4
330
1E
100
AcDbEntity
  8
IMAGE
100
AcDbCircle
 10
2.548335097595822
 20
7.655794450402952
 30
0.0
 40
0.0045072390737615
100
AcDbArc
 50
264.6740685022613
 51
89.87330950989768
  0
ARC
  5
1E5
330
1E
100
AcDbEntity
  8
IMAGE
100
AcDbCircle
 10
2.363610928142811
 20
7.694436347954008
 30
0.0
 40
0.0041531090606907
100
AcDbArc
 50
106.2578292083121
 51
264.7455233655514
  0
ARC
  5
1E6
330
1E
100
AcDbEntity
  8
IMAGE
100
AcDbCircle
 10
2.362448222908099
 20
7.736769448555131
 30
0.0
 40
0.004507702638412
100
AcDbArc
 50
84.54737801215902
 51
269.9999999999679
  0
ARC
  5
1E7
330
1E
100
AcDbEntity
  8
IMAGE
100
AcDbCircle
 10
2.362019889173398
 20
7.766314277838995
 30
0.0
 40
0.0044975042161515
100
AcDbArc
 50
90.0
 51
269.9999999999999
  0
ARC
  5
1E8
330
1E
100
AcDbEntity
  8
IMAGE
100
AcDbCircle
 10
2.362690052916118
 20
7.795891019682068
 30
0.0
 40
0.0045256840671336
100
AcDbArc
 50
98.51568181692371
 51
266.9369401709079
  0
ARC
  5
1E9
330
1E
100
AcDbEntity
  8
IMAGE
100
AcDbCircle
 10
2.362019889173398
 20
7.818142659758423
 30
0.0
 40
0.0040691704812801
100
AcDbArc
 50
90.0
 51
269.9999999999999
  0
ARC
  5
1EA
330
1E
100
AcDbEntity
  8
IMAGE
100
AcDbCircle
 10
2.533353383121855
 20
7.848768521801764
 30
0.0
 40
0.0064250060230737
100
AcDbArc
 50
233.1301029376212
 51
132.8334278476237
  0
ARC
  5
1EB
330
1E
100
AcDbEntity
  8
IMAGE
100
AcDbCircle
 10
2.365874892787097
 20
7.84919685553668
 30
0.0
 40
0.0071288941214513
100
AcDbArc
 50
13.91116701526151
 51
299.573172725483
  0
ARC
  5
1EC
330
1E
100
AcDbEntity
  8
IMAGE
100
AcDbCircle
 10
2.550058398781793
 20
7.620038307380367
 30
0.0
 40
0.0075779973461522
100
AcDbArc
 50
198.6466700354495
 51
134.7670628459139
  0
ARC
  5
1ED
330
1E
100
AcDbEntity
  8
IMAGE
100
AcDbCircle
 10
2.367159893991638
 20
7.620038307380367
 30
0.0
 40
0.0068667121409213
100
AcDbArc
 50
43.3269930624449
 51
304.6951535312333
  0
TEXT
  5
1EE
330
1E
100
AcDbEntity
  8
IMAGE
100
AcDbText
 10
1.754832161755297
 20
7.623853686149823
 30
0.0
 40
0.0246891840388007
  1
6 
  7
SIMPLEX
100
AcDbText
  0
LINE
  5
1EF
330
1E
100
AcDbEntity
  8
IMAGE
100
AcDbLine
 10
2.366409188918272
 20
7.051562403866189
 30
0.0
 11
2.528668215359935
 21
7.051562403866189
 31
0.0
  0
LINE
  5
1F0
330
1E
100
AcDbEntity
  8
IMAGE
100
AcDbLine
 10
2.528668215359935
 20
7.051562403866189
 30
0.0
 11
2.640420127749058
 21
7.025168490299062
 31
0.0
  0
LINE
  5
1F1
330
1E
100
AcDbEntity
  8
IMAGE
100
AcDbLine
 10
2.365609883369213
 20
7.062752681551813
 30
0.0
 11
2.529467520908994
 21
7.062752681551813
 31
0.0
  0
LINE
  5
1F2
330
1E
100
AcDbEntity
  8
IMAGE
100
AcDbLine
 10
2.364810577820453
 20
7.076340875884392
 30
0.0
 11
2.529467520908994
 21
7.076340875884392
 31
0.0
  0
LINE
  5
1F3
330
1E
100
AcDbEntity
  8
IMAGE
100
AcDbLine
 10
2.529467520908994
 20
7.076340875884392
 30
0.0
 11
2.657716493642947
 21
7.0877226538007
 31
0.0
  0
LINE
  5
1F4
330
1E
100
AcDbEntity
  8
IMAGE
100
AcDbLine
 10
2.364810577820453
 20
7.101918653451551
 30
0.0
 11
2.527868909810804
 21
7.101918653451551
 31
0.0
  0
LINE
  5
1F5
330
1E
100
AcDbEntity
  8
IMAGE
100
AcDbLine
 10
2.527868909810804
 20
7.101918653451551
 30
0.0
 11
2.603010303775223
 21
7.082867615273334
 31
0.0
  0
LINE
  5
1F6
330
1E
100
AcDbEntity
  8
IMAGE
100
AcDbLine
 10
2.641363700661434
 20
7.073143653688459
 30
0.0
 11
2.645541817637402
 21
7.077321770664541
 31
0.0
  0
LINE
  5
1F7
330
1E
100
AcDbEntity
  8
IMAGE
100
AcDbLine
 10
2.628748966646622
 20
7.08515185769974
 30
0.0
 11
2.528668215359935
 21
7.114707542234954
 31
0.0
  0
LINE
  5
1F8
330
1E
100
AcDbEntity
  8
IMAGE
100
AcDbLine
 10
2.528668215359935
 20
7.114707542234954
 30
0.0
 11
2.365609883369213
 21
7.114707542234954
 31
0.0
  0
LINE
  5
1F9
330
1E
100
AcDbEntity
  8
IMAGE
100
AcDbLine
 10
2.365609883369213
 20
7.126697125469679
 30
0.0
 11
2.528668215359935
 21
7.126697125469679
 31
0.0
  0
LINE
  5
1FA
330
1E
100
AcDbEntity
  8
IMAGE
100
AcDbLine
 10
2.528668215359935
 20
7.126697125469679
 30
0.0
 11
2.650156061700036
 21
7.148278375291981
 31
0.0
  0
LINE
  5
1FB
330
1E
100
AcDbEntity
  8
IMAGE
100
AcDbLine
 10
2.650156061700036
 20
7.148278375291981
 30
0.0
 11
2.654152589444725
 21
7.139486014253233
 31
0.0
  0
LINE
  5
1FC
330
1E
100
AcDbEntity
  8
IMAGE
100
AcDbLine
 10
2.654152589444725
 20
7.139486014253233
 30
0.0
 11
2.528668215359935
 21
7.115506847784091
 31
0.0
  0
ARC
  5
1FD
330
1E
100
AcDbEntity
  8
IMAGE
100
AcDbCircle
 10
2.366078611931865
 20
7.108258824009666
 30
0.0
 40
0.0064657306791705
100
AcDbArc
 50
94.15726372402088
 51
258.6900675259793
  0
ARC
  5
1FE
330
1E
100
AcDbEntity
  8
IMAGE
100
AcDbCircle
 10
2.365199281203652
 20
7.120702333852447
 30
0.0
 40
0.0060088368818952
100
AcDbArc
 50
86.08175113591975
 51
273.91824886406
  0
ARC
  5
1FF
330
1E
100
AcDbEntity
  8
IMAGE
100
AcDbCircle
 10
2.364797505065942
 20
7.069522500745778
 30
0.0
 40
0.0068183876706294
100
AcDbArc
 50
89.89014791423272
 51
276.8427734126303
  0
LINE
  5
200
330
1E
100
AcDbEntity
  8
IMAGE
100
AcDbLine
 10
2.529467520908994
 20
7.062752681551813
 30
0.0
 11
2.645978314883242
 21
7.03187101007872
 31
0.0
  0
LINE
  5
201
330
1E
100
AcDbEntity
  8
IMAGE
100
AcDbLine
 10
2.522584154487075
 20
7.126697125469679
 30
0.0
 11
2.522584154487075
 21
7.15232905797249
 31
0.0
  0
LINE
  5
202
330
1E
100
AcDbEntity
  8
IMAGE
100
AcDbLine
 10
2.522584154487075
 20
7.076340875884392
 30
0.0
 11
2.522584154487075
 21
7.101918653451551
 31
0.0
  0
LINE
  5
203
330
1E
100
AcDbEntity
  8
IMAGE
100
AcDbLine
 10
2.371849881261701
 20
7.126697125469679
 30
0.0
 11
2.371849881261701
 21
7.15232905797249
 31
0.0
  0
LINE
  5
204
330
1E
100
AcDbEntity
  8
IMAGE
100
AcDbLine
 10
2.371849881261701
 20
7.076483262297882
 30
0.0
 11
2.371849881261701
 21
7.101918653451551
 31
0.0
  0
LINE
  5
205
330
1E
100
AcDbEntity
  8
IMAGE
100
AcDbLine
 10
2.529467520908994
 20
7.062752681551813
 30
0.0
 11
2.657716493643167
 21
7.078849877615462
 31
0.0
  0
ARC
  5
206
330
1E
100
AcDbEntity
  8
IMAGE
100
AcDbCircle
 10
2.525213679446071
 20
7.120866162459808
 30
0.0
 40
0.0067774588159479
100
AcDbArc
 50
297.9465009480676
 51
59.35551081782779
  0
ARC
  5
207
330
1E
100
AcDbEntity
  8
IMAGE
100
AcDbCircle
 10
2.526148484024217
 20
7.069642268651994
 30
0.0
 40
0.0074757838850566
100
AcDbArc
 50
292.8407591538867
 51
63.64242935810609
  0
LINE
  5
208
330
1E
100
AcDbEntity
  8
IMAGE
100
AcDbLine
 10
2.645978314883242
 20
7.03187101007872
 30
0.0
 11
2.640420127749058
 21
7.025168490299062
 31
0.0
  0
ARC
  5
209
330
1E
100
AcDbEntity
  8
IMAGE
100
AcDbCircle
 10
2.365035098272249
 20
7.057087940003807
 30
0.0
 40
0.0056938277733615
100
AcDbArc
 50
84.20619063184155
 51
283.9650429278988
  0
ARC
  5
20A
330
1E
100
AcDbEntity
  8
IMAGE
100
AcDbCircle
 10
2.367087416489436
 20
7.61960997364549
 30
0.0
 40
0.005140004818456
100
AcDbArc
 50
89.99888146252761
 51
270.0011185374723
  0
ARC
  5
20B
330
1E
100
AcDbEntity
  8
IMAGE
100
AcDbCircle
 10
2.361800561427825
 20
7.670349136109711
 30
0.0
 40
0.0041180189364335
100
AcDbArc
 50
95.29056452857238
 51
255.8893738514848
  0
ARC
  5
20C
330
1E
100
AcDbEntity
  8
IMAGE
100
AcDbCircle
 10
2.39549008633079
 20
7.660682929797554
 30
0.0
 40
0.0214776000468803
100
AcDbArc
 50
357.1064511458359
 51
0.0
  0
ARC
  5
20D
330
1E
100
AcDbEntity
  8
IMAGE
100
AcDbCircle
 10
2.552742722934814
 20
7.619111473811992
 30
0.0
 40
0.0040208691694722
100
AcDbArc
 50
248.6338110398958
 51
76.0948399531927
  0
LINE
  5
20E
330
1E
100
AcDbEntity
  8
IMAGE
100
AcDbLine
 10
2.478710236659061
 20
7.71918850173891
 30
0.0
 11
2.478710236659061
 21
7.745458313694991
 31
0.0
  0
LINE
  5
20F
330
1E
100
AcDbEntity
  8
IMAGE
100
AcDbLine
 10
2.657716493643167
 20
7.0877226538007
 30
0.0
 11
2.657716493643167
 21
7.078849877615462
 31
0.0
  0
LINE
  5
210
330
1E
100
AcDbEntity
  8
IMAGE
100
AcDbLine
 10
2.631724630682246
 20
7.075587503615698
 30
0.0
 11
2.641363700661434
 21
7.073143653688459
 31
0.0
  0
LINE
  5
211
330
1E
100
AcDbEntity
  8
IMAGE
100
AcDbLine
 10
2.341114344244106
 20
7.577741327506492
 30
0.0
 11
2.341114344244106
 21
7.509444611282571
 31
0.0
  0
ARC
  5
212
330
1E
100
AcDbEntity
  8
IMAGE
100
AcDbCircle
 10
2.377988478167599
 20
7.470681571341303
 30
0.0
 40
0.0053694000117201
100
AcDbArc
 50
270.0
 51
0.0
  0
ARC
  5
213
330
1E
100
AcDbEntity
  8
IMAGE
100
AcDbCircle
 10
2.388727278191126
 20
7.52356592486703
 30
0.0
 40
0.0053694000117201
100
AcDbArc
 50
90.0
 51
179.9999999999999
  0
ARC
  5
214
330
1E
100
AcDbEntity
  8
IMAGE
100
AcDbCircle
 10
2.421764114408558
 20
7.52356592486703
 30
0.0
 40
0.0053694000117201
100
AcDbArc
 50
0.0
 51
90.0
  0
LINE
  5
215
330
1E
100
AcDbEntity
  8
IMAGE
100
AcDbLine
 10
2.145321468242542
 20
7.337083742413962
 30
0.0
 11
2.145321468242542
 21
7.336956195435117
 31
0.0
  0
LINE
  5
216
330
1E
100
AcDbEntity
  8
IMAGE
100
AcDbLine
 10
2.235742484912746
 20
7.395944582999613
 30
0.0
 11
2.362969686459567
 21
7.406954629287312
 31
0.0
  0
ARC
  5
217
330
1E
100
AcDbEntity
  8
IMAGE
100
AcDbCircle
 10
2.362969686459567
 20
7.445353316499767
 30
0.0
 40
0.038398687212376
100
AcDbArc
 50
269.999999999999
 51
271.0013900768628
  0
LINE
  5
218
330
1E
100
AcDbEntity
  8
IMAGE
100
AcDbLine
 10
2.388727278191126
 20
7.528935324878753
 30
0.0
 11
2.421764114408558
 21
7.528935324878718
 31
0.0
  0
LINE
  5
219
330
1E
100
AcDbEntity
  8
IMAGE
100
AcDbLine
 10
2.38335787817944
 20
7.470681571341303
 30
0.0
 11
2.38335787817944
 21
7.52356592486703
 31
0.0
  0
LINE
  5
21A
330
1E
100
AcDbEntity
  8
IMAGE
100
AcDbLine
 10
2.209958200568157
 20
7.465312171329467
 30
0.0
 11
2.346906596112932
 21
7.465312171329467
 31
0.0
  0
LINE
  5
21B
330
1E
100
AcDbEntity
  8
IMAGE
100
AcDbLine
 10
2.14114710765523
 20
7.336956195435117
 30
0.0
 11
2.278307888147345
 21
7.336956195435117
 31
0.0
  0
LINE
  5
21C
330
1E
100
AcDbEntity
  8
IMAGE
100
AcDbLine
 10
2.209958200568157
 20
7.466276898677733
 30
0.0
 11
2.14114710765523
 21
7.466276898677733
 31
0.0
  0
LINE
  5
21D
330
1E
100
AcDbEntity
  8
IMAGE
100
AcDbLine
 10
2.335014609264016
 20
7.658368462578954
 30
0.0
 11
2.009906866799347
 21
7.658368462578954
 31
0.0
  0
LINE
  5
21E
330
1E
100
AcDbEntity
  8
IMAGE
100
AcDbLine
 10
1.918238393992416
 20
7.650509643021765
 30
0.0
 11
1.918238393992416
 21
7.612444354270246
 31
0.0
  0
ARC
  5
21F
330
1E
100
AcDbEntity
  8
IMAGE
100
AcDbCircle
 10
1.932616615146383
 20
7.612444354270246
 30
0.0
 40
0.0143782211539676
100
AcDbArc
 50
180.0
 51
270.0
  0
LINE
  5
220
330
1E
100
AcDbEntity
  8
IMAGE
100
AcDbLine
 10
1.996942390414901
 20
7.658368462578954
 30
0.0
 11
1.780954093428784
 21
7.701129435153147
 31
0.0
  0
LINE
  5
221
330
1E
100
AcDbEntity
  8
IMAGE
100
AcDbLine
 10
2.009906866799347
 20
7.658368462578954
 30
0.0
 11
1.926097213549605
 21
7.658368462578954
 31
0.0
  0
ARC
  5
222
330
1E
100
AcDbEntity
  8
IMAGE
100
AcDbCircle
 10
1.926097213549605
 20
7.650509643021765
 30
0.0
 40
0.0078588195571891
100
AcDbArc
 50
90.0
 51
180.0
  0
LINE
  5
223
330
1E
100
AcDbEntity
  8
IMAGE
100
AcDbLine
 10
1.932616615146383
 20
7.598066133116274
 30
0.0
 11
2.341114344244106
 21
7.598066133116274
 31
0.0
  0
LINE
  5
224
330
1E
100
AcDbEntity
  8
IMAGE
100
AcDbLine
 10
2.354154867135452
 20
7.650477225161393
 30
0.0
 11
2.365501286648147
 21
7.639205329750575
 31
0.0
  0
ARC
  5
225
330
1E
100
AcDbEntity
  8
IMAGE
100
AcDbCircle
 10
2.335014609264016
 20
7.631210421533856
 30
0.0
 40
0.0271580410451001
100
AcDbArc
 50
45.188780688233
 51
90.0
  0
LWPOLYLINE
  5
226
330
1E
100
AcDbEntity
  8
IMAGE
100
AcDbPolyline
 90
        2
 70
     0
 43
0.0
 10
2.341114344244106
 20
7.577741327506491
 42
-0.2233585005404296
 10
2.351212523816894
 20
7.568946036059522
 42
0.6523496497246127
  0
LWPOLYLINE
  5
22A
330
1E
100
AcDbEntity
  8
IMAGE
100
AcDbPolyline
 90
        2
 70
     0
 43
0.0
 10
2.341114344244106
 20
7.598066133116273
 42
-0.2233585005404296
 10
2.351212523816894
 20
7.589270841669304
 42
0.6523496497246127
  0
LINE
  5
22E
330
1E
100
AcDbEntity
  8
IMAGE
100
AcDbLine
 10
2.417655270982221
 20
7.574659348417425
 30
0.0
 11
2.417655270982221
 21
7.528935324878721
 31
0.0
  0
LINE
  5
22F
330
1E
100
AcDbEntity
  8
IMAGE
100
AcDbLine
 10
2.427133514420019
 20
7.509444611282571
 30
0.0
 11
2.498806458460441
 21
7.509444611282571
 31
0.0
  0
LINE
  5
230
330
1E
100
AcDbEntity
  8
IMAGE
100
AcDbLine
 10
2.372954864339098
 20
7.521585400043116
 30
0.0
 11
2.372954864339098
 21
7.562518559656878
 31
0.0
  0
LINE
  5
231
330
1E
100
AcDbEntity
  8
IMAGE
100
AcDbLine
 10
2.372954864339098
 20
7.521585400043116
 30
0.0
 11
2.372954864339098
 21
7.562518559656878
 31
0.0
  0
LINE
  5
232
330
1E
100
AcDbEntity
  8
IMAGE
100
AcDbLine
 10
2.385814750887226
 20
7.528076760841647
 30
0.0
 11
2.385814750887226
 21
7.562518559656878
 31
0.0
  0
LINE
  5
233
330
1E
100
AcDbEntity
  8
IMAGE
100
AcDbLine
 10
2.341114344244106
 20
7.509444611282571
 30
0.0
 11
2.360814075578554
 21
7.509444611282571
 31
0.0
  0
ARC
  5
234
330
1E
100
AcDbEntity
  8
IMAGE
100
AcDbCircle
 10
2.360814075578554
 20
7.521585400043116
 30
0.0
 40
0.0121407887605448
100
AcDbArc
 50
270.0
 51
0.0
  0
LINE
  5
235
330
1E
100
AcDbEntity
  8
IMAGE
100
AcDbLine
 10
2.351212523816894
 20
7.589270841669305
 30
0.0
 11
2.359071343374083
 21
7.574659348417425
 31
0.0
  0
LINE
  5
236
330
1E
100
AcDbEntity
  8
IMAGE
100
AcDbLine
 10
2.397955539647773
 20
7.574659348417425
 30
0.0
 11
2.417655270982221
 21
7.574659348417425
 31
0.0
  0
ARC
  5
237
330
1E
100
AcDbEntity
  8
IMAGE
100
AcDbCircle
 10
2.397955539647773
 20
7.562518559656878
 30
0.0
 40
0.0121407887605448
100
AcDbArc
 50
90.0
 51
180.0
  0
LINE
  5
238
330
1E
100
AcDbEntity
  8
IMAGE
100
AcDbLine
 10
2.360814075578554
 20
7.574659348417421
 30
0.0
 11
2.359071343374083
 21
7.574659348417421
 31
0.0
  0
ARC
  5
239
330
1E
100
AcDbEntity
  8
IMAGE
100
AcDbCircle
 10
2.360814075578554
 20
7.562518559656878
 30
0.0
 40
0.0121407887605448
100
AcDbArc
 50
0.0000000000001018
 51
90.0
  0
LINE
  5
23A
330
1E
100
AcDbEntity
  8
IMAGE
100
AcDbLine
 10
2.397955539647773
 20
7.574659348417425
 30
0.0
 11
2.360814075578554
 21
7.574659348417421
 31
0.0
  0
LINE
  5
23B
330
1E
100
AcDbEntity
  8
IMAGE
100
AcDbLine
 10
2.38335787817944
 20
7.509444611282571
 30
0.0
 11
2.360814075578554
 21
7.509444611282571
 31
0.0
  0
LINE
  5
23C
330
1E
100
AcDbEntity
  8
IMAGE
100
AcDbLine
 10
2.14114710765523
 20
7.328869399318639
 30
0.0
 11
2.463303532095698
 21
7.328869399318639
 31
0.0
  0
LINE
  5
23D
330
1E
100
AcDbEntity
  8
IMAGE
100
AcDbLine
 10
2.463303532095698
 20
7.303461044032474
 30
0.0
 11
2.463303532095698
 21
7.357889881321346
 31
0.0
  0
LINE
  5
23E
330
1E
100
AcDbEntity
  8
IMAGE
100
AcDbLine
 10
2.463303532095698
 20
7.357889881321346
 30
0.0
 11
2.449564239219352
 21
7.357889881321346
 31
0.0
  0
LINE
  5
23F
330
1E
100
AcDbEntity
  8
IMAGE
100
AcDbLine
 10
2.449564239219352
 20
7.357889881321346
 30
0.0
 11
2.44956423921935
 21
7.328869399318639
 31
0.0
  0
LINE
  5
240
330
1E
100
AcDbEntity
  8
IMAGE
100
AcDbLine
 10
2.498806458460441
 20
7.527215431110951
 30
0.0
 11
2.55146398600659
 21
7.527215431110951
 31
0.0
  0
LWPOLYLINE
  5
241
330
1E
100
AcDbEntity
  8
IMAGE
100
AcDbPolyline
 90
        2
 70
     0
 43
0.0
 10
2.507455786268293
 20
7.264367691260669
 42
-0.2600169401948678
 10
2.55146398600659
 20
7.3521673722605
  0
LINE
  5
245
330
1E
100
AcDbEntity
  8
IMAGE
100
AcDbLine
 10
2.55146398600659
 20
7.527215431110951
 30
0.0
 11
2.593596842809818
 21
7.549493038225714
 31
0.0
  0
LINE
  5
246
330
1E
100
AcDbEntity
  8
IMAGE
100
AcDbLine
 10
2.628130822040416
 20
7.663397301280122
 30
0.0
 11
2.860979380784202
 21
7.786515197917418
 31
0.0
  0
LINE
  5
247
330
1E
100
AcDbEntity
  8
IMAGE
100
AcDbLine
 10
2.657662164630442
 20
7.583367362861865
 30
0.0
 11
2.929476273006443
 21
7.727088163540807
 31
0.0
  0
LINE
  5
248
330
1E
100
AcDbEntity
  8
IMAGE
100
AcDbLine
 10
2.835818725034437
 20
7.642033263586762
 30
0.0
 11
2.897327174093588
 21
7.525704491692762
 31
0.0
  0
LINE
  5
249
330
1E
100
AcDbEntity
  8
IMAGE
100
AcDbLine
 10
2.522356221053417
 20
7.466954128556126
 30
0.0
 11
2.590374839473771
 21
7.502918745546965
 31
0.0
  0
LINE
  5
24A
330
1E
100
AcDbEntity
  8
IMAGE
100
AcDbLine
 10
2.784499370362818
 20
7.614898326449763
 30
0.0
 11
2.846007819421968
 21
7.498569554555766
 31
0.0
  0
LINE
  5
24B
330
1E
100
AcDbEntity
  8
IMAGE
100
AcDbLine
 10
2.784499370362818
 20
7.614898326449763
 30
0.0
 11
2.835818725034437
 21
7.642033263586762
 31
0.0
  0
LINE
  5
24C
330
1E
100
AcDbEntity
  8
IMAGE
100
AcDbLine
 10
2.846007819421968
 20
7.498569554555766
 30
0.0
 11
2.897327174093588
 21
7.525704491692762
 31
0.0
  0
LWPOLYLINE
  5
24D
330
1E
100
AcDbEntity
  8
IMAGE
100
AcDbPolyline
 90
        2
 70
     0
 43
0.0
 10
2.55146398600659
 20
7.3521673722605
 10
2.842149621148776
 20
7.505866429598285
  0
LINE
  5
251
330
1E
100
AcDbEntity
  8
IMAGE
100
AcDbLine
 10
2.378678878368061
 20
7.26436769126067
 30
0.0
 11
2.378678878368061
 21
7.21049282644544
 31
0.0
  0
LINE
  5
252
330
1E
100
AcDbEntity
  8
IMAGE
100
AcDbLine
 10
2.515709880967374
 20
7.26436769126067
 30
0.0
 11
2.515709880967374
 21
7.21049282644544
 31
0.0
  0
LINE
  5
253
330
1E
100
AcDbEntity
  8
IMAGE
100
AcDbLine
 10
2.538179977690669
 20
7.82206129630884
 30
0.0
 11
2.599251515140549
 21
7.521680490837757
 31
0.0
  0
ARC
  5
254
330
1E
100
AcDbEntity
  8
IMAGE
100
AcDbCircle
 10
2.582279179986592
 20
7.5182297823268
 30
0.0
 40
0.0173195712939384
100
AcDbArc
 50
297.8674974388279
 51
11.49237509417364
  0
LWPOLYLINE
  5
255
330
1E
100
AcDbEntity
  8
IMAGE
100
AcDbPolyline
 90
        2
 70
     0
 43
0.0
 10
2.68203205202999
 20
7.51732496800776
 42
-0.2005149959316301
 10
2.681282956011001
 20
7.484619854943331
  0
LWPOLYLINE
  5
259
330
1E
100
AcDbEntity
  8
IMAGE
100
AcDbPolyline
 90
        2
 70
     0
 43
0.0
 10
2.656650902119872
 20
7.503904769884017
 42
-0.2908297603287861
 10
2.650920077819966
 20
7.468877530008062
  0
LINE
  5
25D
330
1E
100
AcDbEntity
  8
IMAGE
100
AcDbLine
 10
2.614092500198493
 20
7.515459379327731
 30
0.0
 11
2.638928916403269
 21
7.528591551326721
 31
0.0
  0
LINE
  5
25E
330
1E
100
AcDbEntity
  8
IMAGE
100
AcDbLine
 10
2.671516495939922
 20
7.545822125012458
 30
0.0
 11
2.788357568636008
 21
7.607601451407242
 31
0.0
  0
LINE
  5
25F
330
1E
100
AcDbEntity
  8
IMAGE
100
AcDbLine
 10
2.616775528552905
 20
7.611967032250463
 30
0.0
 11
2.541920121817764
 21
7.814825184503371
 31
0.0
  0
LINE
  5
260
330
1E
100
AcDbEntity
  8
IMAGE
100
AcDbLine
 10
2.616775528552905
 20
7.611967032250463
 30
0.0
 11
2.644023199858409
 21
7.53812584301332
 31
0.0
  0
LINE
  5
261
330
1E
100
AcDbEntity
  8
IMAGE
100
AcDbLine
 10
2.656650902119872
 20
7.503904769884018
 30
0.0
 11
2.644023199858409
 21
7.53812584301332
 31
0.0
  0
LINE
  5
262
330
1E
100
AcDbEntity
  8
IMAGE
100
AcDbLine
 10
2.684915547813352
 20
7.623314611037747
 30
0.0
 11
2.882916500267119
 21
7.728006952402472
 31
0.0
  0
LINE
  5
263
330
1E
100
AcDbEntity
  8
IMAGE
100
AcDbLine
 10
2.561488242394073
 20
7.761795577741393
 30
0.0
 11
2.588186201427609
 21
7.771647223141192
 31
0.0
  0
LINE
  5
264
330
1E
100
AcDbEntity
  8
IMAGE
100
AcDbLine
 10
2.578180450504735
 20
7.716559693761348
 30
0.0
 11
2.604878409538271
 21
7.726411339161147
 31
0.0
  0
ARC
  5
265
330
1E
100
AcDbEntity
  8
IMAGE
100
AcDbCircle
 10
2.675493694640783
 20
7.64113383140984
 30
0.0
 40
0.0201567837681153
100
AcDbArc
 50
200.2542469033189
 51
297.8674974388279
  0
LINE
  5
266
330
1E
100
AcDbEntity
  8
IMAGE
100
AcDbLine
 10
2.648220371437918
 20
7.656819337545998
 30
0.0
 11
2.656583291924574
 21
7.6341558230274
 31
0.0
  0
LINE
  5
267
330
1E
100
AcDbEntity
  8
IMAGE
100
AcDbLine
 10
2.870005416770352
 20
7.646373524087037
 30
0.0
 11
2.920161987548361
 21
7.551514161344707
 31
0.0
  0
LINE
  5
268
330
1E
100
AcDbEntity
  8
IMAGE
100
AcDbLine
 10
2.945853322902383
 20
7.675415918227356
 30
0.0
 11
2.95430061158683
 21
7.65943985748242
 31
0.0
  0
LINE
  5
269
330
1E
100
AcDbEntity
  8
IMAGE
100
AcDbLine
 10
2.874026912588819
 20
7.638767810125868
 30
0.0
 11
2.845516159993476
 21
7.623692845049758
 31
0.0
  0
LINE
  5
26A
330
1E
100
AcDbEntity
  8
IMAGE
100
AcDbLine
 10
2.916140491729896
 20
7.559119875305876
 30
0.0
 11
2.887629739134551
 21
7.544044910229766
 31
0.0
  0
LINE
  5
26B
330
1E
100
AcDbEntity
  8
IMAGE
100
AcDbLine
 10
2.921346254417469
 20
7.673519820275474
 30
0.0
 11
2.870005416770352
 21
7.646373524087037
 31
0.0
  0
LINE
  5
26C
330
1E
100
AcDbEntity
  8
IMAGE
100
AcDbLine
 10
2.971502825195477
 20
7.578660457533141
 30
0.0
 11
2.920161987548361
 21
7.551514161344707
 31
0.0
  0
LINE
  5
26D
330
1E
100
AcDbEntity
  8
IMAGE
100
AcDbLine
 10
2.921346254417469
 20
7.673519820275474
 30
0.0
 11
2.945853322902383
 21
7.675415918227356
 31
0.0
  0
LINE
  5
26E
330
1E
100
AcDbEntity
  8
IMAGE
100
AcDbLine
 10
2.971502825195477
 20
7.578660457533141
 30
0.0
 11
2.986867844393053
 21
7.597846592584934
 31
0.0
  0
LINE
  5
26F
330
1E
100
AcDbEntity
  8
IMAGE
100
AcDbLine
 10
3.216599535463998
 20
7.79812953618263
 30
0.0
 11
2.88302373009847
 21
7.621752444792145
 31
0.0
  0
LINE
  5
270
330
1E
100
AcDbEntity
  8
IMAGE
100
AcDbLine
 10
3.240719479585775
 20
7.752512332030081
 30
0.0
 11
2.907143674220245
 21
7.576135240639596
 31
0.0
  0
LINE
  5
271
330
1E
100
AcDbEntity
  8
IMAGE
100
AcDbLine
 10
3.216599535463998
 20
7.79812953618263
 30
0.0
 11
3.240719479585775
 21
7.752512332030081
 31
0.0
  0
LINE
  5
272
330
1E
100
AcDbEntity
  8
IMAGE
100
AcDbLine
 10
2.978420555708606
 20
7.61382265332987
 30
0.0
 11
2.986867844393053
 21
7.597846592584934
 31
0.0
  0
CIRCLE
  5
273
330
1E
100
AcDbEntity
  8
IMAGE
100
AcDbCircle
 10
3.204615753703619
 20
7.762731414172501
 30
0.0
 40
0.0161254270144923
  0
LINE
  5
274
330
1E
100
AcDbEntity
  8
IMAGE
100
AcDbLine
 10
2.973061990677896
 20
7.713652376021572
 30
0.0
 11
2.991364589960777
 21
7.679037312081364
 31
0.0
  0
LINE
  5
275
330
1E
100
AcDbEntity
  8
IMAGE
100
AcDbLine
 10
3.015484534082553
 20
7.633420107928811
 30
0.0
 11
3.033787133365434
 21
7.598805043988603
 31
0.0
  0
ARC
  5
276
330
1E
100
AcDbEntity
  8
IMAGE
100
AcDbCircle
 10
2.944551238082551
 20
7.698577410945462
 30
0.0
 40
0.0322508540289845
100
AcDbArc
 50
27.86749743882799
 51
117.8674974388278
  0
LINE
  5
277
330
1E
100
AcDbEntity
  8
IMAGE
100
AcDbLine
 10
2.882916500267119
 20
7.728006952402472
 30
0.0
 11
2.918923797453166
 21
7.747045690357547
 31
0.0
  0
ARC
  5
278
330
1E
100
AcDbEntity
  8
IMAGE
100
AcDbCircle
 10
2.944551238082551
 20
7.698577410945462
 30
0.0
 40
0.0548264518492739
100
AcDbArc
 50
48.90272163680367
 51
117.8674974388278
  0
LINE
  5
279
330
1E
100
AcDbEntity
  8
IMAGE
100
AcDbLine
 10
3.172299478553094
 20
7.818998531354589
 30
0.0
 11
2.973061990677896
 21
7.713652376021572
 31
0.0
  0
LINE
  5
27A
330
1E
100
AcDbEntity
  8
IMAGE
100
AcDbLine
 10
3.044338872166258
 20
7.751339788711847
 30
0.0
 11
3.062641471449138
 21
7.716724724771639
 31
0.0
  0
LINE
  5
27B
330
1E
100
AcDbEntity
  8
IMAGE
100
AcDbLine
 10
3.086761415570915
 20
7.671107520619086
 30
0.0
 11
3.105064014853795
 21
7.636492456678878
 31
0.0
  0
LINE
  5
27C
330
1E
100
AcDbEntity
  8
IMAGE
100
AcDbLine
 10
3.240148123771605
 20
7.727259853704739
 30
0.0
 11
3.229838100414795
 21
7.746758839187899
 31
0.0
  0
LINE
  5
27D
330
1E
100
AcDbEntity
  8
IMAGE
100
AcDbLine
 10
3.20571815629302
 20
7.792376043340452
 30
0.0
 11
3.195408132936208
 21
7.811875028823616
 31
0.0
  0
LINE
  5
27E
330
1E
100
AcDbEntity
  8
IMAGE
100
AcDbLine
 10
3.23302462124063
 20
7.704151199321623
 30
0.0
 11
3.033787133365434
 21
7.598805043988603
 31
0.0
  0
LINE
  5
27F
330
1E
100
AcDbEntity
  8
IMAGE
100
AcDbLine
 10
3.386450463106694
 20
7.795545128124567
 30
0.0
 11
3.334213319554566
 21
7.894339405164883
 31
0.0
  0
LINE
  5
280
330
1E
100
AcDbEntity
  8
IMAGE
100
AcDbLine
 10
3.334213319554566
 20
7.894339405164883
 30
0.0
 11
3.189893912386954
 21
7.818031001323875
 31
0.0
  0
LINE
  5
281
330
1E
100
AcDbEntity
  8
IMAGE
100
AcDbLine
 10
3.386450463106694
 20
7.795545128124567
 30
0.0
 11
3.242131055939086
 21
7.719236724283563
 31
0.0
  0
ARC
  5
282
330
1E
100
AcDbEntity
  8
IMAGE
100
AcDbCircle
 10
3.180292054479165
 20
7.803882452897548
 30
0.0
 40
0.0170990379218686
100
AcDbArc
 50
27.86749743882784
 51
117.8674974388279
  0
ARC
  5
283
330
1E
100
AcDbEntity
  8
IMAGE
100
AcDbCircle
 10
3.225032045314561
 20
7.719267277778667
 30
0.0
 40
0.0170990379218686
100
AcDbArc
 50
297.8674974388279
 51
27.86749743882784
  0
LINE
  5
284
330
1E
100
AcDbEntity
  8
IMAGE
100
AcDbLine
 10
3.177019468627849
 20
7.777201708224749
 30
0.0
 11
3.165208801634683
 21
7.799538808372448
 31
0.0
  0
LINE
  5
285
330
1E
100
AcDbEntity
  8
IMAGE
100
AcDbLine
 10
3.213050848627879
 20
7.709056823267255
 30
0.0
 11
3.201139412749624
 21
7.731584504072197
 31
0.0
  0
LINE
  5
286
330
1E
100
AcDbEntity
  8
IMAGE
100
AcDbLine
 10
3.320394412656701
 20
7.773844268622196
 30
0.0
 11
3.279087841818741
 21
7.851965936949609
 31
0.0
  0
LINE
  5
287
330
1E
100
AcDbEntity
  8
IMAGE
100
AcDbLine
 10
3.330816854789379
 20
7.779355100040357
 30
0.0
 11
3.289510283951416
 21
7.857476768367773
 31
0.0
  0
LINE
  5
288
330
1E
100
AcDbEntity
  8
IMAGE
100
AcDbLine
 10
3.203146252058528
 20
7.703819800958688
 30
0.0
 11
3.191234816180275
 21
7.72634748176363
 31
0.0
  0
LINE
  5
289
330
1E
100
AcDbEntity
  8
IMAGE
100
AcDbLine
 10
3.167114872058498
 20
7.771964685916183
 30
0.0
 11
3.155304205065334
 21
7.794301786063877
 31
0.0
  0
LINE
  5
28A
330
1E
100
AcDbEntity
  8
IMAGE
100
AcDbLine
 10
2.934063799162702
 20
7.805092978932458
 30
0.0
 11
3.012096924975868
 21
7.80598795109253
 31
0.0
  0
LINE
  5
28B
330
1E
100
AcDbEntity
  8
IMAGE
100
AcDbLine
 10
3.041292596021428
 20
7.79622491638757
 30
0.0
 11
3.057897092502782
 21
7.783420650345179
 31
0.0
  0
ARC
  5
28C
330
1E
100
AcDbEntity
  8
IMAGE
100
AcDbCircle
 10
3.012635123993709
 20
7.759062076137814
 30
0.0
 40
0.0469289611908096
100
AcDbArc
 50
52.36301753420083
 51
90.65710400301869
  0
LINE
  5
28D
330
1E
100
AcDbEntity
  8
IMAGE
100
AcDbLine
 10
3.172299478553094
 20
7.818998531354589
 30
0.0
 11
3.074592841865833
 21
7.781015692532077
 31
0.0
  0
ARC
  5
28E
330
1E
100
AcDbEntity
  8
IMAGE
100
AcDbCircle
 10
3.068375532855148
 20
7.797009029826275
 30
0.0
 40
0.0171593056135813
100
AcDbArc
 50
232.363017534201
 51
291.2432789237415
  0
ARC
  5
28F
330
1E
100
AcDbEntity
  8
IMAGE
100
AcDbCircle
 10
2.935902029752284
 20
7.644816620326546
 30
0.0
 40
0.1602868997132066
100
AcDbArc
 50
90.65710400301847
 51
117.8674974388278
  0
LINE
  5
290
330
1E
100
AcDbEntity
  8
IMAGE
100
AcDbLine
 10
2.302401377800151
 20
7.477218464339904
 30
0.0
 11
2.302401377800151
 21
7.577741327506492
 31
0.0
  0
LINE
  5
291
330
1E
100
AcDbEntity
  8
IMAGE
100
AcDbLine
 10
2.14114710765523
 20
7.477218464339904
 30
0.0
 11
2.14114710765523
 21
7.577741327506492
 31
0.0
  0
LINE
  5
292
330
1E
100
AcDbEntity
  8
IMAGE
100
AcDbLine
 10
2.233539274381458
 20
7.477218464339904
 30
0.0
 11
2.233539274381458
 21
7.577741327506492
 31
0.0
  0
LINE
  5
293
330
1E
100
AcDbEntity
  8
IMAGE
100
AcDbLine
 10
2.14114710765523
 20
7.477218464339904
 30
0.0
 11
2.233539274381458
 21
7.477218464339904
 31
0.0
  0
LINE
  5
294
330
1E
100
AcDbEntity
  8
IMAGE
100
AcDbLine
 10
2.233539274381458
 20
7.477218464339904
 30
0.0
 11
2.262891126340758
 21
7.465312171329467
 31
0.0
  0
LINE
  5
295
330
1E
100
AcDbEntity
  8
IMAGE
100
AcDbLine
 10
2.302401377800151
 20
7.477218464339904
 30
0.0
 11
2.331753229759453
 21
7.465312171329467
 31
0.0
  0
LINE
  5
296
330
1E
100
AcDbEntity
  8
IMAGE
100
AcDbLine
 10
2.277683746092719
 20
7.474352669338268
 30
0.0
 11
2.299970729871807
 21
7.465312171329467
 31
0.0
  0
ARC
  5
297
330
1E
100
AcDbEntity
  8
IMAGE
100
AcDbCircle
 10
2.284814290947618
 20
7.49193116306311
 30
0.0
 40
0.0189696629269504
100
AcDbArc
 50
180.0
 51
247.9205443515147
  0
LINE
  5
298
330
1E
100
AcDbEntity
  8
IMAGE
100
AcDbLine
 10
2.14114710765523
 20
7.227949099300962
 30
0.0
 11
2.14114710765523
 21
7.328869399318639
 31
0.0
  0
LINE
  5
299
330
1E
100
AcDbEntity
  8
IMAGE
100
AcDbLine
 10
2.14114710765523
 20
7.227949099300962
 30
0.0
 11
2.230370465269292
 21
7.227949099300962
 31
0.0
  0
LINE
  5
29A
330
1E
100
AcDbEntity
  8
IMAGE
100
AcDbLine
 10
2.14114710765523
 20
7.336956195435117
 30
0.0
 11
2.14114710765523
 21
7.466276898677733
 31
0.0
  0
ARC
  5
29B
330
1E
100
AcDbEntity
  8
IMAGE
100
AcDbCircle
 10
2.238175252809934
 20
7.367832598409878
 30
0.0
 40
0.0282170522417757
100
AcDbArc
 50
94.945966547101
 51
180.0
  0
ARC
  5
29C
330
1E
100
AcDbEntity
  8
IMAGE
100
AcDbCircle
 10
2.255273690074888
 20
7.368126201128136
 30
0.0
 40
0.0294503492164566
100
AcDbArc
 50
98.33959480848749
 51
213.1691018207758
  0
LINE
  5
29D
330
1E
100
AcDbEntity
  8
IMAGE
100
AcDbLine
 10
2.238366431341537
 20
7.348243014590027
 30
0.0
 11
2.278307888147345
 21
7.348243014590027
 31
0.0
  0
LWPOLYLINE
  5
29E
330
1E
100
AcDbEntity
  8
IMAGE
100
AcDbPolyline
 90
        2
 70
     0
 43
0.0
 10
2.209958200568157
 20
7.367832598409877
 42
0.0961545096696088
 10
2.213179435841999
 20
7.336956195435116
 42
0.7407627344832087
  0
LWPOLYLINE
  5
2A2
330
1E
100
AcDbEntity
  8
IMAGE
100
AcDbPolyline
 90
        2
 70
     0
 43
0.0
 10
2.230621996106119
 20
7.352013564675915
 42
0.2163396384576929
 10
2.238366431341537
 20
7.348243014590026
  0
LINE
  5
2A6
330
1E
100
AcDbEntity
  8
IMAGE
100
AcDbLine
 10
2.427133514420019
 20
7.472792309447214
 30
0.0
 11
2.427133514420019
 21
7.52356592486703
 31
0.0
  0
LINE
  5
2A7
330
1E
100
AcDbEntity
  8
IMAGE
100
AcDbLine
 10
2.230370465269292
 20
7.227949099300962
 30
0.0
 11
2.230370465269292
 21
7.253070990494279
 31
0.0
  0
LINE
  5
2A8
330
1E
100
AcDbEntity
  8
IMAGE
100
AcDbLine
 10
2.336366487442885
 20
7.241060198847321
 30
0.0
 11
2.336366487442885
 21
7.170976183181295
 31
0.0
  0
LINE
  5
2A9
330
1E
100
AcDbEntity
  8
IMAGE
100
AcDbLine
 10
2.304115633413902
 20
7.346184572701897
 30
0.0
 11
2.304115633413902
 21
7.328869399318639
 31
0.0
  0
LINE
  5
2AA
330
1E
100
AcDbEntity
  8
IMAGE
100
AcDbLine
 10
2.336366487442885
 20
7.028686741040383
 30
0.0
 11
2.304115633413903
 21
7.028686741040383
 31
0.0
  0
LINE
  5
2AB
330
1E
100
AcDbEntity
  8
IMAGE
100
AcDbLine
 10
2.285661663233861
 20
7.328869399318639
 30
0.0
 11
2.285661663233861
 21
7.400264511892782
 31
0.0
  0
LINE
  5
2AC
330
1E
100
AcDbEntity
  8
IMAGE
100
AcDbLine
 10
2.278307888147345
 20
7.348243014590027
 30
0.0
 11
2.278307888147345
 21
7.336956195435117
 31
0.0
  0
ARC
  5
2AD
330
1E
100
AcDbEntity
  8
IMAGE
100
AcDbCircle
 10
2.272736604081684
 20
7.370316104657094
 30
0.0
 40
0.0020525760349704
100
AcDbArc
 50
180.0
 51
0.0
  0
LINE
  5
2AE
330
1E
100
AcDbEntity
  8
IMAGE
100
AcDbLine
 10
2.26767911310427
 20
7.39870832967003
 30
0.0
 11
2.270684028046714
 21
7.370316104657094
 31
0.0
  0
LINE
  5
2AF
330
1E
100
AcDbEntity
  8
IMAGE
100
AcDbLine
 10
2.274789180116654
 20
7.370316104657094
 30
0.0
 11
2.274789180116654
 21
7.399041153205365
 31
0.0
  0
LINE
  5
2B0
330
1E
100
AcDbEntity
  8
IMAGE
100
AcDbLine
 10
2.281899247129038
 20
7.370648928192428
 30
0.0
 11
2.281899247129038
 21
7.399373976740701
 31
0.0
  0
LINE
  5
2B1
330
1E
100
AcDbEntity
  8
IMAGE
100
AcDbLine
 10
2.274789180116654
 20
7.399041153205365
 30
0.0
 11
2.277794095059098
 21
7.370648928192428
 31
0.0
  0
ARC
  5
2B2
330
1E
100
AcDbEntity
  8
IMAGE
100
AcDbCircle
 10
2.279846671094068
 20
7.370648928192428
 30
0.0
 40
0.0020525760349704
100
AcDbArc
 50
180.0
 51
0.0
  0
LINE
  5
2B3
330
1E
100
AcDbEntity
  8
IMAGE
100
AcDbLine
 10
2.26767911310427
 20
7.348490479587155
 30
0.0
 11
2.26767911310427
 21
7.39870832967003
 31
0.0
  0
LINE
  5
2B4
330
1E
100
AcDbEntity
  8
IMAGE
100
AcDbLine
 10
2.208043907793255
 20
7.477218464339904
 30
0.0
 11
2.208043907793255
 21
7.466276898677733
 31
0.0
  0
LINE
  5
2B5
330
1E
100
AcDbEntity
  8
IMAGE
100
AcDbLine
 10
2.163473665131267
 20
7.477218464339904
 30
0.0
 11
2.163473665131267
 21
7.466276898677733
 31
0.0
  0
LINE
  5
2B6
330
1E
100
AcDbEntity
  8
IMAGE
100
AcDbLine
 10
2.163473665131267
 20
7.210862752448294
 30
0.0
 11
2.208043907793255
 21
7.210862752448294
 31
0.0
  0
LINE
  5
2B7
330
1E
100
AcDbEntity
  8
IMAGE
100
AcDbLine
 10
2.377988478167599
 20
7.465312171329586
 30
0.0
 11
2.346906596112932
 21
7.465312171329467
 31
0.0
  0
LWPOLYLINE
  5
2B8
330
1E
100
AcDbEntity
  8
IMAGE
100
AcDbPolyline
 90
        2
 70
     0
 43
0.0
 10
2.362969686459567
 20
7.406954629287311
 42
0.412978806758373
 10
2.427133514420019
 20
7.472792309447213
  0
LINE
  5
2BC
330
1E
100
AcDbEntity
  8
IMAGE
100
AcDbLine
 10
2.163473665131267
 20
7.227949099300962
 30
0.0
 11
2.163473665131267
 21
7.210862752448294
 31
0.0
  0
LINE
  5
2BD
330
1E
100
AcDbEntity
  8
IMAGE
100
AcDbLine
 10
2.208043907793255
 20
7.227949099300962
 30
0.0
 11
2.208043907793255
 21
7.210862752448294
 31
0.0
  0
LINE
  5
2BE
330
1E
100
AcDbEntity
  8
IMAGE
100
AcDbLine
 10
2.336366487442885
 20
7.346184572701897
 30
0.0
 11
2.336366487442885
 21
7.328869399318639
 31
0.0
  0
LINE
  5
2BF
330
1E
100
AcDbEntity
  8
IMAGE
100
AcDbLine
 10
2.336366487442885
 20
7.346184572701897
 30
0.0
 11
2.304115633413902
 21
7.346184572701897
 31
0.0
  0
ARC
  5
2C0
330
1E
100
AcDbEntity
  8
IMAGE
100
AcDbCircle
 10
2.44997830326622
 20
7.492113984142479
 30
0.0
 40
0.0113458036168084
100
AcDbArc
 50
86.11344901147001
 51
170.1796619216899
  0
LINE
  5
2C1
330
1E
100
AcDbEntity
  8
IMAGE
100
AcDbLine
 10
2.427133514420019
 20
7.503433694867874
 30
0.0
 11
2.501073460457499
 21
7.503433694867874
 31
0.0
  0
LINE
  5
2C2
330
1E
100
AcDbEntity
  8
IMAGE
100
AcDbLine
 10
2.427133514420019
 20
7.494049116183461
 30
0.0
 11
2.438798744970155
 21
7.494049116183461
 31
0.0
  0
LINE
  5
2C3
330
1E
100
AcDbEntity
  8
IMAGE
100
AcDbLine
 10
2.438798744970155
 20
7.494049116183461
 30
0.0
 11
2.438798744970155
 21
7.442457405606662
 31
0.0
  0
LINE
  5
2C4
330
1E
100
AcDbEntity
  8
IMAGE
100
AcDbLine
 10
2.438798744970155
 20
7.442457405606662
 30
0.0
 11
2.420006972177704
 21
7.442457405606662
 31
0.0
  0
ARC
  5
2C5
330
1E
100
AcDbEntity
  8
IMAGE
100
AcDbCircle
 10
2.515576901037968
 20
7.479775618672308
 30
0.0
 40
0.0145034405804688
100
AcDbArc
 50
180.0000000000001
 51
297.8674974388279
  0
LWPOLYLINE
  5
2C6
330
1E
100
AcDbEntity
  8
IMAGE
100
AcDbPolyline
 90
        2
 70
     0
 43
0.0
 10
2.501073460457499
 20
7.479775618672307
 42
-0.1196420991990933
 10
2.462695932479054
 20
7.39093195091191
 42
-2.988003538488942
  0
LWPOLYLINE
  5
2CA
330
1E
100
AcDbEntity
  8
IMAGE
100
AcDbPolyline
 90
        2
 70
     0
 43
0.0
 10
2.390733588159539
 20
7.413693273241315
 42
-0.545416091770051
 10
2.411927573460237
 20
7.371080410818838
 42
0.2751975965683782
  0
LWPOLYLINE
  5
2CE
330
1E
100
AcDbEntity
  8
IMAGE
100
AcDbPolyline
 90
        2
 70
     0
 43
0.0
 10
2.395184687216969
 20
7.328869399318638
 42
-0.0546604967962376
 10
2.413258418316971
 20
7.373594679327745
 42
-0.2600169401948678
  0
ARC
  5
2D2
330
1E
100
AcDbEntity
  8
IMAGE
100
AcDbCircle
 10
2.44997830326622
 20
7.444392537647644
 30
0.0
 40
0.0113458036168084
100
AcDbArc
 50
189.8203380783099
 51
273.88655098853
  0
LWPOLYLINE
  5
2D3
330
1E
100
AcDbEntity
  8
IMAGE
100
AcDbPolyline
 90
        2
 70
     0
 43
0.0
 10
2.386924789064259
 20
7.264367691260669
 42
-0.0320806544513951
 10
2.388173645933914
 20
7.292707469001153
 42
-0.2600169401948678
  0
ARC
  5
2D7
330
1E
100
AcDbEntity
  8
IMAGE
100
AcDbCircle
 10
2.457494528441728
 20
6.68277682467901
 30
0.0
 40
0.6138572925647217
100
AcDbArc
 50
90.09404226573918
 51
111.7153023109924
  0
ARC
  5
2D8
330
1E
100
AcDbEntity
  8
IMAGE
100
AcDbCircle
 10
2.456475769237998
 20
7.303461044032474
 30
0.0
 40
0.0068277628576998
100
AcDbArc
 50
270.0940422657395
 51
0.0
  0
LWPOLYLINE
  5
2D9
330
1E
100
AcDbEntity
  8
IMAGE
100
AcDbPolyline
 90
        2
 70
     0
 43
0.0
 10
2.522356221053417
 20
7.466954128556126
 42
-0.049719290068967
 10
2.483785147564448
 20
7.40599633880059
 42
2.19011173349176
  0
LWPOLYLINE
  5
2DD
330
1E
100
AcDbEntity
  8
IMAGE
100
AcDbPolyline
 90
        7
 70
     0
 43
0.0
 10
2.444407210063815
 20
7.177556090295509
 42
0.0129144870796964
 10
2.471484710872372
 20
7.172096336298777
 42
0.0181320226406586
 10
2.490977873037822
 20
7.16941134350388
 42
0.0421516201204322
 10
2.509381681736913
 20
7.169110129106011
 42
0.3308663119352264
 10
2.511356315414586
 20
7.170796921722215
 42
0.3308663119352181
 10
2.510310979739724
 20
7.173174256536232
 42
0.0231694392973368
 10
2.50128474631396
 20
7.177772289694922
 42
0.0181320226406562
  0
LWPOLYLINE
  5
2E6
330
1E
100
AcDbEntity
  8
IMAGE
100
AcDbPolyline
 90
        7
 70
     0
 43
0.0
 10
2.393149289434663
 20
7.183232273419615
 42
0.0242048703815046
 10
2.382772501737967
 20
7.181157991631086
 42
0.3308663119352122
 10
2.38112734853655
 20
7.17914853438224
 42
0.3308663119352428
 10
2.382576689140924
 20
7.176993572827227
 42
0.0421516201204366
 10
2.400385839033656
 20
7.172343294895266
 42
0.0181320226406599
 10
2.41988427398634
 20
7.169696864863481
 42
0.0129144870796952
 10
2.447433536225178
 20
7.167687358994393
 42
0.0129144870796964
  0
LWPOLYLINE
  5
2EF
330
1E
100
AcDbEntity
  8
IMAGE
100
AcDbPolyline
 90
        7
 70
     0
 43
0.0
 10
2.44774716447346
 20
7.19972123795295
 42
0.0129144870796964
 10
2.475363435791296
 20
7.199136838909567
 42
0.0181320226406586
 10
2.495024165423025
 20
7.199941989743366
 42
0.0421516201204322
 10
2.513191090961287
 20
7.202900658571322
 42
0.3308663119352264
 10
2.514836244162706
 20
7.204910115820168
 42
0.3308663119352181
 10
2.513386903558329
 20
7.20706507737518
 42
0.028022170055912
 10
2.501627794503834
 20
7.210492826445439
 42
0.0181320226406562
  0
LWPOLYLINE
  5
2F8
330
1E
100
AcDbEntity
  8
IMAGE
100
AcDbPolyline
 90
        5
 70
     0
 43
0.0
 10
2.381519295177715
 20
7.210492826445439
 42
0.2441778521320248
 10
2.382890317389206
 20
7.209027451785785
 42
0.0421516201204366
 10
2.400699467281937
 20
7.204377173853823
 42
0.0181320226406599
 10
2.420197902234622
 20
7.201730743822039
 42
0.0129144870796952
 10
2.44774716447346
 20
7.19972123795295
 42
0.0129144870796964
  0
LWPOLYLINE
  5
2FF
330
1E
100
AcDbEntity
  8
IMAGE
100
AcDbPolyline
 90
        2
 70
     0
 43
0.0
 10
2.444407210063815
 20
7.171520714948152
 42
0.0102445799720931
 10
2.465864676330225
 20
7.167074802092458
 42
0.0181320226406586
  0
LINE
  5
303
330
1E
100
AcDbEntity
  8
IMAGE
100
AcDbLine
 10
2.38112734853655
 20
7.179148534382241
 30
0.0
 11
2.38112734853655
 21
7.175479033031139
 31
0.0
  0
LWPOLYLINE
  5
304
330
1E
100
AcDbEntity
  8
IMAGE
100
AcDbPolyline
 90
        3
 70
     0
 43
0.0
 10
2.393149289434663
 20
7.179562772068515
 42
0.0242048703815046
 10
2.382772501737967
 20
7.177488490279984
 42
0.0808566685898066
 10
2.382130106220852
 20
7.177211528869974
 42
0.3308663119352428
  0
LINE
  5
309
330
1E
100
AcDbEntity
  8
IMAGE
100
AcDbLine
 10
2.381519295177715
 20
7.21049282644544
 30
0.0
 11
2.381905409896807
 21
7.204218519382319
 31
0.0
  0
LINE
  5
30A
330
1E
100
AcDbEntity
  8
IMAGE
100
AcDbLine
 10
2.381173595869286
 20
7.20056433018839
 30
0.0
 11
2.381173595869286
 21
7.194528954841034
 31
0.0
  0
LWPOLYLINE
  5
30B
330
1E
100
AcDbEntity
  8
IMAGE
100
AcDbPolyline
 90
        5
 70
     0
 43
0.0
 10
2.381173595869286
 20
7.194528954841033
 42
0.3308663119352428
 10
2.38221893154415
 20
7.192151620027018
 42
0.0421516201204366
 10
2.398924789254033
 20
7.184424704541304
 42
0.0181320226406599
 10
2.417647724562868
 20
7.178371255033924
 42
0.0129144870796952
 10
2.444407210063815
 20
7.171520714948152
 42
0.0129144870796964
  0
LWPOLYLINE
  5
312
330
1E
100
AcDbEntity
  8
IMAGE
100
AcDbPolyline
 90
        2
 70
     0
 43
0.0
 10
2.393149289434663
 20
7.196437164349576
 42
0.0173213934161079
 10
2.385574881164133
 20
7.196353668946851
 42
0.3308663119352122
  0
LWPOLYLINE
  5
316
330
1E
100
AcDbEntity
  8
IMAGE
100
AcDbPolyline
 90
        2
 70
     0
 43
0.0
 10
2.393149289434663
 20
7.208182679853321
 42
0.0114267346842675
 10
2.388231192004239
 20
7.207293089146021
 42
0.3308663119352122
  0
LWPOLYLINE
  5
31A
330
1E
100
AcDbEntity
  8
IMAGE
100
AcDbPolyline
 90
        5
 70
     0
 43
0.0
 10
2.381905409896807
 20
7.204218519382318
 42
0.3308663119352428
 10
2.383354750501183
 20
7.202063557827309
 42
0.0421516201204366
 10
2.401163900393914
 20
7.197413279895344
 42
0.0181320226406599
 10
2.4206623353466
 20
7.194766849863559
 42
0.0129144870796952
 10
2.448211597585437
 20
7.192757343994471
 42
0.0129144870796964
  0
LWPOLYLINE
  5
321
330
1E
100
AcDbEntity
  8
IMAGE
100
AcDbPolyline
 90
        6
 70
     0
 43
0.0
 10
2.382986133930913
 20
7.202233985588329
 42
0.3102203890139923
 10
2.381173595869286
 20
7.200564330188389
 42
0.3308663119352428
 10
2.38221893154415
 20
7.198186995374372
 42
0.0421516201204366
 10
2.398924789254033
 20
7.190460079888661
 42
0.0181320226406599
 10
2.417647724562868
 20
7.184406630381279
 42
0.0129144870796952
 10
2.444407210063815
 20
7.177556090295509
 42
0.0129144870796964
  0
LINE
  5
329
330
1E
100
AcDbEntity
  8
IMAGE
100
AcDbLine
 10
2.514836244162706
 20
7.204910115820169
 30
0.0
 11
2.515300677274682
 21
7.197946221861693
 31
0.0
  0
LWPOLYLINE
  5
32A
330
1E
100
AcDbEntity
  8
IMAGE
100
AcDbPolyline
 90
        2
 70
     0
 43
0.0
 10
2.508510462055273
 20
7.201835546056467
 42
0.0170713309551605
 10
2.50128474631396
 20
7.203712744390622
 42
0.0181320226406562
  0
LWPOLYLINE
  5
32E
330
1E
100
AcDbEntity
  8
IMAGE
100
AcDbPolyline
 90
        6
 70
     0
 43
0.0
 10
2.448211597585437
 20
7.192757343994471
 42
0.0129144870796964
 10
2.475827868903271
 20
7.19217294495109
 42
0.0181320226406586
 10
2.495488598535002
 20
7.192978095784888
 42
0.0421516201204322
 10
2.513655524073262
 20
7.195936764612846
 42
0.3308663119352264
 10
2.515300677274682
 20
7.197946221861692
 42
0.0568505046551125
 10
2.515267839214791
 20
7.198438608732867
 42
0.0299168931654418
  0
LWPOLYLINE
  5
336
330
1E
100
AcDbEntity
  8
IMAGE
100
AcDbPolyline
 90
        2
 70
     0
 43
0.0
 10
2.447433536225178
 20
7.167687358994393
 42
0.00844730529634
 10
2.465494797214057
 20
7.167143703108259
 42
0.0181320226406586
  0
LINE
  5
33A
330
1E
100
AcDbEntity
  8
IMAGE
100
AcDbLine
 10
2.511356315414586
 20
7.170796921722216
 30
0.0
 11
2.511356315414586
 21
7.167074802092459
 31
0.0
  0
LINE
  5
33B
330
1E
100
AcDbEntity
  8
IMAGE
100
AcDbLine
 10
2.393149289434663
 20
7.205958332390761
 30
0.0
 11
2.393149289434663
 21
7.21049282644544
 31
0.0
  0
LINE
  5
33C
330
1E
100
AcDbEntity
  8
IMAGE
100
AcDbLine
 10
2.393149289434663
 20
7.192749343655039
 30
0.0
 11
2.393149289434663
 21
7.199110014814172
 31
0.0
  0
LINE
  5
33D
330
1E
100
AcDbEntity
  8
IMAGE
100
AcDbLine
 10
2.393149289434663
 20
7.173847624903141
 30
0.0
 11
2.393149289434663
 21
7.186713968307685
 31
0.0
  0
LINE
  5
33E
330
1E
100
AcDbEntity
  8
IMAGE
100
AcDbLine
 10
2.50128474631396
 20
7.20060797105363
 30
0.0
 11
2.50128474631396
 21
7.21049282644544
 31
0.0
  0
LWPOLYLINE
  5
33F
330
1E
100
AcDbEntity
  8
IMAGE
100
AcDbPolyline
 90
        4
 70
     0
 43
0.0
 10
2.38112734853655
 20
7.175479033031138
 42
0.3308663119352428
 10
2.382576689140924
 20
7.173324071476126
 42
0.0421516201204366
 10
2.400385839033656
 20
7.168673793544166
 42
0.0097503415782472
 10
2.41084807893139
 20
7.167074802092458
 42
0.0129144870796952
  0
LINE
  5
345
330
1E
100
AcDbEntity
  8
IMAGE
100
AcDbLine
 10
2.304115633413902
 20
7.241060198847321
 30
0.0
 11
2.304115633413902
 21
7.170976183181295
 31
0.0
  0
ARC
  5
346
330
1E
100
AcDbEntity
  8
IMAGE
100
AcDbCircle
 10
2.304115633413902
 20
7.161364417610601
 30
0.0
 40
0.0096117655706949
100
AcDbArc
 50
270.0
 51
90.0
  0
ARC
  5
347
330
1E
100
AcDbEntity
  8
IMAGE
100
AcDbCircle
 10
2.336366487442885
 20
7.161364417610601
 30
0.0
 40
0.0096117655706949
100
AcDbArc
 50
90.0
 51
270.0
  0
LINE
  5
348
330
1E
100
AcDbEntity
  8
IMAGE
100
AcDbLine
 10
2.336366487442885
 20
7.170976183181295
 30
0.0
 11
2.304115633413902
 21
7.170976183181295
 31
0.0
  0
LINE
  5
349
330
1E
100
AcDbEntity
  8
IMAGE
100
AcDbLine
 10
2.304115633413902
 20
7.151752652039904
 30
0.0
 11
2.336366487442885
 21
7.151752652039904
 31
0.0
  0
LINE
  5
34A
330
1E
100
AcDbEntity
  8
IMAGE
100
AcDbLine
 10
2.336366487442885
 20
7.151752652039904
 30
0.0
 11
2.336366487442885
 21
7.028686741040383
 31
0.0
  0
LINE
  5
34B
330
1E
100
AcDbEntity
  8
IMAGE
100
AcDbLine
 10
2.304115633413902
 20
7.151752652039904
 30
0.0
 11
2.304115633413903
 21
7.028686741040383
 31
0.0
  0
LINE
  5
34C
330
1E
100
AcDbEntity
  8
IMAGE
100
AcDbLine
 10
2.576197795783656
 20
6.517099464822272
 30
0.0
 11
2.31819096355178
 21
6.517099464822272
 31
0.0
  0
LINE
  5
34D
330
1E
100
AcDbEntity
  8
IMAGE
100
AcDbLine
 10
2.576197795783656
 20
6.517099464822272
 30
0.0
 11
2.576197795783656
 21
6.556048252555655
 31
0.0
  0
LINE
  5
34E
330
1E
100
AcDbEntity
  8
IMAGE
100
AcDbLine
 10
2.31819096355178
 20
6.517099464822272
 30
0.0
 11
2.31819096355178
 21
6.556048252555655
 31
0.0
  0
LINE
  5
34F
330
1E
100
AcDbEntity
  8
IMAGE
100
AcDbLine
 10
2.576197795783656
 20
6.758980870039655
 30
0.0
 11
2.31819096355178
 21
6.758980870039655
 31
0.0
  0
LINE
  5
350
330
1E
100
AcDbEntity
  8
IMAGE
100
AcDbLine
 10
2.543946941754672
 20
6.839608005112117
 30
0.0
 11
2.350441817580763
 21
6.839608005112117
 31
0.0
  0
LINE
  5
351
330
1E
100
AcDbEntity
  8
IMAGE
100
AcDbLine
 10
2.350441817580763
 20
6.839608005112117
 30
0.0
 11
2.31819096355178
 21
6.758980870039655
 31
0.0
  0
LINE
  5
352
330
1E
100
AcDbEntity
  8
IMAGE
100
AcDbLine
 10
2.543946941754672
 20
6.839608005112117
 30
0.0
 11
2.576197795783656
 21
6.758980870039655
 31
0.0
  0
LINE
  5
353
330
1E
100
AcDbEntity
  8
IMAGE
100
AcDbLine
 10
2.350441817580763
 20
6.839608005112117
 30
0.0
 11
2.350441817580763
 21
7.033794651787147
 31
0.0
  0
LINE
  5
354
330
1E
100
AcDbEntity
  8
IMAGE
100
AcDbLine
 10
2.543946941754672
 20
6.839608005112117
 30
0.0
 11
2.543946941754672
 21
7.033794651787145
 31
0.0
  0
LINE
  5
355
330
1E
100
AcDbEntity
  8
IMAGE
100
AcDbLine
 10
2.366556074708389
 20
6.54128760534401
 30
0.0
 11
2.366556074708389
 21
6.556048252555655
 31
0.0
  0
LINE
  5
356
330
1E
100
AcDbEntity
  8
IMAGE
100
AcDbLine
 10
2.527832684627046
 20
6.541287605344012
 30
0.0
 11
2.527832684627046
 21
6.556048252555656
 31
0.0
  0
LINE
  5
357
330
1E
100
AcDbEntity
  8
IMAGE
100
AcDbLine
 10
2.557376181811575
 20
6.670291021459949
 30
0.0
 11
2.498289187442518
 21
6.670291021459949
 31
0.0
  0
ARC
  5
358
330
1E
100
AcDbEntity
  8
IMAGE
100
AcDbCircle
 10
2.328534939539089
 20
6.629800052054914
 30
0.0
 40
0.0413689370078605
100
AcDbArc
 50
23.20884674426058
 51
78.17473771644102
  0
ARC
  5
359
330
1E
100
AcDbEntity
  8
IMAGE
100
AcDbCircle
 10
2.404577209877691
 20
6.629800052054914
 30
0.0
 40
0.0413689370078605
100
AcDbArc
 50
101.8252622835589
 51
156.79115325574
  0
ARC
  5
35A
330
1E
100
AcDbEntity
  8
IMAGE
100
AcDbCircle
 10
2.565853819796348
 20
6.629800052054914
 30
0.0
 40
0.0413689370078605
100
AcDbArc
 50
101.8252622835589
 51
156.79115325574
  0
ARC
  5
35B
330
1E
100
AcDbEntity
  8
IMAGE
100
AcDbCircle
 10
2.489811549457744
 20
6.629800052054914
 30
0.0
 40
0.0413689370078605
100
AcDbArc
 50
23.20884674426058
 51
78.17473771644102
  0
ARC
  5
35C
330
1E
100
AcDbEntity
  8
IMAGE
100
AcDbCircle
 10
2.565853819796348
 20
6.557590434227307
 30
0.0
 40
0.0413689370078605
100
AcDbArc
 50
203.2088467442593
 51
258.174737716441
  0
ARC
  5
35D
330
1E
100
AcDbEntity
  8
IMAGE
100
AcDbCircle
 10
2.489811549457744
 20
6.557590434227307
 30
0.0
 40
0.0413689370078605
100
AcDbArc
 50
281.8252622835589
 51
336.79115325574
  0
ARC
  5
35E
330
1E
100
AcDbEntity
  8
IMAGE
100
AcDbCircle
 10
2.404577209877691
 20
6.557590434227307
 30
0.0
 40
0.0413689370078605
100
AcDbArc
 50
203.2088467442593
 51
258.174737716441
  0
ARC
  5
35F
330
1E
100
AcDbEntity
  8
IMAGE
100
AcDbCircle
 10
2.328534939539089
 20
6.557590434227307
 30
0.0
 40
0.0413689370078605
100
AcDbArc
 50
281.8252622835589
 51
336.79115325574
  0
LINE
  5
360
330
1E
100
AcDbEntity
  8
IMAGE
100
AcDbLine
 10
2.396099571892918
 20
6.670291021459949
 30
0.0
 11
2.337012577523863
 21
6.670291021459949
 31
0.0
  0
LINE
  5
361
330
1E
100
AcDbEntity
  8
IMAGE
100
AcDbLine
 10
2.533170711338923
 20
7.044570882202895
 30
0.0
 11
2.361218047996514
 21
7.044570882202895
 31
0.0
  0
ARC
  5
362
330
1E
100
AcDbEntity
  8
IMAGE
100
AcDbCircle
 10
2.361218047996514
 20
7.033794651787147
 30
0.0
 40
0.0107762304157491
100
AcDbArc
 50
90.0
 51
180.0
  0
ARC
  5
363
330
1E
100
AcDbEntity
  8
IMAGE
100
AcDbCircle
 10
2.533170711338923
 20
7.033794651787145
 30
0.0
 40
0.0107762304157491
100
AcDbArc
 50
0.0
 51
90.0
  0
LINE
  5
364
330
1E
100
AcDbEntity
  8
IMAGE
100
AcDbLine
 10
1.996942390414901
 20
7.658368462578954
 30
0.0
 11
1.996942390414901
 21
7.598066133116274
 31
0.0
  0
LINE
  5
365
330
1E
100
AcDbEntity
  8
IMAGE
100
AcDbLine
 10
2.290817612164923
 20
7.273572543363011
 30
0.0
 11
2.290817612164923
 21
7.241060198847321
 31
0.0
  0
LINE
  5
366
330
1E
100
AcDbEntity
  8
IMAGE
100
AcDbLine
 10
2.290817612164923
 20
7.241060198847321
 30
0.0
 11
2.320241060428394
 21
7.241060198847321
 31
0.0
  0
LINE
  5
367
330
1E
100
AcDbEntity
  8
IMAGE
100
AcDbLine
 10
2.349664508691866
 20
7.241060198847321
 30
0.0
 11
2.320241060428394
 21
7.241060198847321
 31
0.0
  0
LINE
  5
368
330
1E
100
AcDbEntity
  8
IMAGE
100
AcDbLine
 10
2.349664508691866
 20
7.287089212832384
 30
0.0
 11
2.349664508691866
 21
7.241060198847321
 31
0.0
  0
LINE
  5
369
330
1E
100
AcDbEntity
  8
IMAGE
100
AcDbLine
 10
2.15078842731939
 20
7.328869399318639
 30
0.0
 11
2.15078842731939
 21
7.336956195435117
 31
0.0
  0
LINE
  5
36A
330
1E
100
AcDbEntity
  8
IMAGE
100
AcDbLine
 10
2.220729145605131
 20
7.328869399318639
 30
0.0
 11
2.220729145605131
 21
7.336956195435117
 31
0.0
  0
LINE
  5
36B
330
1E
100
AcDbEntity
  8
IMAGE
100
AcDbLine
 10
2.261535718877842
 20
7.336956195435117
 30
0.0
 11
2.261535718877842
 21
7.328869399318639
 31
0.0
  0
LINE
  5
36C
330
1E
100
AcDbEntity
  8
IMAGE
100
AcDbLine
 10
2.274746972283232
 20
7.336956195435117
 30
0.0
 11
2.274746972283232
 21
7.328869399318639
 31
0.0
  0
TEXT
  5
36D
330
1E
100
AcDbEntity
  8
IMAGE
100
AcDbText
 10
1.785985075253764
 20
7.623853686149823
 30
0.0
 40
0.0246891840388007
  1
5
  7
SIMPLEX
100
AcDbText
  0
TEXT
  5
36E
330
1E
100
AcDbEntity
  8
IMAGE
100
AcDbText
 10
1.817137993099732
 20
7.623853686149823
 30
0.0
 40
0.0246891840388007
  1
P
  7
SIMPLEX
100
AcDbText
  0
TEXT
  5
36F
330
1E
100
AcDbEntity
  8
IMAGE
100
AcDbText
 10
1.844594801680292
 20
7.623853686149823
 30
0.0
 40
0.0246891840388007
  1
J
  7
SIMPLEX
100
AcDbText
  0
LINE
  5
370
330
1E
100
AcDbEntity
  8
IMAGE
100
AcDbLine
 10
2.366556074708389
 20
6.641112604804829
 30
0.0
 11
2.366556074708389
 21
6.64610288093821
 31
0.0
  0
LINE
  5
371
330
1E
100
AcDbEntity
  8
IMAGE
100
AcDbLine
 10
2.527832684627046
 20
6.641112604804831
 30
0.0
 11
2.527832684627046
 21
6.64610288093821
 31
0.0
  0
LINE
  5
372
330
1E
100
AcDbEntity
  8
IMAGE
100
AcDbLine
 10
2.576197795783656
 20
6.641112604804829
 30
0.0
 11
2.576197795783656
 21
6.758980870039655
 31
0.0
  0
ARC
  5
373
330
1E
100
AcDbEntity
  8
IMAGE
100
AcDbCircle
 10
2.600539265824362
 20
6.60200733196657
 30
0.0
 40
0.0363347932812923
100
AcDbArc
 50
142.5532855597031
 51
232.8116314160015
  0
LINE
  5
374
330
1E
100
AcDbEntity
  8
IMAGE
100
AcDbLine
 10
2.57169237761277
 20
6.624099734355054
 30
0.0
 11
2.578577157783865
 21
6.573061123005482
 31
0.0
  0
LINE
  5
375
330
1E
100
AcDbEntity
  8
IMAGE
100
AcDbLine
 10
2.098797060386056
 20
6.556048252555655
 30
0.0
 11
2.098797060386056
 21
5.750742670490549
 31
0.0
  0
LINE
  5
376
330
1E
100
AcDbEntity
  8
IMAGE
100
AcDbLine
 10
2.098797060386056
 20
6.742129483769801
 30
0.0
 11
2.312792602025812
 21
6.742129483769801
 31
0.0
  0
LINE
  5
377
330
1E
100
AcDbEntity
  8
IMAGE
100
AcDbLine
 10
2.31819096355178
 20
6.641112604804829
 30
0.0
 11
2.31819096355178
 21
6.758980870039655
 31
0.0
  0
LINE
  5
378
330
1E
100
AcDbEntity
  8
IMAGE
100
AcDbLine
 10
2.312792602025814
 20
6.556048252555655
 30
0.0
 11
2.312792602025814
 21
5.750742670490549
 31
0.0
  0
LINE
  5
379
330
1E
100
AcDbEntity
  8
IMAGE
100
AcDbLine
 10
2.084278051134168
 20
5.749385066432778
 30
0.0
 11
2.075729375751398
 21
5.739546311128008
 31
0.0
  0
LINE
  5
37A
330
1E
100
AcDbEntity
  8
IMAGE
100
AcDbLine
 10
2.082993813462229
 20
5.750500911946873
 30
0.0
 11
2.074059883128098
 21
5.740218762896817
 31
0.0
  0
ARC
  5
37B
330
1E
100
AcDbEntity
  8
IMAGE
100
AcDbCircle
 10
2.140510772559281
 20
5.711637397652212
 30
0.0
 40
0.0363347932812923
100
AcDbArc
 50
142.5532855597031
 51
232.8116314160015
  0
LINE
  5
37C
330
1E
100
AcDbEntity
  8
IMAGE
100
AcDbLine
 10
2.111663884347468
 20
5.733729800040696
 30
0.0
 11
2.118548664518892
 21
5.682691188691124
 31
0.0
  0
ARC
  5
37D
330
1E
100
AcDbEntity
  8
IMAGE
100
AcDbCircle
 10
2.158661556647217
 20
5.711637397652212
 30
0.0
 40
0.0363347932812923
100
AcDbArc
 50
142.5532855597031
 51
232.8116314160015
  0
LINE
  5
37E
330
1E
100
AcDbEntity
  8
IMAGE
100
AcDbLine
 10
2.129814668435626
 20
5.733729800040696
 30
0.0
 11
2.136699448606732
 21
5.682691188691124
 31
0.0
  0
ARC
  5
37F
330
1E
100
AcDbEntity
  8
IMAGE
100
AcDbCircle
 10
2.176812340735375
 20
5.711637397652212
 30
0.0
 40
0.0363347932812923
100
AcDbArc
 50
142.5532855597031
 51
232.8116314160015
  0
LINE
  5
380
330
1E
100
AcDbEntity
  8
IMAGE
100
AcDbLine
 10
2.147965452523459
 20
5.733729800040696
 30
0.0
 11
2.154850232694878
 21
5.682691188691124
 31
0.0
  0
ARC
  5
381
330
1E
100
AcDbEntity
  8
IMAGE
100
AcDbCircle
 10
2.195589013929714
 20
5.711637397652212
 30
0.0
 40
0.0363347932812923
100
AcDbArc
 50
142.5532855597031
 51
232.8116314160015
  0
LINE
  5
382
330
1E
100
AcDbEntity
  8
IMAGE
100
AcDbLine
 10
2.166742125718002
 20
5.733729800040696
 30
0.0
 11
2.173626905889324
 21
5.682691188691124
 31
0.0
  0
ARC
  5
383
330
1E
100
AcDbEntity
  8
IMAGE
100
AcDbCircle
 10
2.090564374950544
 20
5.669151097033004
 30
0.0
 40
0.0101391053531439
100
AcDbArc
 50
221.6972960676141
 51
316.4458918268223
  0
LINE
  5
384
330
1E
100
AcDbEntity
  8
IMAGE
100
AcDbLine
 10
2.082993813462229
 20
5.662406613649452
 30
0.0
 11
2.074059883128098
 21
5.672688762699508
 31
0.0
  0
LINE
  5
385
330
1E
100
AcDbEntity
  8
IMAGE
100
AcDbLine
 10
2.084278051134168
 20
5.663522459163554
 30
0.0
 11
2.075729375751398
 21
5.673361214468324
 31
0.0
  0
ARC
  5
386
330
1E
100
AcDbEntity
  8
IMAGE
100
AcDbCircle
 10
2.090564374950544
 20
5.669151097033004
 30
0.0
 40
0.0084378183081614
100
AcDbArc
 50
221.6972960676141
 51
330.5572729070301
  0
CIRCLE
  5
387
330
1E
100
AcDbEntity
  8
IMAGE
100
AcDbCircle
 10
2.061429916845321
 20
5.706453762798143
 30
0.0
 40
0.0360498443820563
  0
LWPOLYLINE
  5
388
330
1E
100
AcDbEntity
  8
IMAGE
100
AcDbPolyline
 90
        2
 70
     0
 43
0.0
 10
2.069517379290715
 20
5.683939431713461
 10
2.061429916845321
 20
5.67927013309363
  0
LWPOLYLINE
  5
38C
330
1E
100
AcDbEntity
  8
IMAGE
100
AcDbPolyline
 90
        5
 70
     0
 43
0.0
 10
2.053342454400036
 20
5.72896809388287
 10
2.061429916845321
 20
5.733637392502758
 10
2.084971630736703
 20
5.720045577650396
 10
2.084971630736703
 20
5.692861947945934
 10
2.076884168291195
 20
5.688192649325997
  0
ARC
  5
393
330
1E
100
AcDbEntity
  8
IMAGE
100
AcDbCircle
 10
2.061429916845321
 20
5.706453762798143
 30
0.0
 40
0.019416878360384
100
AcDbArc
 50
132.6530910809695
 51
287.3469089190293
  0
LWPOLYLINE
  5
394
330
1E
100
AcDbEntity
  8
IMAGE
100
AcDbPolyline
 90
        4
 70
     0
 43
0.0
 10
2.061429916845321
 20
5.67927013309363
 10
2.037888202954258
 20
5.692861947945934
 10
2.037888202954258
 20
5.720045577650396
 10
2.04597566539955
 20
5.724714876270335
  0
LINE
  5
39A
330
1E
100
AcDbEntity
  8
IMAGE
100
AcDbLine
 10
2.053342454400036
 20
5.72896809388287
 30
0.0
 11
2.076884168291195
 21
5.688192649325997
 31
0.0
  0
LINE
  5
39B
330
1E
100
AcDbEntity
  8
IMAGE
100
AcDbLine
 10
2.04597566539955
 20
5.724714876270335
 30
0.0
 11
2.069517379290715
 21
5.683939431713461
 31
0.0
  0
ARC
  5
39C
330
1E
100
AcDbEntity
  8
IMAGE
100
AcDbCircle
 10
2.061429916845321
 20
5.706453762798143
 30
0.0
 40
0.019416878360384
100
AcDbArc
 50
312.6530910809717
 51
107.3469089190281
  0
CIRCLE
  5
39D
330
1E
100
AcDbEntity
  8
IMAGE
100
AcDbCircle
 10
2.061429916845321
 20
5.706453762798143
 30
0.0
 40
0.0322956548274434
  0
ARC
  5
39E
330
1E
100
AcDbEntity
  8
IMAGE
100
AcDbCircle
 10
2.090564374950544
 20
5.743756428563329
 30
0.0
 40
0.0084378183081614
100
AcDbArc
 50
29.4427270929698
 51
138.3027039323858
  0
ARC
  5
39F
330
1E
100
AcDbEntity
  8
IMAGE
100
AcDbCircle
 10
2.090564374950544
 20
5.743756428563329
 30
0.0
 40
0.0101391053531439
100
AcDbArc
 50
43.55410817317756
 51
138.3027039323858
  0
LINE
  5
3A0
330
1E
100
AcDbEntity
  8
IMAGE
100
AcDbLine
 10
2.561421636354888
 20
5.665678318241377
 30
0.0
 11
2.097912427828504
 21
5.665678318241377
 31
0.0
  0
LINE
  5
3A1
330
1E
100
AcDbEntity
  8
IMAGE
100
AcDbLine
 10
2.561421636354888
 20
5.750742670490551
 30
0.0
 11
2.097912427828504
 21
5.750742670490551
 31
0.0
  0
ARC
  5
3A2
330
1E
100
AcDbEntity
  8
IMAGE
100
AcDbCircle
 10
2.233142360318812
 20
5.711637397652212
 30
0.0
 40
0.0363347932812923
100
AcDbArc
 50
142.5532855597031
 51
232.8116314160015
  0
ARC
  5
3A3
330
1E
100
AcDbEntity
  8
IMAGE
100
AcDbCircle
 10
2.214365687124365
 20
5.711637397652212
 30
0.0
 40
0.0363347932812923
100
AcDbArc
 50
142.5532855597031
 51
232.8116314160015
  0
LINE
  5
3A4
330
1E
100
AcDbEntity
  8
IMAGE
100
AcDbLine
 10
2.185518798912557
 20
5.733729800040696
 30
0.0
 11
2.192403579083878
 21
5.682691188691124
 31
0.0
  0
LINE
  5
3A5
330
1E
100
AcDbEntity
  8
IMAGE
100
AcDbLine
 10
2.224323923514555
 20
5.733729800040696
 30
0.0
 11
2.231208703685878
 21
5.682691188691124
 31
0.0
  0
ARC
  5
3A6
330
1E
100
AcDbEntity
  8
IMAGE
100
AcDbCircle
 10
2.272573374027315
 20
5.711637397652212
 30
0.0
 40
0.0363347932812923
100
AcDbArc
 50
142.5532855597031
 51
232.8116314160015
  0
LINE
  5
3A7
330
1E
100
AcDbEntity
  8
IMAGE
100
AcDbLine
 10
2.243726485815505
 20
5.733729800040696
 30
0.0
 11
2.250611265986817
 21
5.682691188691124
 31
0.0
  0
ARC
  5
3A8
330
1E
100
AcDbEntity
  8
IMAGE
100
AcDbCircle
 10
2.291350047221863
 20
5.711637397652212
 30
0.0
 40
0.0363347932812923
100
AcDbArc
 50
142.5532855597031
 51
232.8116314160015
  0
LINE
  5
3A9
330
1E
100
AcDbEntity
  8
IMAGE
100
AcDbLine
 10
2.262503159009941
 20
5.733729800040696
 30
0.0
 11
2.269387939181365
 21
5.682691188691124
 31
0.0
  0
LINE
  5
3AA
330
1E
100
AcDbEntity
  8
IMAGE
100
AcDbLine
 10
2.204295472107004
 20
5.733729800040696
 30
0.0
 11
2.211180252278428
 21
5.682691188691124
 31
0.0
  0
ARC
  5
3AB
330
1E
100
AcDbEntity
  8
IMAGE
100
AcDbCircle
 10
2.253170811726262
 20
5.711637397652212
 30
0.0
 40
0.0363347932812923
100
AcDbArc
 50
142.5532855597031
 51
232.8116314160015
  0
ARC
  5
3AC
330
1E
100
AcDbEntity
  8
IMAGE
100
AcDbCircle
 10
2.446570545629539
 20
5.711637397652212
 30
0.0
 40
0.0363347932812923
100
AcDbArc
 50
142.5532855597031
 51
232.8116314160015
  0
ARC
  5
3AD
330
1E
100
AcDbEntity
  8
IMAGE
100
AcDbCircle
 10
2.311378498629204
 20
5.711637397652212
 30
0.0
 40
0.0363347932812923
100
AcDbArc
 50
142.5532855597031
 51
232.8116314160015
  0
LINE
  5
3AE
330
1E
100
AcDbEntity
  8
IMAGE
100
AcDbLine
 10
2.282531610417601
 20
5.733729800040696
 30
0.0
 11
2.289416390588707
 21
5.682691188691124
 31
0.0
  0
ARC
  5
3AF
330
1E
100
AcDbEntity
  8
IMAGE
100
AcDbCircle
 10
2.330781060930149
 20
5.711637397652212
 30
0.0
 40
0.0363347932812923
100
AcDbArc
 50
142.5532855597031
 51
232.8116314160015
  0
LINE
  5
3B0
330
1E
100
AcDbEntity
  8
IMAGE
100
AcDbLine
 10
2.301934172718546
 20
5.733729800040696
 30
0.0
 11
2.308818952889652
 21
5.682691188691124
 31
0.0
  0
ARC
  5
3B1
330
1E
100
AcDbEntity
  8
IMAGE
100
AcDbCircle
 10
2.350183623231101
 20
5.711637397652212
 30
0.0
 40
0.0363347932812923
100
AcDbArc
 50
142.5532855597031
 51
232.8116314160015
  0
LINE
  5
3B2
330
1E
100
AcDbEntity
  8
IMAGE
100
AcDbLine
 10
2.321336735019498
 20
5.733729800040696
 30
0.0
 11
2.328221515190813
 21
5.682691188691124
 31
0.0
  0
ARC
  5
3B3
330
1E
100
AcDbEntity
  8
IMAGE
100
AcDbCircle
 10
2.369586185532142
 20
5.711637397652212
 30
0.0
 40
0.0363347932812923
100
AcDbArc
 50
142.5532855597031
 51
232.8116314160015
  0
LINE
  5
3B4
330
1E
100
AcDbEntity
  8
IMAGE
100
AcDbLine
 10
2.340739297320443
 20
5.733729800040696
 30
0.0
 11
2.347624077491758
 21
5.682691188691124
 31
0.0
  0
ARC
  5
3B5
330
1E
100
AcDbEntity
  8
IMAGE
100
AcDbCircle
 10
2.388362858726697
 20
5.711637397652212
 30
0.0
 40
0.0363347932812923
100
AcDbArc
 50
142.5532855597031
 51
232.8116314160015
  0
LINE
  5
3B6
330
1E
100
AcDbEntity
  8
IMAGE
100
AcDbLine
 10
2.359515970514991
 20
5.733729800040696
 30
0.0
 11
2.366400750686205
 21
5.682691188691124
 31
0.0
  0
ARC
  5
3B7
330
1E
100
AcDbEntity
  8
IMAGE
100
AcDbCircle
 10
2.407765421027642
 20
5.711637397652212
 30
0.0
 40
0.0363347932812923
100
AcDbArc
 50
142.5532855597031
 51
232.8116314160015
  0
LINE
  5
3B8
330
1E
100
AcDbEntity
  8
IMAGE
100
AcDbLine
 10
2.378918532816049
 20
5.733729800040696
 30
0.0
 11
2.385803312987144
 21
5.682691188691124
 31
0.0
  0
LINE
  5
3B9
330
1E
100
AcDbEntity
  8
IMAGE
100
AcDbLine
 10
2.398321095116983
 20
5.733729800040696
 30
0.0
 11
2.405205875288089
 21
5.682691188691124
 31
0.0
  0
ARC
  5
3BA
330
1E
100
AcDbEntity
  8
IMAGE
100
AcDbCircle
 10
2.427167983328587
 20
5.711637397652212
 30
0.0
 40
0.0363347932812923
100
AcDbArc
 50
142.5532855597031
 51
232.8116314160015
  0
LINE
  5
3BB
330
1E
100
AcDbEntity
  8
IMAGE
100
AcDbLine
 10
2.561421636354888
 20
5.750742670490551
 30
0.0
 11
2.561421636354888
 21
5.665678318241377
 31
0.0
  0
LINE
  5
3BC
330
1E
100
AcDbEntity
  8
IMAGE
100
AcDbLine
 10
2.475305455214487
 20
5.733729800040696
 30
0.0
 11
2.482190235385582
 21
5.682691188691124
 31
0.0
  0
ARC
  5
3BD
330
1E
100
AcDbEntity
  8
IMAGE
100
AcDbCircle
 10
2.504152343426079
 20
5.711637397652212
 30
0.0
 40
0.0363347932812923
100
AcDbArc
 50
142.5532855597031
 51
232.8116314160015
  0
LINE
  5
3BE
330
1E
100
AcDbEntity
  8
IMAGE
100
AcDbLine
 10
2.455902892913428
 20
5.733729800040696
 30
0.0
 11
2.462787673084642
 21
5.682691188691124
 31
0.0
  0
ARC
  5
3BF
330
1E
100
AcDbEntity
  8
IMAGE
100
AcDbCircle
 10
2.484749781125135
 20
5.711637397652212
 30
0.0
 40
0.0363347932812923
100
AcDbArc
 50
142.5532855597031
 51
232.8116314160015
  0
LINE
  5
3C0
330
1E
100
AcDbEntity
  8
IMAGE
100
AcDbLine
 10
2.43712621971888
 20
5.733729800040696
 30
0.0
 11
2.444010999890195
 21
5.682691188691124
 31
0.0
  0
ARC
  5
3C1
330
1E
100
AcDbEntity
  8
IMAGE
100
AcDbCircle
 10
2.523554905726985
 20
5.711637397652281
 30
0.0
 40
0.0363347932812923
100
AcDbArc
 50
142.5532855597031
 51
232.8116314160015
  0
LINE
  5
3C2
330
1E
100
AcDbEntity
  8
IMAGE
100
AcDbLine
 10
2.494708017515284
 20
5.733729800040763
 30
0.0
 11
2.501592797686601
 21
5.682691188691193
 31
0.0
  0
ARC
  5
3C3
330
1E
100
AcDbEntity
  8
IMAGE
100
AcDbCircle
 10
2.542331578921539
 20
5.711637397652281
 30
0.0
 40
0.0363347932812923
100
AcDbArc
 50
142.5532855597031
 51
232.8116314160015
  0
LINE
  5
3C4
330
1E
100
AcDbEntity
  8
IMAGE
100
AcDbLine
 10
2.513484690709834
 20
5.733729800040763
 30
0.0
 11
2.520369470881048
 21
5.682691188691193
 31
0.0
  0
ARC
  5
3C5
330
1E
100
AcDbEntity
  8
IMAGE
100
AcDbCircle
 10
2.561734141222485
 20
5.711637397652281
 30
0.0
 40
0.0363347932812923
100
AcDbArc
 50
142.5532855597031
 51
232.8116314160015
  0
LINE
  5
3C6
330
1E
100
AcDbEntity
  8
IMAGE
100
AcDbLine
 10
2.532887253010892
 20
5.733729800040763
 30
0.0
 11
2.539772033181987
 21
5.682691188691193
 31
0.0
  0
ARC
  5
3C7
330
1E
100
AcDbEntity
  8
IMAGE
100
AcDbCircle
 10
2.581136703523425
 20
5.711637397652286
 30
0.0
 40
0.0363347932812923
100
AcDbArc
 50
142.5532855597031
 51
232.8116314160015
  0
LINE
  5
3C8
330
1E
100
AcDbEntity
  8
IMAGE
100
AcDbLine
 10
2.552289815311832
 20
5.733729800040769
 30
0.0
 11
2.559174595482927
 21
5.682691188691198
 31
0.0
  0
LINE
  5
3C9
330
1E
100
AcDbEntity
  8
IMAGE
100
AcDbLine
 10
2.417723657417935
 20
5.733729800040696
 30
0.0
 11
2.424608437589251
 21
5.682691188691124
 31
0.0
  0
ARC
  5
3CA
330
1E
100
AcDbEntity
  8
IMAGE
100
AcDbCircle
 10
2.465973107930579
 20
5.711637397652212
 30
0.0
 40
0.0363347932812923
100
AcDbArc
 50
142.5532855597031
 51
232.8116314160015
  0
LINE
  5
3CB
330
1E
100
AcDbEntity
  8
IMAGE
100
AcDbLine
 10
2.554855087240271
 20
5.665678318241377
 30
0.0
 11
2.554855087240273
 21
4.857854334698564
 31
0.0
  0
LINE
  5
3CC
330
1E
100
AcDbEntity
  8
IMAGE
100
AcDbLine
 10
2.312792602025814
 20
5.665678318241377
 30
0.0
 11
2.312792602025814
 21
3.220411446849839
 31
0.0
  0
LINE
  5
3CD
330
1E
100
AcDbEntity
  8
IMAGE
100
AcDbLine
 10
2.335461184074548
 20
5.665678318241377
 30
0.0
 11
2.335461184074549
 21
4.857854334698564
 31
0.0
  0
LINE
  5
3CE
330
1E
100
AcDbEntity
  8
IMAGE
100
AcDbLine
 10
2.098797060386056
 20
5.665678318241377
 30
0.0
 11
2.098797060386054
 21
4.085704889022157
 31
0.0
  0
TEXT
  5
3CF
330
1E
100
AcDbEntity
  8
TEXT_BUBBLES
100
AcDbText
 10
6.326663212346389
 20
5.776349354675395
 30
0.0
 40
0.125
  1
1-INCH GALVANIZED STEEL PIPE
  7
SIMPLEX
100
AcDbText
  0
TEXT
  5
3D0
330
1E
100
AcDbEntity
  8
TEXT_BUBBLES
100
AcDbText
 10
6.326663212346389
 20
5.426349354675395
 30
0.0
 40
0.125
  1
  CLAMPS OR EQUIVALENT
  7
SIMPLEX
100
AcDbText
  0
TEXT
  5
3D1
330
1E
100
AcDbEntity
  8
TEXT_BUBBLES
100
AcDbText
 10
6.326663212346389
 20
5.251349354675395
 30
0.0
 40
0.125
  1
  SUPPORT SYSTEM
  7
SIMPLEX
100
AcDbText
  0
TEXT
  5
3D3
330
1E
100
AcDbEntity
  8
TEXT_BUBBLES
100
AcDbText
 10
5.992345481035699
 20
6.820813589101151
 30
0.0
 40
0.125
  1
4
  7
ROMANS
 72
     4
 11
6.054845481035699
 21
6.883313589101151
 31
0.0
100
AcDbText
  0
TEXT
  5
3D4
330
1E
100
AcDbEntity
  8
TEXT_BUBBLES
100
AcDbText
 10
6.326663212346389
 20
8.051349354675394
 30
0.0
 40
0.125
  1
IMPACT SPRINKLER:
  7
SIMPLEX
100
AcDbText
  0
TEXT
  5
3D5
330
1E
100
AcDbEntity
  8
TEXT_BUBBLES
100
AcDbText
 10
6.326663212346389
 20
7.876349354675395
 30
0.0
 40
0.125
  1
  RAIN BIRD 65PJADJ-TNT
  7
SIMPLEX
100
AcDbText
  0
TEXT
  5
3D7
330
1E
100
AcDbEntity
  8
TEXT_BUBBLES
100
AcDbText
 10
5.99532167151189
 20
7.170813589101152
 30
0.0
 40
0.125
  1
3
  7
ROMANS
 72
     4
 11
6.054845481035699
 21
7.233313589101152
 31
0.0
100
AcDbText
  0
ARC
  5
3D8
330
1E
100
AcDbEntity
  8
IMAGE
100
AcDbCircle
 10
2.840069099793938
 20
6.019562685814579
 30
0.0
 40
0.1818260367492528
100
AcDbArc
 50
116.0563205359582
 51
205.2549940243739
  0
ARC
  5
3D9
330
1E
100
AcDbEntity
  8
IMAGE
100
AcDbCircle
 10
2.595754474120835
 20
6.105332778385938
 30
0.0
 40
0.1818260367492528
100
AcDbArc
 50
296.0563205359582
 51
25.2549940243739
  0
ARC
  5
3DA
330
1E
100
AcDbEntity
  8
IMAGE
100
AcDbCircle
 10
2.946169381749771
 20
6.528843622938265
 30
0.0
 40
0.1818260367492528
100
AcDbArc
 50
116.0563205359582
 51
205.2549940243739
  0
ARC
  5
3DB
330
1E
100
AcDbEntity
  8
IMAGE
100
AcDbCircle
 10
2.701854756076669
 20
6.614613715509626
 30
0.0
 40
0.1818260367492528
100
AcDbArc
 50
296.0563205359582
 51
25.2549940243739
  0
ARC
  5
3DC
330
1E
100
AcDbEntity
  8
IMAGE
100
AcDbCircle
 10
3.154125934383206
 20
6.494891560463353
 30
0.0
 40
0.1818260367492528
100
AcDbArc
 50
116.0563205359582
 51
205.2549940243739
  0
ARC
  5
3DD
330
1E
100
AcDbEntity
  8
IMAGE
100
AcDbCircle
 10
2.909811308710104
 20
6.580661653034713
 30
0.0
 40
0.1818260367492528
100
AcDbArc
 50
296.0563205359582
 51
25.2549940243739
  0
ARC
  5
3DE
330
1E
100
AcDbEntity
  8
IMAGE
100
AcDbCircle
 10
3.463938757694242
 20
6.477915529225897
 30
0.0
 40
0.1818260367492528
100
AcDbArc
 50
116.0563205359582
 51
205.2549940243739
  0
ARC
  5
3DF
330
1E
100
AcDbEntity
  8
IMAGE
100
AcDbCircle
 10
3.219624132021139
 20
6.563685621797258
 30
0.0
 40
0.1818260367492528
100
AcDbArc
 50
296.0563205359582
 51
25.2549940243739
  0
ARC
  5
3E0
330
1E
100
AcDbEntity
  8
IMAGE
100
AcDbCircle
 10
3.396034577242509
 20
6.252983115329601
 30
0.0
 40
0.1818260367492528
100
AcDbArc
 50
116.0563205359582
 51
205.2549940243739
  0
ARC
  5
3E1
330
1E
100
AcDbEntity
  8
IMAGE
100
AcDbCircle
 10
3.151719951569406
 20
6.338753207900961
 30
0.0
 40
0.1818260367492528
100
AcDbArc
 50
296.0563205359582
 51
25.2549940243739
  0
ARC
  5
3E2
330
1E
100
AcDbEntity
  8
IMAGE
100
AcDbCircle
 10
2.899485257689205
 20
6.274203154376421
 30
0.0
 40
0.1818260367492528
100
AcDbArc
 50
116.0563205359582
 51
205.2549940243739
  0
ARC
  5
3E3
330
1E
100
AcDbEntity
  8
IMAGE
100
AcDbCircle
 10
2.655170632016102
 20
6.359973246947782
 30
0.0
 40
0.1818260367492528
100
AcDbArc
 50
296.0563205359582
 51
25.2549940243739
  0
ARC
  5
3E4
330
1E
100
AcDbEntity
  8
IMAGE
100
AcDbCircle
 10
3.285690284008439
 20
5.89648645934302
 30
0.0
 40
0.1818260367492528
100
AcDbArc
 50
116.0563205359582
 51
205.2549940243739
  0
ARC
  5
3E5
330
1E
100
AcDbEntity
  8
IMAGE
100
AcDbCircle
 10
3.041375658335337
 20
5.982256551914381
 30
0.0
 40
0.1818260367492528
100
AcDbArc
 50
296.0563205359582
 51
25.2549940243739
  0
ARC
  5
3E6
330
1E
100
AcDbEntity
  8
IMAGE
100
AcDbCircle
 10
3.311154351677841
 20
5.718238131349731
 30
0.0
 40
0.1818260367492528
100
AcDbArc
 50
116.0563205359582
 51
205.2549940243739
  0
ARC
  5
3E7
330
1E
100
AcDbEntity
  8
IMAGE
100
AcDbCircle
 10
3.066839726004738
 20
5.80400822392109
 30
0.0
 40
0.1818260367492528
100
AcDbArc
 50
296.0563205359582
 51
25.2549940243739
  0
ARC
  5
3E8
330
1E
100
AcDbEntity
  8
IMAGE
100
AcDbCircle
 10
3.506378870476576
 20
5.90497447496175
 30
0.0
 40
0.1818260367492528
100
AcDbArc
 50
116.0563205359582
 51
205.2549940243739
  0
ARC
  5
3E9
330
1E
100
AcDbEntity
  8
IMAGE
100
AcDbCircle
 10
3.262064244803473
 20
5.990744567533108
 30
0.0
 40
0.1818260367492528
100
AcDbArc
 50
296.0563205359582
 51
25.2549940243739
  0
ARC
  5
3EA
330
1E
100
AcDbEntity
  8
IMAGE
100
AcDbCircle
 10
3.027196716042586
 20
6.360289064693364
 30
0.0
 40
0.1818260367492528
100
AcDbArc
 50
143.5307656099477
 51
232.7294390983634
  0
ARC
  5
3EB
330
1E
100
AcDbEntity
  8
IMAGE
100
AcDbCircle
 10
2.770866417022866
 20
6.32367045054769
 30
0.0
 40
0.1818260367492528
100
AcDbArc
 50
323.5307656099477
 51
52.72943909836341
  0
ARC
  5
3EC
330
1E
100
AcDbEntity
  8
IMAGE
100
AcDbCircle
 10
2.925062149543461
 20
5.900683515447304
 30
0.0
 40
0.1818260367492528
100
AcDbArc
 50
143.5307656099477
 51
232.7294390983634
  0
ARC
  5
3ED
330
1E
100
AcDbEntity
  8
IMAGE
100
AcDbCircle
 10
2.668731850523744
 20
5.864064901301632
 30
0.0
 40
0.1818260367492528
100
AcDbArc
 50
323.5307656099477
 51
52.72943909836341
  0
ARC
  5
3EE
330
1E
100
AcDbEntity
  8
IMAGE
100
AcDbCircle
 10
2.873994866293899
 20
5.75769512234853
 30
0.0
 40
0.1818260367492528
100
AcDbArc
 50
143.5307656099477
 51
232.7294390983634
  0
ARC
  5
3EF
330
1E
100
AcDbEntity
  8
IMAGE
100
AcDbCircle
 10
2.617664567274181
 20
5.721076508202856
 30
0.0
 40
0.1818260367492528
100
AcDbArc
 50
323.5307656099477
 51
52.72943909836341
  0
ARC
  5
3F0
330
1E
100
AcDbEntity
  8
IMAGE
100
AcDbCircle
 10
3.047623629342409
 20
5.737268209048704
 30
0.0
 40
0.1818260367492528
100
AcDbArc
 50
143.5307656099477
 51
232.7294390983634
  0
ARC
  5
3F1
330
1E
100
AcDbEntity
  8
IMAGE
100
AcDbCircle
 10
2.791293330322693
 20
5.700649594903032
 30
0.0
 40
0.1818260367492528
100
AcDbArc
 50
323.5307656099477
 51
52.72943909836341
  0
ARC
  5
3F2
330
1E
100
AcDbEntity
  8
IMAGE
100
AcDbCircle
 10
3.139544739191621
 20
6.145806475045202
 30
0.0
 40
0.1818260367492528
100
AcDbArc
 50
143.5307656099477
 51
232.7294390983634
  0
ARC
  5
3F3
330
1E
100
AcDbEntity
  8
IMAGE
100
AcDbCircle
 10
2.883214440171904
 20
6.10918786089953
 30
0.0
 40
0.1818260367492528
100
AcDbArc
 50
323.5307656099477
 51
52.72943909836341
  0
ARC
  5
3F4
330
1E
100
AcDbEntity
  8
IMAGE
100
AcDbCircle
 10
3.302960045590221
 20
6.288794868143976
 30
0.0
 40
0.1818260367492528
100
AcDbArc
 50
143.5307656099477
 51
232.7294390983634
  0
ARC
  5
3F5
330
1E
100
AcDbEntity
  8
IMAGE
100
AcDbCircle
 10
3.046629746570503
 20
6.252176253998302
 30
0.0
 40
0.1818260367492528
100
AcDbArc
 50
323.5307656099477
 51
52.72943909836341
  0
ARC
  5
3F6
330
1E
100
AcDbEntity
  8
IMAGE
100
AcDbCircle
 10
3.537869548538204
 20
6.156019931695115
 30
0.0
 40
0.1818260367492528
100
AcDbArc
 50
143.5307656099477
 51
232.7294390983634
  0
ARC
  5
3F7
330
1E
100
AcDbEntity
  8
IMAGE
100
AcDbCircle
 10
3.281539249518488
 20
6.119401317549441
 30
0.0
 40
0.1818260367492528
100
AcDbArc
 50
323.5307656099477
 51
52.72943909836341
  0
ARC
  5
3F8
330
1E
100
AcDbEntity
  8
IMAGE
100
AcDbCircle
 10
3.394881155439432
 20
5.900683515447304
 30
0.0
 40
0.1818260367492528
100
AcDbArc
 50
143.5307656099477
 51
232.7294390983634
  0
ARC
  5
3F9
330
1E
100
AcDbEntity
  8
IMAGE
100
AcDbCircle
 10
3.138550856419715
 20
5.864064901301632
 30
0.0
 40
0.1818260367492528
100
AcDbArc
 50
323.5307656099477
 51
52.72943909836341
  0
ARC
  5
3FA
330
1E
100
AcDbEntity
  8
IMAGE
100
AcDbCircle
 10
3.180398565791272
 20
5.737268209048704
 30
0.0
 40
0.1818260367492528
100
AcDbArc
 50
143.5307656099477
 51
232.7294390983634
  0
ARC
  5
3FB
330
1E
100
AcDbEntity
  8
IMAGE
100
AcDbCircle
 10
2.924068266771553
 20
5.700649594903032
 30
0.0
 40
0.1818260367492528
100
AcDbArc
 50
323.5307656099477
 51
52.72943909836341
  0
ARC
  5
3FC
330
1E
100
AcDbEntity
  8
IMAGE
100
AcDbCircle
 10
3.475969117222509
 20
5.742943730487364
 30
0.0
 40
0.1818260367492528
100
AcDbArc
 50
143.5307656099477
 51
232.7294390983634
  0
ARC
  5
3FD
330
1E
100
AcDbEntity
  8
IMAGE
100
AcDbCircle
 10
3.219638818202791
 20
5.706325116341692
 30
0.0
 40
0.1818260367492528
100
AcDbArc
 50
323.5307656099477
 51
52.72943909836341
  0
ARC
  5
3FE
330
1E
100
AcDbEntity
  8
IMAGE
100
AcDbCircle
 10
3.027196716042586
 20
6.574771654341525
 30
0.0
 40
0.1818260367492528
100
AcDbArc
 50
143.5307656099477
 51
232.7294390983634
  0
ARC
  5
3FF
330
1E
100
AcDbEntity
  8
IMAGE
100
AcDbCircle
 10
2.770866417022866
 20
6.538153040195852
 30
0.0
 40
0.1818260367492528
100
AcDbArc
 50
323.5307656099477
 51
52.72943909836341
  0
ARC
  5
400
330
1E
100
AcDbEntity
  8
IMAGE
100
AcDbCircle
 10
3.264546859940074
 20
6.164445740832241
 30
0.0
 40
0.1818260367492528
100
AcDbArc
 50
159.7199718669747
 51
248.9186453553905
  0
ARC
  5
401
330
1E
100
AcDbEntity
  8
IMAGE
100
AcDbCircle
 10
3.028590667419464
 20
6.057811692289273
 30
0.0
 40
0.1818260367492528
100
AcDbArc
 50
339.7199718669747
 51
68.91864535539045
  0
ARC
  5
402
330
1E
100
AcDbEntity
  8
IMAGE
100
AcDbCircle
 10
3.193052663390687
 20
5.990816977783731
 30
0.0
 40
0.1818260367492528
100
AcDbArc
 50
159.7199718669747
 51
248.9186453553905
  0
ARC
  5
403
330
1E
100
AcDbEntity
  8
IMAGE
100
AcDbCircle
 10
2.957096470870077
 20
5.884182929240762
 30
0.0
 40
0.1818260367492528
100
AcDbArc
 50
339.7199718669747
 51
68.91864535539045
  0
ARC
  5
404
330
1E
100
AcDbEntity
  8
IMAGE
100
AcDbCircle
 10
2.985776670538978
 20
6.131396712915706
 30
0.0
 40
0.1818260367492528
100
AcDbArc
 50
159.7199718669747
 51
248.9186453553905
  0
ARC
  5
405
330
1E
100
AcDbEntity
  8
IMAGE
100
AcDbCircle
 10
2.749820478018368
 20
6.024762664372738
 30
0.0
 40
0.1818260367492528
100
AcDbArc
 50
339.7199718669747
 51
68.91864535539045
  0
ARC
  5
406
330
1E
100
AcDbEntity
  8
IMAGE
100
AcDbCircle
 10
3.264546859940074
 20
6.470849440329613
 30
0.0
 40
0.1818260367492528
100
AcDbArc
 50
159.7199718669747
 51
248.9186453553905
  0
ARC
  5
407
330
1E
100
AcDbEntity
  8
IMAGE
100
AcDbCircle
 10
3.028590667419464
 20
6.364215391786646
 30
0.0
 40
0.1818260367492528
100
AcDbArc
 50
339.7199718669747
 51
68.91864535539045
  0
ARC
  5
408
330
1E
100
AcDbEntity
  8
IMAGE
100
AcDbCircle
 10
3.448389079638498
 20
6.409568700430139
 30
0.0
 40
0.1818260367492528
100
AcDbArc
 50
159.7199718669747
 51
248.9186453553905
  0
ARC
  5
409
330
1E
100
AcDbEntity
  8
IMAGE
100
AcDbCircle
 10
3.212432887117888
 20
6.302934651887171
 30
0.0
 40
0.1818260367492528
100
AcDbArc
 50
339.7199718669747
 51
68.91864535539045
  0
ARC
  5
40A
330
1E
100
AcDbEntity
  8
IMAGE
100
AcDbCircle
 10
3.131771923491213
 20
6.399355243780227
 30
0.0
 40
0.1818260367492528
100
AcDbArc
 50
159.7199718669747
 51
248.9186453553905
  0
ARC
  5
40B
330
1E
100
AcDbEntity
  8
IMAGE
100
AcDbCircle
 10
2.895815730970602
 20
6.292721195237258
 30
0.0
 40
0.1818260367492528
100
AcDbArc
 50
339.7199718669747
 51
68.91864535539045
  0
ARC
  5
40C
330
1E
100
AcDbEntity
  8
IMAGE
100
AcDbCircle
 10
3.202501024912282
 20
5.79003625869439
 30
0.0
 40
0.1818260367492528
100
AcDbArc
 50
278.5307656099478
 51
7.729439098363569
  0
ARC
  5
40D
330
1E
100
AcDbEntity
  8
IMAGE
100
AcDbCircle
 10
3.409647187952759
 20
5.63467663641403
 30
0.0
 40
0.1818260367492528
100
AcDbArc
 50
98.53076560994793
 51
187.7294390983635
  0
ARC
  5
40E
330
1E
100
AcDbEntity
  8
IMAGE
100
AcDbCircle
 10
2.804176215565697
 20
5.933024651793163
 30
0.0
 40
0.1818260367492528
100
AcDbArc
 50
278.5307656099478
 51
7.729439098363569
  0
ARC
  5
40F
330
1E
100
AcDbEntity
  8
IMAGE
100
AcDbCircle
 10
3.011322378606174
 20
5.777665029512806
 30
0.0
 40
0.1818260367492528
100
AcDbArc
 50
98.53076560994793
 51
187.7294390983635
  0
ARC
  5
410
330
1E
100
AcDbEntity
  8
IMAGE
100
AcDbCircle
 10
3.18179251716815
 20
6.04759823563936
 30
0.0
 40
0.1818260367492528
100
AcDbArc
 50
339.7199718669747
 51
68.91864535539045
  0
ARC
  5
411
330
1E
100
AcDbEntity
  8
IMAGE
100
AcDbCircle
 10
3.41774870968876
 20
6.154232284182328
 30
0.0
 40
0.1818260367492528
100
AcDbArc
 50
159.7199718669747
 51
248.9186453553905
  0
ARC
  5
412
330
1E
100
AcDbEntity
  8
IMAGE
100
AcDbCircle
 10
3.079939545113334
 20
6.576472420737648
 30
0.0
 40
0.1818260367492528
100
AcDbArc
 50
278.5307656099478
 51
7.729439098363569
  0
ARC
  5
413
330
1E
100
AcDbEntity
  8
IMAGE
100
AcDbCircle
 10
3.28708570815381
 20
6.421112798457287
 30
0.0
 40
0.1818260367492528
100
AcDbArc
 50
98.53076560994793
 51
187.7294390983635
  0
ARC
  5
414
330
1E
100
AcDbEntity
  8
IMAGE
100
AcDbCircle
 10
1.733450223335567
 20
6.064879082809537
 30
0.0
 40
0.1818260367492528
100
AcDbArc
 50
116.0563205359582
 51
205.2549940243739
  0
ARC
  5
415
330
1E
100
AcDbEntity
  8
IMAGE
100
AcDbCircle
 10
1.489135597662463
 20
6.150649175380897
 30
0.0
 40
0.1818260367492528
100
AcDbArc
 50
296.0563205359582
 51
25.2549940243739
  0
ARC
  5
416
330
1E
100
AcDbEntity
  8
IMAGE
100
AcDbCircle
 10
0.948308136862396
 20
5.996974957859714
 30
0.0
 40
0.1818260367492528
100
AcDbArc
 50
116.0563205359582
 51
205.2549940243739
  0
ARC
  5
417
330
1E
100
AcDbEntity
  8
IMAGE
100
AcDbCircle
 10
0.7039935111892941
 20
6.082745050431072
 30
0.0
 40
0.1818260367492528
100
AcDbArc
 50
296.0563205359582
 51
25.2549940243739
  0
ARC
  5
418
330
1E
100
AcDbEntity
  8
IMAGE
100
AcDbCircle
 10
1.054408418818228
 20
6.506255894983399
 30
0.0
 40
0.1818260367492528
100
AcDbArc
 50
116.0563205359582
 51
205.2549940243739
  0
ARC
  5
419
330
1E
100
AcDbEntity
  8
IMAGE
100
AcDbCircle
 10
0.8100937931451266
 20
6.592025987554761
 30
0.0
 40
0.1818260367492528
100
AcDbArc
 50
296.0563205359582
 51
25.2549940243739
  0
ARC
  5
41A
330
1E
100
AcDbEntity
  8
IMAGE
100
AcDbCircle
 10
1.262364971451665
 20
6.472303832508488
 30
0.0
 40
0.1818260367492528
100
AcDbArc
 50
116.0563205359582
 51
205.2549940243739
  0
ARC
  5
41B
330
1E
100
AcDbEntity
  8
IMAGE
100
AcDbCircle
 10
1.018050345778561
 20
6.558073925079847
 30
0.0
 40
0.1818260367492528
100
AcDbArc
 50
296.0563205359582
 51
25.2549940243739
  0
ARC
  5
41C
330
1E
100
AcDbEntity
  8
IMAGE
100
AcDbCircle
 10
1.5721777947627
 20
6.455327801271031
 30
0.0
 40
0.1818260367492528
100
AcDbArc
 50
116.0563205359582
 51
205.2549940243739
  0
ARC
  5
41D
330
1E
100
AcDbEntity
  8
IMAGE
100
AcDbCircle
 10
1.327863169089598
 20
6.541097893842391
 30
0.0
 40
0.1818260367492528
100
AcDbArc
 50
296.0563205359582
 51
25.2549940243739
  0
ARC
  5
41E
330
1E
100
AcDbEntity
  8
IMAGE
100
AcDbCircle
 10
1.504273614310966
 20
6.230395387374735
 30
0.0
 40
0.1818260367492528
100
AcDbArc
 50
116.0563205359582
 51
205.2549940243739
  0
ARC
  5
41F
330
1E
100
AcDbEntity
  8
IMAGE
100
AcDbCircle
 10
1.259958988637864
 20
6.316165479946096
 30
0.0
 40
0.1818260367492528
100
AcDbArc
 50
296.0563205359582
 51
25.2549940243739
  0
ARC
  5
420
330
1E
100
AcDbEntity
  8
IMAGE
100
AcDbCircle
 10
1.877746606795501
 20
5.984242934431621
 30
0.0
 40
0.1818260367492528
100
AcDbArc
 50
116.0563205359582
 51
205.2549940243739
  0
ARC
  5
421
330
1E
100
AcDbEntity
  8
IMAGE
100
AcDbCircle
 10
1.6334319811224
 20
6.070013027002981
 30
0.0
 40
0.1818260367492528
100
AcDbArc
 50
296.0563205359582
 51
25.2549940243739
  0
ARC
  5
422
330
1E
100
AcDbEntity
  8
IMAGE
100
AcDbCircle
 10
1.007724294757663
 20
6.251615426421555
 30
0.0
 40
0.1818260367492528
100
AcDbArc
 50
116.0563205359582
 51
205.2549940243739
  0
ARC
  5
423
330
1E
100
AcDbEntity
  8
IMAGE
100
AcDbCircle
 10
0.7634096690845614
 20
6.337385518992916
 30
0.0
 40
0.1818260367492528
100
AcDbArc
 50
296.0563205359582
 51
25.2549940243739
  0
ARC
  5
424
330
1E
100
AcDbEntity
  8
IMAGE
100
AcDbCircle
 10
1.393929321076898
 20
5.873898731388154
 30
0.0
 40
0.1818260367492528
100
AcDbArc
 50
116.0563205359582
 51
205.2549940243739
  0
ARC
  5
425
330
1E
100
AcDbEntity
  8
IMAGE
100
AcDbCircle
 10
1.149614695403796
 20
5.959668823959515
 30
0.0
 40
0.1818260367492528
100
AcDbArc
 50
296.0563205359582
 51
25.2549940243739
  0
ARC
  5
426
330
1E
100
AcDbEntity
  8
IMAGE
100
AcDbCircle
 10
1.419393388746299
 20
5.695650403394865
 30
0.0
 40
0.1818260367492528
100
AcDbArc
 50
116.0563205359582
 51
205.2549940243739
  0
ARC
  5
427
330
1E
100
AcDbEntity
  8
IMAGE
100
AcDbCircle
 10
1.175078763073196
 20
5.781420495966224
 30
0.0
 40
0.1818260367492528
100
AcDbArc
 50
296.0563205359582
 51
25.2549940243739
  0
ARC
  5
428
330
1E
100
AcDbEntity
  8
IMAGE
100
AcDbCircle
 10
1.614617907545034
 20
5.882386747006884
 30
0.0
 40
0.1818260367492528
100
AcDbArc
 50
116.0563205359582
 51
205.2549940243739
  0
ARC
  5
429
330
1E
100
AcDbEntity
  8
IMAGE
100
AcDbCircle
 10
1.370303281871931
 20
5.968156839578242
 30
0.0
 40
0.1818260367492528
100
AcDbArc
 50
296.0563205359582
 51
25.2549940243739
  0
ARC
  5
42A
330
1E
100
AcDbEntity
  8
IMAGE
100
AcDbCircle
 10
1.921871915154301
 20
5.724893937743751
 30
0.0
 40
0.1818260367492528
100
AcDbArc
 50
143.5307656099477
 51
232.7294390983634
  0
ARC
  5
42B
330
1E
100
AcDbEntity
  8
IMAGE
100
AcDbCircle
 10
1.665541616134581
 20
5.688275323598079
 30
0.0
 40
0.1818260367492528
100
AcDbArc
 50
323.5307656099477
 51
52.72943909836341
  0
ARC
  5
42C
330
1E
100
AcDbEntity
  8
IMAGE
100
AcDbCircle
 10
1.97293919840386
 20
6.521543556436921
 30
0.0
 40
0.1818260367492528
100
AcDbArc
 50
143.5307656099477
 51
232.7294390983634
  0
ARC
  5
42D
330
1E
100
AcDbEntity
  8
IMAGE
100
AcDbCircle
 10
1.716608899384144
 20
6.484924942291248
 30
0.0
 40
0.1818260367492528
100
AcDbArc
 50
323.5307656099477
 51
52.72943909836341
  0
ARC
  5
42E
330
1E
100
AcDbEntity
  8
IMAGE
100
AcDbCircle
 10
1.135435753111044
 20
6.337701336738498
 30
0.0
 40
0.1818260367492528
100
AcDbArc
 50
143.5307656099477
 51
232.7294390983634
  0
ARC
  5
42F
330
1E
100
AcDbEntity
  8
IMAGE
100
AcDbCircle
 10
0.8791054540913254
 20
6.301082722592824
 30
0.0
 40
0.1818260367492528
100
AcDbArc
 50
323.5307656099477
 51
52.72943909836341
  0
ARC
  5
430
330
1E
100
AcDbEntity
  8
IMAGE
100
AcDbCircle
 10
1.03330118661192
 20
5.878095787492438
 30
0.0
 40
0.1818260367492528
100
AcDbArc
 50
143.5307656099477
 51
232.7294390983634
  0
ARC
  5
431
330
1E
100
AcDbEntity
  8
IMAGE
100
AcDbCircle
 10
0.776970887592201
 20
5.841477173346766
 30
0.0
 40
0.1818260367492528
100
AcDbArc
 50
323.5307656099477
 51
52.72943909836341
  0
ARC
  5
432
330
1E
100
AcDbEntity
  8
IMAGE
100
AcDbCircle
 10
0.9822339033623581
 20
5.735107394393664
 30
0.0
 40
0.1818260367492528
100
AcDbArc
 50
143.5307656099477
 51
232.7294390983634
  0
ARC
  5
433
330
1E
100
AcDbEntity
  8
IMAGE
100
AcDbCircle
 10
0.7259036043426388
 20
5.69848878024799
 30
0.0
 40
0.1818260367492528
100
AcDbArc
 50
323.5307656099477
 51
52.72943909836341
  0
ARC
  5
434
330
1E
100
AcDbEntity
  8
IMAGE
100
AcDbCircle
 10
1.155862666410866
 20
5.714680481093838
 30
0.0
 40
0.1818260367492528
100
AcDbArc
 50
143.5307656099477
 51
232.7294390983634
  0
ARC
  5
435
330
1E
100
AcDbEntity
  8
IMAGE
100
AcDbCircle
 10
0.899532367391151
 20
5.678061866948167
 30
0.0
 40
0.1818260367492528
100
AcDbArc
 50
323.5307656099477
 51
52.72943909836341
  0
ARC
  5
436
330
1E
100
AcDbEntity
  8
IMAGE
100
AcDbCircle
 10
1.24778377626008
 20
6.123218747090336
 30
0.0
 40
0.1818260367492528
100
AcDbArc
 50
143.5307656099477
 51
232.7294390983634
  0
ARC
  5
437
330
1E
100
AcDbEntity
  8
IMAGE
100
AcDbCircle
 10
0.9914534772403627
 20
6.086600132944664
 30
0.0
 40
0.1818260367492528
100
AcDbArc
 50
323.5307656099477
 51
52.72943909836341
  0
ARC
  5
438
330
1E
100
AcDbEntity
  8
IMAGE
100
AcDbCircle
 10
1.411199082658678
 20
6.26620714018911
 30
0.0
 40
0.1818260367492528
100
AcDbArc
 50
143.5307656099477
 51
232.7294390983634
  0
ARC
  5
439
330
1E
100
AcDbEntity
  8
IMAGE
100
AcDbCircle
 10
1.154868783638962
 20
6.229588526043436
 30
0.0
 40
0.1818260367492528
100
AcDbArc
 50
323.5307656099477
 51
52.72943909836341
  0
ARC
  5
43A
330
1E
100
AcDbEntity
  8
IMAGE
100
AcDbCircle
 10
1.778883522055526
 20
6.419408989937797
 30
0.0
 40
0.1818260367492528
100
AcDbArc
 50
143.5307656099477
 51
232.7294390983634
  0
ARC
  5
43B
330
1E
100
AcDbEntity
  8
IMAGE
100
AcDbCircle
 10
1.522553223035807
 20
6.382790375792123
 30
0.0
 40
0.1818260367492528
100
AcDbArc
 50
323.5307656099477
 51
52.72943909836341
  0
ARC
  5
43C
330
1E
100
AcDbEntity
  8
IMAGE
100
AcDbCircle
 10
1.727816238805964
 20
6.317274423438672
 30
0.0
 40
0.1818260367492528
100
AcDbArc
 50
143.5307656099477
 51
232.7294390983634
  0
ARC
  5
43D
330
1E
100
AcDbEntity
  8
IMAGE
100
AcDbCircle
 10
1.471485939786245
 20
6.280655809292999
 30
0.0
 40
0.1818260367492528
100
AcDbArc
 50
323.5307656099477
 51
52.72943909836341
  0
ARC
  5
43E
330
1E
100
AcDbEntity
  8
IMAGE
100
AcDbCircle
 10
1.646108585606662
 20
6.133432203740249
 30
0.0
 40
0.1818260367492528
100
AcDbArc
 50
143.5307656099477
 51
232.7294390983634
  0
ARC
  5
43F
330
1E
100
AcDbEntity
  8
IMAGE
100
AcDbCircle
 10
1.389778286586947
 20
6.096813589594575
 30
0.0
 40
0.1818260367492528
100
AcDbArc
 50
323.5307656099477
 51
52.72943909836341
  0
ARC
  5
440
330
1E
100
AcDbEntity
  8
IMAGE
100
AcDbCircle
 10
1.50312019250789
 20
5.878095787492438
 30
0.0
 40
0.1818260367492528
100
AcDbArc
 50
143.5307656099477
 51
232.7294390983634
  0
ARC
  5
441
330
1E
100
AcDbEntity
  8
IMAGE
100
AcDbCircle
 10
1.246789893488172
 20
5.841477173346766
 30
0.0
 40
0.1818260367492528
100
AcDbArc
 50
323.5307656099477
 51
52.72943909836341
  0
ARC
  5
442
330
1E
100
AcDbEntity
  8
IMAGE
100
AcDbCircle
 10
1.288637602859731
 20
5.714680481093838
 30
0.0
 40
0.1818260367492528
100
AcDbArc
 50
143.5307656099477
 51
232.7294390983634
  0
ARC
  5
443
330
1E
100
AcDbEntity
  8
IMAGE
100
AcDbCircle
 10
1.032307303840012
 20
5.678061866948167
 30
0.0
 40
0.1818260367492528
100
AcDbArc
 50
323.5307656099477
 51
52.72943909836341
  0
ARC
  5
444
330
1E
100
AcDbEntity
  8
IMAGE
100
AcDbCircle
 10
1.625681672306838
 20
5.694253567794015
 30
0.0
 40
0.1818260367492528
100
AcDbArc
 50
143.5307656099477
 51
232.7294390983634
  0
ARC
  5
445
330
1E
100
AcDbEntity
  8
IMAGE
100
AcDbCircle
 10
1.369351373287122
 20
5.657634953648343
 30
0.0
 40
0.1818260367492528
100
AcDbArc
 50
323.5307656099477
 51
52.72943909836341
  0
ARC
  5
446
330
1E
100
AcDbEntity
  8
IMAGE
100
AcDbCircle
 10
1.809523892005262
 20
5.75553430769349
 30
0.0
 40
0.1818260367492528
100
AcDbArc
 50
143.5307656099477
 51
232.7294390983634
  0
ARC
  5
447
330
1E
100
AcDbEntity
  8
IMAGE
100
AcDbCircle
 10
1.553193592985546
 20
5.718915693547816
 30
0.0
 40
0.1818260367492528
100
AcDbArc
 50
323.5307656099477
 51
52.72943909836341
  0
ARC
  5
448
330
1E
100
AcDbEntity
  8
IMAGE
100
AcDbCircle
 10
1.97293919840386
 20
6.123218747090336
 30
0.0
 40
0.1818260367492528
100
AcDbArc
 50
143.5307656099477
 51
232.7294390983634
  0
ARC
  5
449
330
1E
100
AcDbEntity
  8
IMAGE
100
AcDbCircle
 10
1.716608899384144
 20
6.086600132944664
 30
0.0
 40
0.1818260367492528
100
AcDbArc
 50
323.5307656099477
 51
52.72943909836341
  0
ARC
  5
44A
330
1E
100
AcDbEntity
  8
IMAGE
100
AcDbCircle
 10
1.666535498906489
 20
6.450049359887533
 30
0.0
 40
0.1818260367492528
100
AcDbArc
 50
143.5307656099477
 51
232.7294390983634
  0
ARC
  5
44B
330
1E
100
AcDbEntity
  8
IMAGE
100
AcDbCircle
 10
1.410205199886772
 20
6.413430745741862
 30
0.0
 40
0.1818260367492528
100
AcDbArc
 50
323.5307656099477
 51
52.72943909836341
  0
ARC
  5
44C
330
1E
100
AcDbEntity
  8
IMAGE
100
AcDbCircle
 10
1.135435753111044
 20
6.552183926386659
 30
0.0
 40
0.1818260367492528
100
AcDbArc
 50
143.5307656099477
 51
232.7294390983634
  0
ARC
  5
44D
330
1E
100
AcDbEntity
  8
IMAGE
100
AcDbCircle
 10
0.8791054540913254
 20
6.515565312240986
 30
0.0
 40
0.1818260367492528
100
AcDbArc
 50
323.5307656099477
 51
52.72943909836341
  0
ARC
  5
44E
330
1E
100
AcDbEntity
  8
IMAGE
100
AcDbCircle
 10
1.965166382703453
 20
5.937588879879126
 30
0.0
 40
0.1818260367492528
100
AcDbArc
 50
159.7199718669747
 51
248.9186453553905
  0
ARC
  5
44F
330
1E
100
AcDbEntity
  8
IMAGE
100
AcDbCircle
 10
1.729210190182842
 20
5.83095483133616
 30
0.0
 40
0.1818260367492528
100
AcDbArc
 50
339.7199718669747
 51
68.91864535539045
  0
ARC
  5
450
330
1E
100
AcDbEntity
  8
IMAGE
100
AcDbCircle
 10
1.791537619654942
 20
6.203138752776848
 30
0.0
 40
0.1818260367492528
100
AcDbArc
 50
159.7199718669747
 51
248.9186453553905
  0
ARC
  5
451
330
1E
100
AcDbEntity
  8
IMAGE
100
AcDbCircle
 10
1.55558142713433
 20
6.096504704233882
 30
0.0
 40
0.1818260367492528
100
AcDbArc
 50
339.7199718669747
 51
68.91864535539045
  0
ARC
  5
452
330
1E
100
AcDbEntity
  8
IMAGE
100
AcDbCircle
 10
1.372785897008531
 20
6.141858012877375
 30
0.0
 40
0.1818260367492528
100
AcDbArc
 50
159.7199718669747
 51
248.9186453553905
  0
ARC
  5
453
330
1E
100
AcDbEntity
  8
IMAGE
100
AcDbCircle
 10
1.13682970448792
 20
6.035223964334407
 30
0.0
 40
0.1818260367492528
100
AcDbArc
 50
339.7199718669747
 51
68.91864535539045
  0
ARC
  5
454
330
1E
100
AcDbEntity
  8
IMAGE
100
AcDbCircle
 10
1.301291700459145
 20
5.968229249828865
 30
0.0
 40
0.1818260367492528
100
AcDbArc
 50
159.7199718669747
 51
248.9186453553905
  0
ARC
  5
455
330
1E
100
AcDbEntity
  8
IMAGE
100
AcDbCircle
 10
1.065335507938536
 20
5.861595201285896
 30
0.0
 40
0.1818260367492528
100
AcDbArc
 50
339.7199718669747
 51
68.91864535539045
  0
ARC
  5
456
330
1E
100
AcDbEntity
  8
IMAGE
100
AcDbCircle
 10
1.094015707607436
 20
6.10880898496084
 30
0.0
 40
0.1818260367492528
100
AcDbArc
 50
159.7199718669747
 51
248.9186453553905
  0
ARC
  5
457
330
1E
100
AcDbEntity
  8
IMAGE
100
AcDbCircle
 10
0.8580595150868273
 20
6.002174936417872
 30
0.0
 40
0.1818260367492528
100
AcDbArc
 50
339.7199718669747
 51
68.91864535539045
  0
ARC
  5
458
330
1E
100
AcDbEntity
  8
IMAGE
100
AcDbCircle
 10
1.372785897008531
 20
6.448261712374747
 30
0.0
 40
0.1818260367492528
100
AcDbArc
 50
159.7199718669747
 51
248.9186453553905
  0
ARC
  5
459
330
1E
100
AcDbEntity
  8
IMAGE
100
AcDbCircle
 10
1.13682970448792
 20
6.34162766383178
 30
0.0
 40
0.1818260367492528
100
AcDbArc
 50
339.7199718669747
 51
68.91864535539045
  0
ARC
  5
45A
330
1E
100
AcDbEntity
  8
IMAGE
100
AcDbCircle
 10
1.556628116706955
 20
6.386980972475273
 30
0.0
 40
0.1818260367492528
100
AcDbArc
 50
159.7199718669747
 51
248.9186453553905
  0
ARC
  5
45B
330
1E
100
AcDbEntity
  8
IMAGE
100
AcDbCircle
 10
1.320671924186346
 20
6.280346923932305
 30
0.0
 40
0.1818260367492528
100
AcDbArc
 50
339.7199718669747
 51
68.91864535539045
  0
ARC
  5
45C
330
1E
100
AcDbEntity
  8
IMAGE
100
AcDbCircle
 10
1.903885642803978
 20
6.427834799074923
 30
0.0
 40
0.1818260367492528
100
AcDbArc
 50
159.7199718669747
 51
248.9186453553905
  0
ARC
  5
45D
330
1E
100
AcDbEntity
  8
IMAGE
100
AcDbCircle
 10
1.667929450283367
 20
6.321200750531954
 30
0.0
 40
0.1818260367492528
100
AcDbArc
 50
339.7199718669747
 51
68.91864535539045
  0
ARC
  5
45E
330
1E
100
AcDbEntity
  8
IMAGE
100
AcDbCircle
 10
1.709829966455642
 20
5.896735053279477
 30
0.0
 40
0.1818260367492528
100
AcDbArc
 50
159.7199718669747
 51
248.9186453553905
  0
ARC
  5
45F
330
1E
100
AcDbEntity
  8
IMAGE
100
AcDbCircle
 10
1.473873773935031
 20
5.790101004736508
 30
0.0
 40
0.1818260367492528
100
AcDbArc
 50
339.7199718669747
 51
68.91864535539045
  0
ARC
  5
460
330
1E
100
AcDbEntity
  8
IMAGE
100
AcDbCircle
 10
1.771110706355117
 20
5.978442706478776
 30
0.0
 40
0.1818260367492528
100
AcDbArc
 50
159.7199718669747
 51
248.9186453553905
  0
ARC
  5
461
330
1E
100
AcDbEntity
  8
IMAGE
100
AcDbCircle
 10
1.535154513834506
 20
5.871808657935809
 30
0.0
 40
0.1818260367492528
100
AcDbArc
 50
339.7199718669747
 51
68.91864535539045
  0
ARC
  5
462
330
1E
100
AcDbEntity
  8
IMAGE
100
AcDbCircle
 10
1.24001096055967
 20
6.376767515825361
 30
0.0
 40
0.1818260367492528
100
AcDbArc
 50
159.7199718669747
 51
248.9186453553905
  0
ARC
  5
463
330
1E
100
AcDbEntity
  8
IMAGE
100
AcDbCircle
 10
1.004054768039059
 20
6.270133467282392
 30
0.0
 40
0.1818260367492528
100
AcDbArc
 50
339.7199718669747
 51
68.91864535539045
  0
ARC
  5
464
330
1E
100
AcDbEntity
  8
IMAGE
100
AcDbCircle
 10
1.310740061980739
 20
5.767448530739524
 30
0.0
 40
0.1818260367492528
100
AcDbArc
 50
278.5307656099478
 51
7.729439098363569
  0
ARC
  5
465
330
1E
100
AcDbEntity
  8
IMAGE
100
AcDbCircle
 10
1.517886225021217
 20
5.612088908459164
 30
0.0
 40
0.1818260367492528
100
AcDbArc
 50
98.53076560994793
 51
187.7294390983635
  0
ARC
  5
466
330
1E
100
AcDbEntity
  8
IMAGE
100
AcDbCircle
 10
0.9124152526341564
 20
5.910436923838298
 30
0.0
 40
0.1818260367492528
100
AcDbArc
 50
278.5307656099478
 51
7.729439098363569
  0
ARC
  5
467
330
1E
100
AcDbEntity
  8
IMAGE
100
AcDbCircle
 10
1.119561415674633
 20
5.75507730155794
 30
0.0
 40
0.1818260367492528
100
AcDbArc
 50
98.53076560994793
 51
187.7294390983635
  0
ARC
  5
468
330
1E
100
AcDbEntity
  8
IMAGE
100
AcDbCircle
 10
0.6952632343929022
 20
6.505351855591073
 30
0.0
 40
0.1818260367492528
100
AcDbArc
 50
323.5307656099477
 51
52.72943909836341
  0
ARC
  5
469
330
1E
100
AcDbEntity
  8
IMAGE
100
AcDbCircle
 10
0.9515935334126179
 20
6.541970469736745
 30
0.0
 40
0.1818260367492528
100
AcDbArc
 50
143.5307656099477
 51
232.7294390983634
  0
ARC
  5
46A
330
1E
100
AcDbEntity
  8
IMAGE
100
AcDbCircle
 10
1.688637958027499
 20
6.400682843034094
 30
0.0
 40
0.1818260367492528
100
AcDbArc
 50
278.5307656099478
 51
7.729439098363569
  0
ARC
  5
46B
330
1E
100
AcDbEntity
  8
IMAGE
100
AcDbCircle
 10
1.895784121067976
 20
6.245323220753737
 30
0.0
 40
0.1818260367492528
100
AcDbArc
 50
98.53076560994793
 51
187.7294390983635
  0
ARC
  5
46C
330
1E
100
AcDbEntity
  8
IMAGE
100
AcDbCircle
 10
1.290031554236607
 20
6.025010507684494
 30
0.0
 40
0.1818260367492528
100
AcDbArc
 50
339.7199718669747
 51
68.91864535539045
  0
ARC
  5
46D
330
1E
100
AcDbEntity
  8
IMAGE
100
AcDbCircle
 10
1.525987746757218
 20
6.131644556227462
 30
0.0
 40
0.1818260367492528
100
AcDbArc
 50
159.7199718669747
 51
248.9186453553905
  0
ARC
  5
46E
330
1E
100
AcDbEntity
  8
IMAGE
100
AcDbCircle
 10
1.188178582181791
 20
6.553884692782782
 30
0.0
 40
0.1818260367492528
100
AcDbArc
 50
278.5307656099478
 51
7.729439098363569
  0
ARC
  5
46F
330
1E
100
AcDbEntity
  8
IMAGE
100
AcDbCircle
 10
1.395324745222268
 20
6.398525070502421
 30
0.0
 40
0.1818260367492528
100
AcDbArc
 50
98.53076560994793
 51
187.7294390983635
  0
ARC
  5
470
330
1E
100
AcDbEntity
  8
IMAGE
100
AcDbCircle
 10
1.563554201345485
 20
6.620169084232568
 30
0.0
 40
0.1818260367492528
100
AcDbArc
 50
278.5307656099478
 51
7.729439098363569
  0
ARC
  5
471
330
1E
100
AcDbEntity
  8
IMAGE
100
AcDbCircle
 10
1.770700364385962
 20
6.464809461952209
 30
0.0
 40
0.1818260367492528
100
AcDbArc
 50
98.53076560994793
 51
187.7294390983635
  0
TEXT
  5
482
330
1E
100
AcDbEntity
  8
TEXT_BUBBLES
100
AcDbText
 10
3.904338338081248
 20
7.654952701429388
 30
0.0
 40
0.125
  1
1
  7
ROMANS
 72
     4
 11
3.954933576176486
 21
7.717452701429388
 31
0.0
100
AcDbText
  0
TEXT
  5
484
330
1E
100
AcDbEntity
  8
TEXT_BUBBLES
100
AcDbText
 10
3.895409766652677
 20
6.275638739676625
 30
0.0
 40
0.125
  1
2
  7
ROMANS
 72
     4
 11
3.954933576176486
 21
6.338138739676625
 31
0.0
100
AcDbText
  0
TEXT
  5
486
330
1E
100
AcDbEntity
  8
TEXT_BUBBLES
100
AcDbText
 10
3.895409766652677
 20
5.636542564029238
 30
0.0
 40
0.125
  1
3
  7
ROMANS
 72
     4
 11
3.954933576176486
 21
5.699042564029238
 31
0.0
100
AcDbText
  0
TEXT
  5
488
330
1E
100
AcDbEntity
  8
TEXT_BUBBLES
100
AcDbText
 10
3.013953538264456
 20
5.204117218263644
 30
0.0
 40
0.125
  1
4
  7
ROMANS
 72
     4
 11
3.076453538264456
 21
5.266617218263644
 31
0.0
100
AcDbText
  0
TEXT
  5
48A
330
1E
100
AcDbEntity
  8
TEXT_BUBBLES
100
AcDbText
 10
3.016929728740646
 20
4.856110617886757
 30
0.0
 40
0.125
  1
5
  7
ROMANS
 72
     4
 11
3.076453538264456
 21
4.918610617886757
 31
0.0
100
AcDbText
  0
TEXT
  5
48C
330
1E
100
AcDbEntity
  8
TEXT_BUBBLES
100
AcDbText
 10
2.46834506195633
 20
3.290242261261024
 30
0.0
 40
0.125
  1
6
  7
ROMANS
 72
     4
 11
2.53084506195633
 21
3.352742261261024
 31
0.0
100
AcDbText
  0
TEXT
  5
48E
330
1E
100
AcDbEntity
  8
TEXT_BUBBLES
100
AcDbText
 10
3.003613521394649
 20
3.290242261261024
 30
0.0
 40
0.125
  1
7
  7
ROMANS
 72
     4
 11
3.063137330918459
 21
3.352742261261024
 31
0.0
100
AcDbText
  0
TEXT
  5
490
330
1E
100
AcDbEntity
  8
TEXT_BUBBLES
100
AcDbText
 10
3.815017112103333
 20
3.290242261261024
 30
0.0
 40
0.125
  1
8
  7
ROMANS
 72
     4
 11
3.874540921627143
 21
3.352742261261024
 31
0.0
100
AcDbText
  0
TEXT
  5
492
330
1E
100
AcDbEntity
  8
TEXT_BUBBLES
100
AcDbText
 10
4.497116344556953
 20
3.290242261261024
 30
0.0
 40
0.125
  1
7
  7
ROMANS
 72
     4
 11
4.556640154080763
 21
3.352742261261024
 31
0.0
100
AcDbText
  0
TEXT
  5
494
330
1E
100
AcDbEntity
  8
TEXT_BUBBLES
100
AcDbText
 10
4.870302994732391
 20
3.290242261261024
 30
0.0
 40
0.125
  1
9
  7
ROMANS
 72
     4
 11
4.926850613780009
 21
3.352742261261024
 31
0.0
100
AcDbText
  0
TEXT
  5
496
330
1E
100
AcDbEntity
  8
TEXT_BUBBLES
100
AcDbText
 10
5.259540612544306
 20
3.290242261261024
 30
0.0
 40
0.125
  1
10
  7
ROMANS
 72
     4
 11
5.387516803020496
 21
3.352742261261024
 31
0.0
100
AcDbText
  0
TEXT
  5
498
330
1E
100
AcDbEntity
  8
TEXT_BUBBLES
100
AcDbText
 10
6.326663212346389
 20
7.526349354675396
 30
0.0
 40
0.125
  1
PLANT MATERIAL
  7
SIMPLEX
100
AcDbText
  0
TEXT
  5
499
330
1E
100
AcDbEntity
  8
TEXT_BUBBLES
100
AcDbText
 10
6.326663212346389
 20
7.176349354675396
 30
0.0
 40
0.125
  1
FINISH GRADE/TOP OF MULCH
  7
SIMPLEX
100
AcDbText
  0
TEXT
  5
49B
330
1E
100
AcDbEntity
  8
TEXT_BUBBLES
100
AcDbText
 10
5.99532167151189
 20
6.120813589101151
 30
0.0
 40
0.125
  1
5
  7
ROMANS
 72
     4
 11
6.054845481035699
 21
6.183313589101151
 31
0.0
100
AcDbText
  0
TEXT
  5
49D
330
1E
100
AcDbEntity
  8
TEXT_BUBBLES
100
AcDbText
 10
5.992345481035699
 20
5.770813589101151
 30
0.0
 40
0.125
  1
6
  7
ROMANS
 72
     4
 11
6.054845481035699
 21
5.833313589101151
 31
0.0
100
AcDbText
  0
TEXT
  5
49F
330
1E
100
AcDbEntity
  8
TEXT_BUBBLES
100
AcDbText
 10
5.99532167151189
 20
4.895813589101151
 30
0.0
 40
0.125
  1
7
  7
ROMANS
 72
     4
 11
6.054845481035699
 21
4.958313589101151
 31
0.0
100
AcDbText
  0
TEXT
  5
4A1
330
1E
100
AcDbEntity
  8
TEXT_BUBBLES
100
AcDbText
 10
5.99532167151189
 20
4.545813589101151
 30
0.0
 40
0.125
  1
8
  7
ROMANS
 72
     4
 11
6.054845481035699
 21
4.608313589101151
 31
0.0
100
AcDbText
  0
TEXT
  5
4A3
330
1E
100
AcDbEntity
  8
TEXT_BUBBLES
100
AcDbText
 10
5.99829786198808
 20
4.020813589101151
 30
0.0
 40
0.125
  1
9
  7
ROMANS
 72
     4
 11
6.054845481035699
 21
4.083313589101151
 31
0.0
100
AcDbText
  0
TEXT
  5
4A5
330
1E
100
AcDbEntity
  8
TEXT_BUBBLES
100
AcDbText
 10
5.926869290559508
 20
3.670813589101151
 30
0.0
 40
0.125
  1
10
  7
ROMANS
 72
     4
 11
6.054845481035699
 21
3.733313589101151
 31
0.0
100
AcDbText
  0
TEXT
  5
4A6
330
1E
100
AcDbEntity
  8
TEXT_BUBBLES
100
AcDbText
 10
5.99532167151189
 20
7.520813589101152
 30
0.0
 40
0.125
  1
2
  7
ROMANS
 72
     4
 11
6.054845481035699
 21
7.583313589101152
 31
0.0
100
AcDbText
  0
TEXT
  5
4A8
330
1E
100
AcDbEntity
  8
TEXT_BUBBLES
100
AcDbText
 10
6.326663212346389
 20
5.601349354675395
 30
0.0
 40
0.125
  1
  WITH STAINLESS STEEL GEAR
  7
SIMPLEX
100
AcDbText
  0
TEXT
  5
4A9
330
1E
100
AcDbEntity
  8
TEXT_LEADERS
100
AcDbText
 10
5.16904128
 20
7.797952414675396
 30
0.0
 40
0.125
  1
IMPACT SPRINKLER:
  7
SIMPLEX
100
AcDbText
  0
TEXT
  5
4AA
330
1E
100
AcDbEntity
  8
TEXT_LEADERS
100
AcDbText
 10
5.16904128
 20
6.702738402479765
 30
0.0
 40
0.125
  1
PLANT MATERIAL
  7
SIMPLEX
100
AcDbText
  0
TEXT
  5
4AB
330
1E
100
AcDbEntity
  8
TEXT_LEADERS
100
AcDbText
 10
5.16904128
 20
3.108934510418487
 30
0.0
 40
0.125
  1
PVC SCH 40 ELL
  7
SIMPLEX
100
AcDbText
  0
TEXT
  5
4AC
330
1E
100
AcDbEntity
  8
TEXT_LEADERS
100
AcDbText
 10
5.16904128
 20
2.382094412632325
 30
0.0
 40
0.125
  1
  SUPPORT SYSTEM
  7
SIMPLEX
100
AcDbText
  0
TEXT
  5
4AD
330
1E
100
AcDbEntity
  8
TEXT_LEADERS
100
AcDbText
 10
5.16904128
 20
3.333148197350082
 30
0.0
 40
0.125
  1
PVC LATERAL PIPE
  7
SIMPLEX
100
AcDbText
  0
TEXT
  5
4AE
330
1E
100
AcDbEntity
  8
TEXT_LEADERS
100
AcDbText
 10
5.16904128
 20
7.622952414675395
 30
0.0
 40
0.125
  1
  RAIN BIRD 65PJADJ-TNT
  7
SIMPLEX
100
AcDbText
  0
TEXT
  5
4AF
330
1E
100
AcDbEntity
  8
TEXT_LEADERS
100
AcDbText
 10
5.16904128
 20
6.05796792365922
 30
0.0
 40
0.125
  1
FINISH GRADE/TOP OF MULCH
  7
SIMPLEX
100
AcDbText
  0
TEXT
  5
4B0
330
1E
100
AcDbEntity
  8
TEXT_LEADERS
100
AcDbText
 10
5.16904128
 20
5.877157260624155
 30
0.0
 40
0.125
  1
UV RADIATION RESISTANT
  7
SIMPLEX
100
AcDbText
  0
TEXT
  5
4B1
330
1E
100
AcDbEntity
  8
TEXT_LEADERS
100
AcDbText
 10
5.16904128
 20
5.527157260624155
 30
0.0
 40
0.125
  1
  (LENGTH AS REQUIRED)
  7
SIMPLEX
100
AcDbText
  0
TEXT
  5
4B2
330
1E
100
AcDbEntity
  8
TEXT_LEADERS
100
AcDbText
 10
5.16904128
 20
5.702157260624155
 30
0.0
 40
0.125
  1
  PVC SCH 80 NIPPLE
  7
SIMPLEX
100
AcDbText
  0
TEXT
  5
4B3
330
1E
100
AcDbEntity
  8
TEXT_LEADERS
100
AcDbText
 10
5.16904128
 20
2.557094412632329
 30
0.0
 40
0.125
  1
  CLAMPS OR EQUIVALENT
  7
SIMPLEX
100
AcDbText
  0
TEXT
  5
4B4
330
1E
100
AcDbEntity
  8
TEXT_LEADERS
100
AcDbText
 10
5.16904128
 20
2.73209441263233
 30
0.0
 40
0.125
  1
  WITH STAINLESS STEEL GEAR
  7
SIMPLEX
100
AcDbText
  0
TEXT
  5
4B5
330
1E
100
AcDbEntity
  8
TEXT_LEADERS
100
AcDbText
 10
5.16904128
 20
2.907094412632329
 30
0.0
 40
0.125
  1
1-INCH GALVANIZED STEEL PIPE
  7
SIMPLEX
100
AcDbText
  0
TEXT
  5
4B6
330
1E
100
AcDbEntity
  8
TEXT_LEADERS
100
AcDbText
 10
5.16904128
 20
5.243076075117821
 30
0.0
 40
0.125
  1
PVC SCH 40 STREET ELL
  7
SIMPLEX
100
AcDbText
  0
TEXT
  5
4B7
330
1E
100
AcDbEntity
  8
TEXT_LEADERS
100
AcDbText
 10
5.16904128
 20
5.018981571041146
 30
0.0
 40
0.125
  1
PVC SCH 80 NIPPLE
  7
SIMPLEX
100
AcDbText
  0
TEXT
  5
4B8
330
1E
100
AcDbEntity
  8
TEXT_LEADERS
100
AcDbText
 10
5.16904128
 20
4.843981571041147
 30
0.0
 40
0.125
  1
  (LENGTH AS REQUIRED)
  7
SIMPLEX
100
AcDbText
  0
TEXT
  5
4B9
330
1E
100
AcDbEntity
  8
TEXT_LEADERS
100
AcDbText
 10
5.16904128
 20
3.584720823486892
 30
0.0
 40
0.125
  1
PVC SCH 40 TEE OR ELL
  7
SIMPLEX
100
AcDbText
  0
TEXT
  5
4D3
330
1E
100
AcDbEntity
  8
TEXT_LEADERS
100
AcDbText
 10
5.16904128
 20
3.875664416387167
 30
0.0
 40
0.125
  1
PVC SCH 40 STREET ELL
  7
SIMPLEX
100
AcDbText
  0
LINE
  5
4E1
330
1E
100
AcDbEntity
  8
IMAGE
100
AcDbLine
 10
2.098797060386054
 20
4.347339865822723
 30
0.0
 11
1.623888035770155
 21
4.347339865822723
 31
0.0
  0
LINE
  5
4E2
330
1E
100
AcDbEntity
  8
IMAGE
100
AcDbLine
 10
2.098797060386054
 20
4.085704889022157
 30
0.0
 11
1.623888035770155
 21
4.085704889022157
 31
0.0
  0
LWPOLYLINE
  5
512
330
1E
100
AcDbEntity
  8
IMAGE
100
AcDbPolyline
 90
        2
 70
     0
 43
0.0
 10
2.098797060386056
 20
3.220411446849839
 10
2.312792602025814
 20
3.220411446849838
  0
INSERT
  5
537
330
1E
100
AcDbEntity
  8
TITLE
100
AcDbBlockReference
 66
     1
  2
titleblock
 10
0.0
 20
0.0
 30
0.0
  0
ATTRIB
  5
538
330
537
100
AcDbEntity
  8
TITLE
100
AcDbText
 10
0.5055556038023421
 20
0.7842270964783673
 30
0.0
 40
0.2
  1
D
  7
L200
 72
     4
 11
0.6064423705144839
 21
0.8842270964783672
 31
0.0
100
AcDbAttribute
  2
D
 70
     0
  0
ATTRIB
  5
539
330
537
100
AcDbEntity
  8
TITLE
100
AcDbText
 10
1.231442370514484
 20
1.34371230274675
 30
0.0
 40
0.2
  1

  7
L200
100
AcDbAttribute
  2
TITLE1
 70
     0
  0
ATTRIB
  5
53A
330
537
100
AcDbEntity
  8
TITLE
100
AcDbText
 10
1.231442370514484
 20
0.9842270964783674
 30
0.0
 40
0.2
  1
FULL OR PART-CIRCLE IMPACT SPRINKLER
  7
L200
100
AcDbAttribute
  2
TITLE2
 70
     0
  0
ATTRIB
  5
53B
330
537
100
AcDbEntity
  8
TITLE
100
AcDbText
 10
2.713645751168312
 20
0.5927927664583189
 30
0.0
 40
0.2
  1
65PJADJ-TNT WITH SWING JOINT
  7
L200
100
AcDbAttribute
  2
TITLE3
 70
     0
  0
ATTRIB
  5
53C
330
537
100
AcDbEntity
  8
TITLE
100
AcDbText
 10
2.713645751168312
 20
0.2692560808167741
 30
0.0
 40
0.2
  1

  7
L200
100
AcDbAttribute
  2
TITLE4
 70
     0
  0
ATTRIB
  5
53D
330
537
100
AcDbEntity
  8
TITLE
 62
     7
100
AcDbText
 10
7.613405306156856
 20
0.9696027915446398
 30
0.0
 40
0.08
  1
01-09-04
  7
L80
 72
     2
 11
8.261024353775903
 21
0.9696027915446398
 31
0.0
100
AcDbAttribute
  2
REVISED
 70
     0
  0
ATTRIB
  5
53E
330
537
100
AcDbEntity
  8
TITLE
 62
     7
100
AcDbText
 10
0.2639423705144838
 20
0.0847116480207214
 30
0.0
 40
0.08
  1
I-65PJ-SJ.dwg
  7
L80
100
AcDbAttribute
  2
DWG-NAME
 70
     0
  0
ATTRIB
  5
53F
330
537
100
AcDbEntity
  8
TITLE
 62
     7
100
AcDbText
 10
1.231442370514484
 20
0.7005637793954894
 30
0.0
 40
0.1
  1
N.T.S.
  7
L100
100
AcDbAttribute
  2
SCALE
 70
     0
  0
SEQEND
  5
540
330
537
100
AcDbEntity
  8
BORDER
  0
LWPOLYLINE
  5
554
330
1E
100
AcDbEntity
  8
INSTRUCT-CALLOUT
100
AcDbPolyline
 90
        4
 70
     1
 43
0.0
 10
11.35231280619914
 20
10.14
 10
11.35231280619914
 20
8.708513978657757
 10
16.18999999999999
 20
8.708513978657757
 10
16.18999999999999
 20
10.14
  0
TEXT
  5
555
330
1E
100
AcDbEntity
  8
INSTRUCT-CALLOUT
100
AcDbText
 10
11.68290522614117
 20
10.1971154907172
 30
0.0
 40
0.125
  1
CHOOSING EQUIPMENT CALLOUT METHOD
  7
ROMANS
100
AcDbText
  0
TEXT
  5
556
330
1E
100
AcDbEntity
  8
INSTRUCT-CALLOUT
100
AcDbText
 10
11.45015545709445
 20
9.823004427242315
 30
0.0
 40
0.125
  1
CHOOSE EITHER LEADERS OR BUBBLE CALLOUTS
  7
ROMANS
100
AcDbText
  0
TEXT
  5
557
330
1E
100
AcDbEntity
  8
INSTRUCT-CALLOUT
100
AcDbText
 10
11.45015545709445
 20
9.661104383755317
 30
0.0
 40
0.125
  1
BY TURNING ON THE APPROPRIATE LAYER:
  7
ROMANS
100
AcDbText
  0
TEXT
  5
558
330
1E
100
AcDbEntity
  8
INSTRUCT-CALLOUT
100
AcDbText
 10
11.88649918935727
 20
9.324087089280139
 30
0.0
 40
0.125
  1
TEXT_LEADERS         TEXT_BUBBLES
  7
ROMANS
100
AcDbText
  0
LINE
  5
559
330
1E
100
AcDbEntity
  8
INSTRUCT-CALLOUT
100
AcDbLine
 10
12.19362384131406
 20
9.071615835578525
 30
0.0
 11
12.32989238717269
 21
9.071615835578525
 31
0.0
  0
LINE
  5
55A
330
1E
100
AcDbEntity
  8
INSTRUCT-CALLOUT
100
AcDbLine
 10
11.90585342683574
 20
8.951864133772241
 30
0.0
 11
12.19362384131406
 21
9.071615835578525
 31
0.0
  0
SOLID
  5
55B
330
1E
100
AcDbEntity
  8
INSTRUCT-CALLOUT
100
AcDbTrace
 10
11.99123942437607
 20
8.954902459634132
 30
0.0
 11
11.96818753948433
 21
9.010297500954978
 31
0.0
 12
11.81352835796766
 22
8.913444325619353
 32
0.0
 13
11.81352835796766
 23
8.913444325619353
 33
0.0
  0
TEXT
  5
55C
330
1E
100
AcDbEntity
  8
INSTRUCT-CALLOUT
100
AcDbText
 10
12.35586712418982
 20
9.006865226184624
 30
0.0
 40
0.125
  1
ITEM 1
  7
ROMANS
100
AcDbText
  0
SOLID
  5
55D
330
1E
100
AcDbEntity
  8
INSTRUCT-CALLOUT
100
AcDbTrace
 10
14.13370875242549
 20
8.968328494185529
 30
0.0
 11
14.14951104607983
 21
8.9104468259713
 31
0.0
 12
13.96796489460997
 22
8.891980779115398
 32
0.0
 13
13.96796489460997
 23
8.891980779115398
 33
0.0
  0
LINE
  5
55E
330
1E
100
AcDbEntity
  8
INSTRUCT-CALLOUT
100
AcDbLine
 10
14.06443434163369
 20
8.918317935205964
 30
0.0
 11
14.32031575855853
 21
8.988176206670582
 31
0.0
  0
TEXT
  5
55F
330
1E
100
AcDbEntity
  8
INSTRUCT-CALLOUT
100
AcDbText
 10
14.39030732924294
 20
8.958597651783788
 30
0.0
 40
0.125
  1
1
  7
ROMANS
 72
     4
 11
14.44090256733818
 21
9.021097651783788
 31
0.0
100
AcDbText
  0
CIRCLE
  5
560
330
1E
100
AcDbEntity
  8
INSTRUCT-CALLOUT
100
AcDbCircle
 10
14.44090256733818
 20
9.021097651783788
 30
0.0
 40
0.125
  0
TEXT
  5
561
330
1E
100
AcDbEntity
  8
INSTRUCT-CALLOUT
100
AcDbText
 10
11.39134015341624
 20
8.357285921922345
 30
0.0
 40
0.125
  1
LAYER "INSTRUCT-CALLOUT".
  7
ROMANS
100
AcDbText
  0
TEXT
  5
562
330
1E
100
AcDbEntity
  8
INSTRUCT-CALLOUT
100
AcDbText
 10
11.39134015341624
 20
8.519185965410345
 30
0.0
 40
0.125
  1
TO TURN OFF THIS INSTRUCTION BOX, TURN OFF
  7
ROMANS
100
AcDbText
  0
LEADER
  5
572
330
1E
100
AcDbEntity
  8
TEXT_BUBBLES
100
AcDbLeader
  3
Standard
 76
     2
 10
2.515709880967374
 20
7.229362252679959
 30
0.0
 10
3.798683543035032
 20
7.717452701429388
 30
0.0
1001
ACAD
1000
DSTYLE
1002
{
1070
   147
1040
0.09
1070
    77
1070
     0
1070
   279
1070
     2
1002
}
  0
LEADER
  5
573
330
1E
100
AcDbEntity
  8
TEXT_BUBBLES
100
AcDbLeader
  3
Standard
 76
     2
 10
3.447070067373486
 20
6.194635990275496
 30
0.0
 10
3.798683543035032
 20
6.338138739676625
 30
0.0
1001
ACAD
1000
DSTYLE
1002
{
1070
   147
1040
0.09
1070
    77
1070
     0
1070
   279
1070
     2
1002
}
  0
LEADER
  5
574
330
1E
100
AcDbEntity
  8
TEXT_BUBBLES
100
AcDbLeader
  3
Standard
 76
     2
 10
3.410140113514999
 20
5.540619144750395
 30
0.0
 10
3.798683543035032
 20
5.699042564029238
 30
0.0
1001
ACAD
1000
DSTYLE
1002
{
1070
   147
1040
0.09
1070
    77
1070
     0
1070
   279
1070
     2
1002
}
  0
LEADER
  5
575
330
1E
100
AcDbEntity
  8
TEXT_BUBBLES
100
AcDbLeader
  3
Standard
 76
     2
 10
2.554855087240272
 20
5.088535817453011
 30
0.0
 10
2.920203505123001
 20
5.266617218263644
 30
0.0
1001
ACAD
1000
DSTYLE
1002
{
1070
   147
1040
0.09
1070
    77
1070
     0
1070
   279
1070
     2
1002
}
  0
LEADER
  5
576
330
1E
100
AcDbEntity
  8
TEXT_BUBBLES
100
AcDbLeader
  3
Standard
 76
     2
 10
2.57472902234062
 20
4.797335381436824
 30
0.0
 10
2.920203505123001
 20
4.918610617886757
 30
0.0
1001
ACAD
1000
DSTYLE
1002
{
1070
   147
1040
0.09
1070
    77
1070
     0
1070
   279
1070
     2
1002
}
  0
LEADER
  5
577
330
1E
100
AcDbEntity
  8
TEXT_BUBBLES
100
AcDbLeader
  3
Standard
 76
     2
 10
2.312792602025814
 20
3.892441038190125
 30
0.0
 10
2.53084506195633
 20
3.508992294402478
 30
0.0
1001
ACAD
1000
DSTYLE
1002
{
1070
   147
1040
0.09
1070
    77
1070
     0
1070
   279
1070
     2
1002
}
  0
LEADER
  5
578
330
1E
100
AcDbEntity
  8
TEXT_BUBBLES
100
AcDbLeader
  3
Standard
 76
     2
 10
2.604415190316387
 20
4.488119400836194
 30
0.0
 10
3.063137330918459
 20
3.508992294402478
 30
0.0
1001
ACAD
1000
DSTYLE
1002
{
1070
   147
1040
0.09
1070
    77
1070
     0
1070
   279
1070
     2
1002
}
  0
LEADER
  5
579
330
1E
100
AcDbEntity
  8
TEXT_BUBBLES
100
AcDbLeader
  3
Standard
 76
     2
 10
3.485929395566512
 20
4.314589540499735
 30
0.0
 10
3.874540921627143
 20
3.508992294402478
 30
0.0
1001
ACAD
1000
DSTYLE
1002
{
1070
   147
1040
0.09
1070
    77
1070
     0
1070
   279
1070
     2
1002
}
  0
LEADER
  5
57A
330
1E
100
AcDbEntity
  8
TEXT_BUBBLES
100
AcDbLeader
  3
Standard
 76
     2
 10
4.237868290110371
 20
4.141730311013146
 30
0.0
 10
4.556640154080763
 20
3.508992294402478
 30
0.0
1001
ACAD
1000
DSTYLE
1002
{
1070
   147
1040
0.09
1070
    77
1070
     0
1070
   279
1070
     2
1002
}
  0
LEADER
  5
57B
330
1E
100
AcDbEntity
  8
TEXT_BUBBLES
100
AcDbLeader
  3
Standard
 76
     2
 10
4.642491205406077
 20
4.056556494572582
 30
0.0
 10
4.926850613780009
 20
3.508992294402478
 30
0.0
1001
ACAD
1000
DSTYLE
1002
{
1070
   147
1040
0.09
1070
    77
1070
     0
1070
   279
1070
     2
1002
}
  0
LEADER
  5
57E
330
1E
100
AcDbEntity
  8
TEXT_BUBBLES
100
AcDbLeader
  3
Standard
 76
     2
 10
5.090618914643897
 20
4.087590321589001
 30
0.0
 10
5.387516803020496
 20
3.508992294402478
 30
0.0
1001
ACAD
1000
DSTYLE
1002
{
1070
   147
1040
0.09
1070
    77
1070
     0
1070
   279
1070
     2
1002
}
  0
HATCH
  5
593
330
1E
100
AcDbEntity
  8
IMAGE
100
AcDbHatch
 10
0.0
 20
0.0
 30
0.0
210
0.0
220
0.0
230
1.0
  2
EARTH
 70
     0
 71
     0
 91
        2
 92
        7
 72
     0
 73
     1
 93
        7
 10
2.098797060386055
 20
5.538669072691715
 10
0.7997795981330322
 20
5.538669072691771
 10
0.8673688278083364
 20
5.299026774088225
 10
1.167765520281487
 20
5.180171683251676
 10
1.499453526308847
 20
5.136382963401458
 10
1.879275277884118
 20
5.1314099680432
 10
2.098797060386055
 20
5.136414391399013
 97
        0
 92
        7
 72
     0
 73
     1
 93
        7
 10
3.198173923909472
 20
5.428008576951803
 10
3.362140427204983
 20
5.469295074799545
 10
3.384670170430085
 20
5.540619144750396
 10
2.554855087240272
 20
5.540619144750396
 10
2.554855087240273
 20
5.171396643558404
 10
2.8035004275517
 20
5.265229617615893
 10
2.964963629563761
 20
5.381582486449962
 97
        0
 75
     0
 76
     1
 52
45.0
 41
0.65
 77
     0
 78
     6
 53
45.0
 43
0.0
 44
0.2982261846753955
 45
0.0
 46
0.229809703885628
 79
     2
 49
0.1625
 49
-0.1625
 53
45.0
 43
-0.0430893194785553
 44
0.3413155041539508
 45
0.0
 46
0.229809703885628
 79
     2
 49
0.1625
 49
-0.1625
 53
45.0
 43
-0.0861786389571105
 44
0.384404823632506
 45
0.0
 46
0.229809703885628
 79
     2
 49
0.1625
 49
-0.1625
 53
135.0
 43
-0.0861786389571105
 44
0.4131310366182096
 45
-0.2298097038856279
 46
0.0
 79
     2
 49
0.1625
 49
-0.1625
 53
135.0
 43
-0.0430893194785552
 44
0.4562203560967647
 45
-0.2298097038856279
 46
0.0
 79
     2
 49
0.1625
 49
-0.1625
 53
135.0
 43
0.0
 44
0.49930967557532
 45
-0.2298097038856279
 46
0.0
 79
     2
 49
0.1625
 49
-0.1625
 47
0.0032771759142437
 98
        2
 10
1.873492627530299
 20
5.324961025516445
 10
2.752159518268952
 20
5.419999124930916
  0
LEADER
  5
599
330
1E
100
AcDbEntity
  8
TEXT_LEADERS
100
AcDbLeader
  3
Standard
 76
     3
 10
2.543946941754671
 20
6.913918731313582
 30
0.0
 10
4.861893799107432
 20
7.850430051776271
 30
0.0
 10
5.114935990587749
 20
7.850430051776271
 30
0.0
1001
ACAD
1000
DSTYLE
1002
{
1070
   147
1040
0.09
1070
    77
1070
     0
1070
   279
1070
     2
1002
}
  0
LEADER
  5
59A
330
1E
100
AcDbEntity
  8
TEXT_LEADERS
100
AcDbLeader
  3
Standard
 76
     3
 10
3.447070067373486
 20
6.194635990275496
 30
0.0
 10
4.861893799107432
 20
6.76626188282996
 30
0.0
 10
5.114935990587749
 20
6.76626188282996
 30
0.0
1001
ACAD
1000
DSTYLE
1002
{
1070
   147
1040
0.09
1070
    77
1070
     0
1070
   279
1070
     2
1002
}
  0
LEADER
  5
59B
330
1E
100
AcDbEntity
  8
TEXT_LEADERS
100
AcDbLeader
  3
Standard
 76
     3
 10
3.410140113514999
 20
5.540619144750396
 30
0.0
 10
4.861893799107432
 20
6.127165707182583
 30
0.0
 10
5.114935990587749
 20
6.127165707182583
 30
0.0
1001
ACAD
1000
DSTYLE
1002
{
1070
   147
1040
0.09
1070
    77
1070
     0
1070
   279
1070
     2
1002
}
  0
LEADER
  5
59C
330
1E
100
AcDbEntity
  8
TEXT_LEADERS
100
AcDbLeader
  3
Standard
 76
     3
 10
2.554855087240272
 20
5.006164763722609
 30
0.0
 10
4.861893799107432
 20
5.938268907333889
 30
0.0
 10
5.114935990587749
 20
5.938268907333889
 30
0.0
1001
ACAD
1000
DSTYLE
1002
{
1070
   147
1040
0.09
1070
    77
1070
     0
1070
   279
1070
     2
1002
}
  0
LEADER
  5
59D
330
1E
100
AcDbEntity
  8
TEXT_LEADERS
100
AcDbLeader
  3
Standard
 76
     3
 10
2.704129582750002
 20
4.717536104104653
 30
0.0
 10
4.175339424898649
 20
5.311943464039497
 30
0.0
 10
5.114935990587749
 20
5.311943464039497
 30
0.0
1001
ACAD
1000
DSTYLE
1002
{
1070
   147
1040
0.09
1070
    77
1070
     0
1070
   279
1070
     2
1002
}
  0
LEADER
  5
59E
330
1E
100
AcDbEntity
  8
TEXT_LEADERS
100
AcDbLeader
  3
Standard
 76
     3
 10
3.505786228981558
 20
4.534642100817483
 30
0.0
 10
4.861893799107432
 20
5.082545124201918
 30
0.0
 10
5.114935990587749
 20
5.082545124201918
 30
0.0
1001
ACAD
1000
DSTYLE
1002
{
1070
   147
1040
0.09
1070
    77
1070
     0
1070
   279
1070
     2
1002
}
  0
LEADER
  5
59F
330
1E
100
AcDbEntity
  8
TEXT_LEADERS
100
AcDbLeader
  3
Standard
 76
     3
 10
4.513512192287765
 20
4.139762947311704
 30
0.0
 10
4.861893799107432
 20
3.938624732833654
 30
0.0
 10
5.114935990587749
 20
3.938624732833654
 30
0.0
1001
ACAD
1000
DSTYLE
1002
{
1070
   147
1040
0.09
1070
    77
1070
     0
1070
   279
1070
     2
1002
}
  0
LEADER
  5
5A0
330
1E
100
AcDbEntity
  8
TEXT_LEADERS
100
AcDbLeader
  3
Standard
 76
     3
 10
4.162949534484657
 20
4.056556494572582
 30
0.0
 10
4.861893799107432
 20
3.653020835244078
 30
0.0
 10
5.114935990587749
 20
3.653020835244078
 30
0.0
1001
ACAD
1000
DSTYLE
1002
{
1070
   147
1040
0.09
1070
    77
1070
     0
1070
   279
1070
     2
1002
}
  0
LEADER
  5
5A1
330
1E
100
AcDbEntity
  8
TEXT_LEADERS
100
AcDbLeader
  3
Standard
 76
     3
 10
3.678023010378027
 20
4.085704889022155
 30
0.0
 10
4.861893799107432
 20
3.402135375462535
 30
0.0
 10
5.114935990587749
 20
3.402135375462535
 30
0.0
1001
ACAD
1000
DSTYLE
1002
{
1070
   147
1040
0.09
1070
    77
1070
     0
1070
   279
1070
     2
1002
}
  0
LEADER
  5
5A2
330
1E
100
AcDbEntity
  8
TEXT_LEADERS
100
AcDbLeader
  3
Standard
 76
     3
 10
2.510227748129499
 20
4.539950504530907
 30
0.0
 10
4.861893799107432
 20
3.182215476954691
 30
0.0
 10
5.114935990587749
 20
3.182215476954691
 30
0.0
1001
ACAD
1000
DSTYLE
1002
{
1070
   147
1040
0.09
1070
    77
1070
     0
1070
   279
1070
     2
1002
}
  0
LEADER
  5
5A3
330
1E
100
AcDbEntity
  8
TEXT_LEADERS
100
AcDbLeader
  3
Standard
 76
     3
 10
2.312792602025814
 20
4.286793966248723
 30
0.0
 10
4.591524092601921
 20
2.971167726753726
 30
0.0
 10
5.114935990587749
 20
2.971167726753726
 30
0.0
1001
ACAD
1000
DSTYLE
1002
{
1070
   147
1040
0.09
1070
    77
1070
     0
1070
   279
1070
     2
1002
}
  0
CIRCLE
  5
5BF
330
1E
100
AcDbEntity
  8
TEXT_BUBBLES
100
AcDbCircle
 10
6.054845481035699
 20
8.10831358910115
 30
0.0
 40
0.1562500331414542
  0
CIRCLE
  5
5C0
330
1E
100
AcDbEntity
  8
TEXT_BUBBLES
100
AcDbCircle
 10
6.054845481035699
 20
7.583313589101152
 30
0.0
 40
0.1562500331414542
  0
CIRCLE
  5
5C1
330
1E
100
AcDbEntity
  8
TEXT_BUBBLES
100
AcDbCircle
 10
6.054845481035699
 20
7.233313589101152
 30
0.0
 40
0.1562500331414542
  0
CIRCLE
  5
5C2
330
1E
100
AcDbEntity
  8
TEXT_BUBBLES
100
AcDbCircle
 10
6.054845481035699
 20
6.883313589101151
 30
0.0
 40
0.1562500331414542
  0
CIRCLE
  5
5C3
330
1E
100
AcDbEntity
  8
TEXT_BUBBLES
100
AcDbCircle
 10
6.054845481035699
 20
6.183313589101151
 30
0.0
 40
0.1562500331414542
  0
CIRCLE
  5
5C4
330
1E
100
AcDbEntity
  8
TEXT_BUBBLES
100
AcDbCircle
 10
6.054845481035699
 20
5.833313589101151
 30
0.0
 40
0.1562500331414542
  0
CIRCLE
  5
5C5
330
1E
100
AcDbEntity
  8
TEXT_BUBBLES
100
AcDbCircle
 10
6.054845481035699
 20
4.958313589101151
 30
0.0
 40
0.1562500331414542
  0
CIRCLE
  5
5C6
330
1E
100
AcDbEntity
  8
TEXT_BUBBLES
100
AcDbCircle
 10
6.054845481035699
 20
4.608313589101151
 30
0.0
 40
0.1562500331414542
  0
CIRCLE
  5
5C7
330
1E
100
AcDbEntity
  8
TEXT_BUBBLES
100
AcDbCircle
 10
6.054845481035699
 20
4.083313589101151
 30
0.0
 40
0.1562500331414542
  0
CIRCLE
  5
5C9
330
1E
100
AcDbEntity
  8
TEXT_BUBBLES
100
AcDbCircle
 10
5.387516803020496
 20
3.352742261261024
 30
0.0
 40
0.1562500331414542
  0
CIRCLE
  5
5CA
330
1E
100
AcDbEntity
  8
TEXT_BUBBLES
100
AcDbCircle
 10
4.926850613780009
 20
3.352742261261024
 30
0.0
 40
0.1562500331414542
  0
CIRCLE
  5
5CB
330
1E
100
AcDbEntity
  8
TEXT_BUBBLES
100
AcDbCircle
 10
4.556640154080763
 20
3.352742261261024
 30
0.0
 40
0.1562500331414542
  0
CIRCLE
  5
5CC
330
1E
100
AcDbEntity
  8
TEXT_BUBBLES
100
AcDbCircle
 10
3.874540921627143
 20
3.352742261261024
 30
0.0
 40
0.1562500331414542
  0
CIRCLE
  5
5CD
330
1E
100
AcDbEntity
  8
TEXT_BUBBLES
100
AcDbCircle
 10
3.063137330918459
 20
3.352742261261024
 30
0.0
 40
0.1562500331414542
  0
CIRCLE
  5
5CE
330
1E
100
AcDbEntity
  8
TEXT_BUBBLES
100
AcDbCircle
 10
2.53084506195633
 20
3.352742261261024
 30
0.0
 40
0.1562500331414542
  0
CIRCLE
  5
5CF
330
1E
100
AcDbEntity
  8
TEXT_BUBBLES
100
AcDbCircle
 10
3.076453538264456
 20
4.918610617886757
 30
0.0
 40
0.1562500331414542
  0
CIRCLE
  5
5D0
330
1E
100
AcDbEntity
  8
TEXT_BUBBLES
100
AcDbCircle
 10
3.076453538264456
 20
5.266617218263644
 30
0.0
 40
0.1562500331414542
  0
CIRCLE
  5
5D1
330
1E
100
AcDbEntity
  8
TEXT_BUBBLES
100
AcDbCircle
 10
3.954933576176486
 20
5.699042564029238
 30
0.0
 40
0.1562500331414542
  0
CIRCLE
  5
5D2
330
1E
100
AcDbEntity
  8
TEXT_BUBBLES
100
AcDbCircle
 10
3.954933576176486
 20
6.338138739676625
 30
0.0
 40
0.1562500331414542
  0
CIRCLE
  5
5D3
330
1E
100
AcDbEntity
  8
TEXT_BUBBLES
100
AcDbCircle
 10
3.954933576176486
 20
7.717452701429388
 30
0.0
 40
0.1562500331414542
  0
CIRCLE
  5
5D5
330
1E
100
AcDbEntity
  8
TEXT_BUBBLES
100
AcDbCircle
 10
6.054845481035699
 20
3.733313589101151
 30
0.0
 40
0.1562500331414542
  0
VIEWPORT
  5
D5
330
1A
100
AcDbEntity
 67
     1
  8
0
100
AcDbViewport
 10
6.172388059701492
 20
4.5
 30
0.0
 40
12.34477611940298
 41
9.0
 68
     1
 69
     1
 12
6.172388059701492
 22
4.5
 13
0.0
 23
0.0
 14
0.14
 24
0.14
 15
0.14
 25
0.14
 16
0.0
 26
0.0
 36
1.0
 17
0.0
 27
0.0
 37
0.0
 42
50.0
 43
0.0
 44
0.0
 45
9.0
 50
0.0
 51
0.0
 72
   100
 90
    32800
  1

281
     0
 71
     0
 74
     0
110
0.0
120
0.0
130
0.0
111
0.0
121
0.0
131
0.0
112
0.0
122
0.0
132
0.0
 79
     0
146
0.0
  0
ENDSEC
  0
SECTION
  2
OBJECTS
  0
DICTIONARY
  5
C
330
0
100
AcDbDictionary
281
     1
  3
ACAD_GROUP
350
D
  3
ACAD_LAYOUT
350
19
  3
ACAD_MLINESTYLE
350
16
  3
ACAD_PLOTSETTINGS
350
18
  3
ACAD_PLOTSTYLENAME
350
E
  3
AcadDim
350
598
  3
AcDbVariableDictionary
350
519
  0
DICTIONARY
  5
D
102
{ACAD_REACTORS
330
C
102
}
330
C
100
AcDbDictionary
281
     1
  0
DICTIONARY
  5
19
102
{ACAD_REACTORS
330
C
102
}
330
C
100
AcDbDictionary
281
     1
  3
Layout1
350
1D
  3
Model
350
21
  0
DICTIONARY
  5
16
102
{ACAD_REACTORS
330
C
102
}
330
C
100
AcDbDictionary
281
     1
  3
Standard
350
17
  0
DICTIONARY
  5
18
102
{ACAD_REACTORS
330
C
102
}
330
C
100
AcDbDictionary
281
     1
  0
ACDBDICTIONARYWDFLT
  5
E
102
{ACAD_REACTORS
330
C
102
}
330
C
100
AcDbDictionary
281
     1
  3
Normal
350
F
100
AcDbDictionaryWithDefault
340
F
  0
XRECORD
  5
598
102
{ACAD_REACTORS
330
C
102
}
330
C
100
AcDbXrecord
280
     1
 90
   990106
  3

 60
     4
 61
     0
 62
     1
 63
     3
 64
     0
 65
     0
 66
     0
 67
     3
 68
     1
 69
     0
 70
     0
 71
     1
 72
     0
 40
0.0
170
     0
  0
DICTIONARY
  5
519
102
{ACAD_REACTORS
330
C
102
}
330
C
100
AcDbDictionary
281
     1
  3
DIMASSOC
350
51C
  3
HIDETEXT
350
51B
  3
SORTENTS
350
51A
  0
LAYOUT
  5
1D
102
{ACAD_REACTORS
330
19
102
}
330
19
100
AcDbPlotSettings
  1

  2
S:\AutoCAD 2002\Plotters\1055B&WDraftShaded.pc3
  4

  6

 40
0.0
 41
0.0
 42
0.0
 43
0.0
 44
0.0
 45
0.0
 46
0.0
 47
0.0
 48
0.0
 49
0.0
140
0.0
141
0.0
142
1.0
143
1.0
 70
   688
 72
     0
 73
     0
 74
     5
  7
Color.ctb
 75
    16
147
1.0
148
0.0
149
0.0
100
AcDbLayout
  1
Layout1
 70
     1
 71
     1
 10
0.0
 20
0.0
 11
12.0
 21
9.0
 12
0.0
 22
0.0
 32
0.0
 14
1.000000000000000E+20
 24
1.000000000000000E+20
 34
1.000000000000000E+20
 15
-1.000000000000000E+20
 25
-1.000000000000000E+20
 35
-1.000000000000000E+20
146
0.0
 13
0.0
 23
0.0
 33
0.0
 16
1.0
 26
0.0
 36
0.0
 17
0.0
 27
1.0
 37
0.0
 76
     0
330
1A
331
D5
  0
LAYOUT
  5
21
102
{ACAD_REACTORS
330
19
102
}
330
19
100
AcDbPlotSettings
  1

  2
OKI DOKI Color Laser.pc3
  4
Tabloid
  6

 40
5.027083396911621
 41
5.027085304260253
 42
5.027099609375
 43
5.027069091796875
 44
279.3999938964843
 45
431.7999877929687
 46
2.032
 47
1.523999999999999
 48
0.0
 49
0.0000000000000001
140
16.48999999999999
141
10.44
142
1.0
143
1.0
 70
 11940
 72
     0
 73
     1
 74
     4
  7
Color.ctb
 75
     0
147
1.0
148
0.0
149
-0.0000000000000028
100
AcDbLayout
  1
Model
 70
     1
 71
     0
 10
0.0
 20
0.0
 11
12.0
 21
9.0
 12
0.0
 22
0.0
 32
0.0
 14
0.0
 24
0.0
 34
0.0
 15
0.0
 25
0.0
 35
0.0
146
0.0
 13
0.0
 23
0.0
 33
0.0
 16
1.0
 26
0.0
 36
0.0
 17
0.0
 27
1.0
 37
0.0
 76
     0
330
1E
  0
MLINESTYLE
  5
17
102
{ACAD_REACTORS
330
16
102
}
330
16
100
AcDbMlineStyle
  2
STANDARD
 70
     0
  3

 62
   256
 51
90.0
 52
90.0
 71
     2
 49
0.5
 62
   256
  6
BYLAYER
 49
-0.5
 62
   256
  6
BYLAYER
  0
ACDBPLACEHOLDER
  5
F
102
{ACAD_REACTORS
330
E
102
}
330
E
  0
DICTIONARYVAR
  5
51C
102
{ACAD_REACTORS
330
519
102
}
330
519
100
DictionaryVariables
280
     0
  1
1
  0
DICTIONARYVAR
  5
51B
102
{ACAD_REACTORS
330
519
102
}
330
519
100
DictionaryVariables
280
     0
  1
1
  0
DICTIONARYVAR
  5
51A
102
{ACAD_REACTORS
330
519
102
}
330
519
100
DictionaryVariables
280
     0
  1
1
  0
ENDSEC
  0
EOF
