  0
SECTION
  2
HEADER
  9
$ACADVER
  1
AC1015
  9
$ACADMAINTVER
 70
    13
  9
$DWGCODEPAGE
  3
ANSI_1252
  9
$INSBASE
 10
0.0
 20
0.0
 30
0.0
  9
$EXTMIN
 10
-0.0258030127938633
 20
-0.4303277029463163
 30
0.0
  9
$EXTMAX
 10
16.46419698720613
 20
10.00967229705368
 30
0.03
  9
$LIMMIN
 10
0.0
 20
0.0
  9
$LIMMAX
 10
12.0
 20
9.0
  9
$ORTHOMODE
 70
     1
  9
$REGENMODE
 70
     1
  9
$FILLMODE
 70
     1
  9
$QTEXTMODE
 70
     0
  9
$MIRRTEXT
 70
     0
  9
$LTSCALE
 40
1.0
  9
$ATTMODE
 70
     1
  9
$TEXTSIZE
 40
0.4972548515960327
  9
$TRACEWID
 40
0.05
  9
$TEXTSTYLE
  7
SIMPLEX
  9
$CLAYER
  8
IMAGE
  9
$CELTYPE
  6
ByLayer
  9
$CECOLOR
 62
   256
  9
$CELTSCALE
 40
1.0
  9
$DISPSILH
 70
     0
  9
$DIMSCALE
 40
1.0
  9
$DIMASZ
 40
0.18
  9
$DIMEXO
 40
0.0625
  9
$DIMDLI
 40
0.38
  9
$DIMRND
 40
0.0
  9
$DIMDLE
 40
0.0
  9
$DIMEXE
 40
0.18
  9
$DIMTP
 40
0.0
  9
$DIMTM
 40
0.0
  9
$DIMTXT
 40
0.18
  9
$DIMCEN
 40
0.09
  9
$DIMTSZ
 40
0.0
  9
$DIMTOL
 70
     0
  9
$DIMLIM
 70
     0
  9
$DIMTIH
 70
     1
  9
$DIMTOH
 70
     1
  9
$DIMSE1
 70
     0
  9
$DIMSE2
 70
     0
  9
$DIMTAD
 70
     0
  9
$DIMZIN
 70
     0
  9
$DIMBLK
  1

  9
$DIMASO
 70
     1
  9
$DIMSHO
 70
     1
  9
$DIMPOST
  1

  9
$DIMAPOST
  1

  9
$DIMALT
 70
     0
  9
$DIMALTD
 70
     2
  9
$DIMALTF
 40
25.4
  9
$DIMLFAC
 40
1.0
  9
$DIMTOFL
 70
     0
  9
$DIMTVP
 40
0.0
  9
$DIMTIX
 70
     0
  9
$DIMSOXD
 70
     0
  9
$DIMSAH
 70
     0
  9
$DIMBLK1
  1

  9
$DIMBLK2
  1

  9
$DIMSTYLE
  2
Standard
  9
$DIMCLRD
 70
     0
  9
$DIMCLRE
 70
     0
  9
$DIMCLRT
 70
     0
  9
$DIMTFAC
 40
1.0
  9
$DIMGAP
 40
0.09
  9
$DIMJUST
 70
     0
  9
$DIMSD1
 70
     0
  9
$DIMSD2
 70
     0
  9
$DIMTOLJ
 70
     1
  9
$DIMTZIN
 70
     0
  9
$DIMALTZ
 70
     0
  9
$DIMALTTZ
 70
     0
  9
$DIMUPT
 70
     0
  9
$DIMDEC
 70
     4
  9
$DIMTDEC
 70
     4
  9
$DIMALTU
 70
     2
  9
$DIMALTTD
 70
     2
  9
$DIMTXSTY
  7
STANDARD
  9
$DIMAUNIT
 70
     0
  9
$DIMADEC
 70
     0
  9
$DIMALTRND
 40
0.0
  9
$DIMAZIN
 70
     0
  9
$DIMDSEP
 70
    46
  9
$DIMATFIT
 70
     3
  9
$DIMFRAC
 70
     0
  9
$DIMLDRBLK
  1

  9
$DIMLUNIT
 70
     2
  9
$DIMLWD
 70
    -2
  9
$DIMLWE
 70
    -2
  9
$DIMTMOVE
 70
     2
  9
$LUNITS
 70
     2
  9
$LUPREC
 70
     4
  9
$SKETCHINC
 40
0.1
  9
$FILLETRAD
 40
0.0
  9
$AUNITS
 70
     0
  9
$AUPREC
 70
     0
  9
$MENU
  1
ACAD
  9
$ELEVATION
 40
0.0
  9
$PELEVATION
 40
0.0
  9
$THICKNESS
 40
0.0
  9
$LIMCHECK
 70
     0
  9
$CHAMFERA
 40
0.0
  9
$CHAMFERB
 40
0.0
  9
$CHAMFERC
 40
0.0
  9
$CHAMFERD
 40
0.0
  9
$SKPOLY
 70
     0
  9
$TDCREATE
 40
2449623.385097569
  9
$TDUCREATE
 40
2449623.676764236
  9
$TDUPDATE
 40
2453018.504144433
  9
$TDUUPDATE
 40
2453018.795811099
  9
$TDINDWG
 40
0.5711090394
  9
$TDUSRTIMER
 40
0.5711090394
  9
$USRTIMER
 70
     1
  9
$ANGBASE
 50
0.0
  9
$ANGDIR
 70
     0
  9
$PDMODE
 70
     0
  9
$PDSIZE
 40
0.0
  9
$PLINEWID
 40
0.0
  9
$SPLFRAME
 70
     0
  9
$SPLINETYPE
 70
     6
  9
$SPLINESEGS
 70
     8
  9
$HANDSEED
  5
5F3
  9
$SURFTAB1
 70
     6
  9
$SURFTAB2
 70
     6
  9
$SURFTYPE
 70
     6
  9
$SURFU
 70
     6
  9
$SURFV
 70
     6
  9
$UCSBASE
  2

  9
$UCSNAME
  2

  9
$UCSORG
 10
0.0
 20
0.0
 30
0.0
  9
$UCSXDIR
 10
1.0
 20
0.0
 30
0.0
  9
$UCSYDIR
 10
0.0
 20
1.0
 30
0.0
  9
$UCSORTHOREF
  2

  9
$UCSORTHOVIEW
 70
     0
  9
$UCSORGTOP
 10
0.0
 20
0.0
 30
0.0
  9
$UCSORGBOTTOM
 10
0.0
 20
0.0
 30
0.0
  9
$UCSORGLEFT
 10
0.0
 20
0.0
 30
0.0
  9
$UCSORGRIGHT
 10
0.0
 20
0.0
 30
0.0
  9
$UCSORGFRONT
 10
0.0
 20
0.0
 30
0.0
  9
$UCSORGBACK
 10
0.0
 20
0.0
 30
0.0
  9
$PUCSBASE
  2

  9
$PUCSNAME
  2

  9
$PUCSORG
 10
0.0
 20
0.0
 30
0.0
  9
$PUCSXDIR
 10
1.0
 20
0.0
 30
0.0
  9
$PUCSYDIR
 10
0.0
 20
1.0
 30
0.0
  9
$PUCSORTHOREF
  2

  9
$PUCSORTHOVIEW
 70
     0
  9
$PUCSORGTOP
 10
0.0
 20
0.0
 30
0.0
  9
$PUCSORGBOTTOM
 10
0.0
 20
0.0
 30
0.0
  9
$PUCSORGLEFT
 10
0.0
 20
0.0
 30
0.0
  9
$PUCSORGRIGHT
 10
0.0
 20
0.0
 30
0.0
  9
$PUCSORGFRONT
 10
0.0
 20
0.0
 30
0.0
  9
$PUCSORGBACK
 10
0.0
 20
0.0
 30
0.0
  9
$USERI1
 70
     0
  9
$USERI2
 70
     0
  9
$USERI3
 70
     0
  9
$USERI4
 70
     0
  9
$USERI5
 70
     0
  9
$USERR1
 40
0.0
  9
$USERR2
 40
0.0
  9
$USERR3
 40
0.0
  9
$USERR4
 40
0.0
  9
$USERR5
 40
0.0
  9
$WORLDVIEW
 70
     1
  9
$SHADEDGE
 70
     3
  9
$SHADEDIF
 70
    70
  9
$TILEMODE
 70
     1
  9
$MAXACTVP
 70
    16
  9
$PINSBASE
 10
0.0
 20
0.0
 30
0.0
  9
$PLIMCHECK
 70
     0
  9
$PEXTMIN
 10
1.000000000000000E+20
 20
1.000000000000000E+20
 30
1.000000000000000E+20
  9
$PEXTMAX
 10
-1.000000000000000E+20
 20
-1.000000000000000E+20
 30
-1.000000000000000E+20
  9
$PLIMMIN
 10
0.0
 20
0.0
  9
$PLIMMAX
 10
12.0
 20
9.0
  9
$UNITMODE
 70
     0
  9
$VISRETAIN
 70
     0
  9
$PLINEGEN
 70
     1
  9
$PSLTSCALE
 70
     1
  9
$TREEDEPTH
 70
  3020
  9
$CMLSTYLE
  2
Standard
  9
$CMLJUST
 70
     0
  9
$CMLSCALE
 40
1.0
  9
$PROXYGRAPHICS
 70
     1
  9
$MEASUREMENT
 70
     0
  9
$CELWEIGHT
370
    -1
  9
$ENDCAPS
280
     0
  9
$JOINSTYLE
280
     0
  9
$LWDISPLAY
290
     0
  9
$INSUNITS
 70
     0
  9
$HYPERLINKBASE
  1

  9
$STYLESHEET
  1
Color.ctb
  9
$XEDIT
290
     1
  9
$CEPSNTYPE
380
     0
  9
$PSTYLEMODE
290
     1
  9
$FINGERPRINTGUID
  2
{D11FA558-1628-4E35-847F-AE6202F45FBE}
  9
$VERSIONGUID
  2
{87731CA6-EE13-44CE-A588-B31D508CB781}
  9
$EXTNAMES
290
     1
  9
$PSVPSCALE
 40
0.0
  9
$OLESTARTUP
290
     0
  0
ENDSEC
  0
SECTION
  2
CLASSES
  0
CLASS
  1
ACDBDICTIONARYWDFLT
  2
AcDbDictionaryWithDefault
  3
AutoCAD 2000
 90
        0
280
     0
281
     0
  0
CLASS
  1
ACDBPLACEHOLDER
  2
AcDbPlaceHolder
  3
AutoCAD 2000
 90
        0
280
     0
281
     0
  0
CLASS
  1
LAYOUT
  2
AcDbLayout
  3
AutoCAD 2000
 90
        0
280
     0
281
     0
  0
CLASS
  1
DICTIONARYVAR
  2
AcDbDictionaryVar
  3
AutoCAD 2000
 90
        0
280
     0
281
     0
  0
CLASS
  1
PLOTSETTINGS
  2
AcDbPlotSettings
  3
AutoCAD 2000
 90
    32768
280
     0
281
     0
  0
ENDSEC
  0
SECTION
  2
TABLES
  0
TABLE
  2
VPORT
  5
8
330
0
100
AcDbSymbolTable
 70
     2
  0
VPORT
  5
5F2
330
8
100
AcDbSymbolTableRecord
100
AcDbViewportTableRecord
  2
*Active
 70
     0
 10
0.0
 20
0.0
 11
1.0
 21
1.0
 12
8.219197025599907
 22
4.789672321361202
 13
0.0
 23
0.0
 14
0.14
 24
0.14
 15
0.14
 25
0.14
 16
0.0
 26
0.0
 36
1.0
 17
0.0
 27
0.0
 37
0.0
 40
11.0072450655855
 41
1.505548705302096
 42
50.0
 43
0.0
 44
0.0
 50
0.0
 51
0.0
 71
     0
 72
  1000
 73
     1
 74
     1
 75
     0
 76
     0
 77
     0
 78
     0
281
     0
 65
     1
110
0.0
120
0.0
130
0.0
111
1.0
121
0.0
131
0.0
112
0.0
122
1.0
132
0.0
 79
     0
146
0.0
  0
ENDTAB
  0
TABLE
  2
LTYPE
  5
5
330
0
100
AcDbSymbolTable
 70
     1
  0
LTYPE
  5
13
330
5
100
AcDbSymbolTableRecord
100
AcDbLinetypeTableRecord
  2
ByBlock
 70
     0
  3

 72
    65
 73
     0
 40
0.0
  0
LTYPE
  5
14
330
5
100
AcDbSymbolTableRecord
100
AcDbLinetypeTableRecord
  2
ByLayer
 70
     0
  3

 72
    65
 73
     0
 40
0.0
  0
LTYPE
  5
15
330
5
100
AcDbSymbolTableRecord
100
AcDbLinetypeTableRecord
  2
CONTINUOUS
 70
     0
  3
Solid line
 72
    65
 73
     0
 40
0.0
  0
ENDTAB
  0
TABLE
  2
LAYER
  5
2
102
{ACAD_XDICTIONARY
360
515
102
}
330
0
100
AcDbSymbolTable
 70
     6
  0
LAYER
  5
10
330
2
100
AcDbSymbolTableRecord
100
AcDbLayerTableRecord
  2
0
 70
     0
 62
     7
  6
CONTINUOUS
370
    -3
390
F
  0
LAYER
  5
2A
330
2
100
AcDbSymbolTableRecord
100
AcDbLayerTableRecord
  2
TEXT_BUBBLES
 70
     0
 62
     6
  6
CONTINUOUS
370
    -3
390
F
  0
LAYER
  5
2B
330
2
100
AcDbSymbolTableRecord
100
AcDbLayerTableRecord
  2
IMAGE
 70
     0
 62
     7
  6
CONTINUOUS
370
    -3
390
F
  0
LAYER
  5
2E
330
2
100
AcDbSymbolTableRecord
100
AcDbLayerTableRecord
  2
TEXT_LEADERS
 70
     0
 62
    -5
  6
CONTINUOUS
370
    -3
390
F
  0
LAYER
  5
2F
330
2
100
AcDbSymbolTableRecord
100
AcDbLayerTableRecord
  2
INSTRUCT-CALLOUT
 70
     0
 62
     4
  6
CONTINUOUS
370
    -3
390
F
  0
LAYER
  5
48D
330
2
100
AcDbSymbolTableRecord
100
AcDbLayerTableRecord
  2
TITLE
 70
     0
 62
     4
  6
CONTINUOUS
370
    -3
390
F
  0
ENDTAB
  0
TABLE
  2
STYLE
  5
3
330
0
100
AcDbSymbolTable
 70
     6
  0
STYLE
  5
11
330
3
100
AcDbSymbolTableRecord
100
AcDbTextStyleTableRecord
  2
STANDARD
 70
     0
 40
0.0
 41
1.0
 50
0.0
 71
     0
 42
0.2
  3
txt
  4

  0
STYLE
  5
24
330
3
100
AcDbSymbolTableRecord
100
AcDbTextStyleTableRecord
  2
ROMANS
 70
     0
 40
0.0
 41
1.0
 50
0.0
 71
     0
 42
0.4972548515960327
  3
ROMANS.SHX
  4

  0
STYLE
  5
25
330
3
100
AcDbSymbolTableRecord
100
AcDbTextStyleTableRecord
  2
SIMPLEX
 70
     0
 40
0.0
 41
1.0
 50
0.0
 71
     0
 42
0.4972548515960327
  3
SIMPLEX
  4

  0
STYLE
  5
48E
330
3
100
AcDbSymbolTableRecord
100
AcDbTextStyleTableRecord
  2
L100
 70
     0
 40
0.1
 41
1.0
 50
0.0
 71
     0
 42
0.1
  3
romans.shx
  4

  0
STYLE
  5
48F
330
3
100
AcDbSymbolTableRecord
100
AcDbTextStyleTableRecord
  2
L200
 70
     0
 40
0.2
 41
1.0
 50
0.0
 71
     0
 42
0.081
  3
ARIAL.TTF
  4

1001
ACAD
1000
Arial
1071
       34
  0
STYLE
  5
490
330
3
100
AcDbSymbolTableRecord
100
AcDbTextStyleTableRecord
  2
L80
 70
     0
 40
0.08
 41
1.0
 50
0.0
 71
     0
 42
0.08
  3
ROMANS
  4

  0
ENDTAB
  0
TABLE
  2
VIEW
  5
6
330
0
100
AcDbSymbolTable
 70
     0
  0
ENDTAB
  0
TABLE
  2
UCS
  5
7
330
0
100
AcDbSymbolTable
 70
     0
  0
ENDTAB
  0
TABLE
  2
APPID
  5
9
330
0
100
AcDbSymbolTable
 70
     3
  0
APPID
  5
12
330
9
100
AcDbSymbolTableRecord
100
AcDbRegAppTableRecord
  2
ACAD
 70
     0
  0
APPID
  5
45F
330
9
100
AcDbSymbolTableRecord
100
AcDbRegAppTableRecord
  2
RAK
 70
     0
  0
APPID
  5
460
330
9
100
AcDbSymbolTableRecord
100
AcDbRegAppTableRecord
  2
DCO15
 70
     0
  0
ENDTAB
  0
TABLE
  2
DIMSTYLE
  5
A
330
0
100
AcDbSymbolTable
 70
     1
100
AcDbDimStyleTable
 71
     0
  0
DIMSTYLE
105
3F4
330
A
100
AcDbSymbolTableRecord
100
AcDbDimStyleTableRecord
  2
Standard
 70
     0
340
11
  0
ENDTAB
  0
TABLE
  2
BLOCK_RECORD
  5
1
330
0
100
AcDbSymbolTable
 70
     1
  0
BLOCK_RECORD
  5
1E
330
1
100
AcDbSymbolTableRecord
100
AcDbBlockTableRecord
  2
*Model_Space
340
21
  0
BLOCK_RECORD
  5
1A
330
1
100
AcDbSymbolTableRecord
100
AcDbBlockTableRecord
  2
*Paper_Space
340
1D
  0
BLOCK_RECORD
  5
491
330
1
100
AcDbSymbolTableRecord
100
AcDbBlockTableRecord
  2
titleblock
340
0
102
{BLKREFS
331
49F
102
}
  0
ENDTAB
  0
ENDSEC
  0
SECTION
  2
BLOCKS
  0
BLOCK
  5
34
330
1E
100
AcDbEntity
  8
0
100
AcDbBlockBegin
  2
*Model_Space
 70
     0
 10
0.0
 20
0.0
 30
0.0
  3
*Model_Space
  1

  0
ENDBLK
  5
35
330
1E
100
AcDbEntity
  8
0
100
AcDbBlockEnd
  0
BLOCK
  5
32
330
1A
100
AcDbEntity
 67
     1
  8
0
100
AcDbBlockBegin
  2
*Paper_Space
 70
     0
 10
0.0
 20
0.0
 30
0.0
  3
*Paper_Space
  1

  0
ENDBLK
  5
33
330
1A
100
AcDbEntity
 67
     1
  8
0
100
AcDbBlockEnd
  0
BLOCK
  5
49D
330
491
100
AcDbEntity
  8
0
100
AcDbBlockBegin
  2
titleblock
 70
     2
 10
0.0
 20
0.0
 30
0.0
  3
titleblock
  1

  0
LWPOLYLINE
  5
492
330
491
100
AcDbEntity
  8
IMAGE
100
AcDbPolyline
 90
        4
 70
     1
 43
0.0
 10
-0.0258030127938633
 20
-0.4303277029463163
 10
16.46419698720613
 20
-0.4303277029463163
 10
16.46419698720613
 20
10.00967229705368
 10
-0.0258030127938633
 20
10.00967229705368
  0
ATTDEF
  5
493
330
491
100
AcDbEntity
  8
TITLE
100
AcDbText
 10
0.4797525910084789
 20
0.3538993935320509
 30
0.0
 40
0.2
  1
D
  7
L200
 72
     4
 11
0.5806393577206208
 21
0.453899393532051
 31
0.0
100
AcDbAttributeDefinition
  3
#
  2
D
 70
     0
  0
ATTDEF
  5
494
330
491
100
AcDbEntity
  8
TITLE
100
AcDbText
 10
1.20563935772062
 20
0.9133845998004341
 30
0.0
 40
0.2
  1

  7
L200
100
AcDbAttributeDefinition
  3
DETAIL TITLE TOP LINE
  2
TITLE1
 70
     0
  0
ATTDEF
  5
495
330
491
100
AcDbEntity
  8
TITLE
100
AcDbText
 10
1.20563935772062
 20
0.5538993935320511
 30
0.0
 40
0.2
  1
TITLE
  7
L200
100
AcDbAttributeDefinition
  3
DETAIL TITLE TOP 2ND LINE
  2
TITLE2
 70
     0
  0
ATTDEF
  5
496
330
491
100
AcDbEntity
  8
TITLE
100
AcDbText
 10
2.687842738374449
 20
0.1624650635120026
 30
0.0
 40
0.2
  1
TITLE2
  7
L200
100
AcDbAttributeDefinition
  3
DETAIL TITLE BOTTOM 1
  2
TITLE3
 70
     0
  0
ATTDEF
  5
497
330
491
100
AcDbEntity
  8
TITLE
100
AcDbText
 10
2.687842738374449
 20
-0.1610716221295422
 30
0.0
 40
0.2
  1

  7
L200
100
AcDbAttributeDefinition
  3
DETAIL TITLE BOTTOM 2
  2
TITLE4
 70
     0
  0
ATTDEF
  5
498
330
491
100
AcDbEntity
  8
TITLE
 62
     7
100
AcDbText
 10
8.151411817172515
 20
0.5392750885983235
 30
0.0
 40
0.08
  1
-
  7
L80
 72
     2
 11
8.23522134098204
 21
0.5392750885983235
 31
0.0
100
AcDbAttributeDefinition
  3
REVISION DATE
  2
REVISED
 70
     0
  0
ATTDEF
  5
499
330
491
100
AcDbEntity
  8
TITLE
 62
     7
100
AcDbText
 10
0.2381393577206206
 20
-0.345616054925595
 30
0.0
 40
0.08
  1
-
  7
L80
100
AcDbAttributeDefinition
  3
DWG-NAME
  2
DWG-NAME
 70
     0
  0
LWPOLYLINE
  5
49A
330
491
100
AcDbEntity
  8
TITLE
 62
     3
100
AcDbPolyline
 90
        2
 70
     1
 43
0.03
 10
0.5806393577206208
 20
0.1113993935320511
 42
0.9999999999999998
 10
0.5806393577206208
 20
0.7963993935320515
 42
0.9999999999999998
  0
ATTDEF
  5
49B
330
491
100
AcDbEntity
  8
TITLE
 62
     7
100
AcDbText
 10
1.20563935772062
 20
0.2702360764491731
 30
0.0
 40
0.1
  1
N.T.S.
  7
L100
100
AcDbAttributeDefinition
  3
SCALE
  2
SCALE
 70
     0
  0
LWPOLYLINE
  5
49C
330
491
100
AcDbEntity
  8
TITLE
 62
     3
100
AcDbPolyline
 90
        2
 70
     0
 43
0.04
 39
0.03
 10
0.9231393577206199
 20
0.453899393532051
 10
8.23522134098204
 20
0.453899393532051
  0
ENDBLK
  5
49E
330
491
100
AcDbEntity
  8
0
100
AcDbBlockEnd
  0
ENDSEC
  0
SECTION
  2
ENTITIES
  0
TEXT
  5
AD
330
1E
100
AcDbEntity
  8
TEXT_BUBBLES
100
AcDbText
 10
5.881283280660752
 20
7.87225497887408
 30
0.0
 40
0.125
  1
1
  7
ROMANS
 72
     4
 11
5.93187851875599
 21
7.93475497887408
 31
0.0
100
AcDbText
  0
LWPOLYLINE
  5
B0
330
1E
100
AcDbEntity
  8
IMAGE
100
AcDbPolyline
 90
        2
 70
     0
 43
0.0
 10
2.525841694907504
 20
6.223715427590896
 10
2.713221133803471
 20
6.223715427590896
  0
LINE
  5
B4
330
1E
100
AcDbEntity
  8
IMAGE
100
AcDbLine
 10
2.510021019327173
 20
6.198304616021651
 30
0.0
 11
2.729414922492897
 21
6.198304616021651
 31
0.0
  0
LINE
  5
B5
330
1E
100
AcDbEntity
  8
IMAGE
100
AcDbLine
 10
2.729414922492898
 20
6.636616458694787
 30
0.0
 11
2.729414922492898
 21
6.592495424105115
 31
0.0
  0
LINE
  5
B6
330
1E
100
AcDbEntity
  8
IMAGE
100
AcDbLine
 10
2.510021019327174
 20
6.636616458694787
 30
0.0
 11
2.510021019327174
 21
6.592495424105115
 31
0.0
  0
LWPOLYLINE
  5
B7
330
1E
100
AcDbEntity
  8
IMAGE
100
AcDbPolyline
 90
        2
 70
     0
 43
0.0
 10
2.986151654035942
 20
4.492926691228781
 10
2.94734072516083
 20
4.309610663776686
  0
LINE
  5
BB
330
1E
100
AcDbEntity
  8
IMAGE
100
AcDbLine
 10
3.014222041970151
 20
4.503017349093854
 30
0.0
 11
2.968780123574156
 21
4.288381106118015
 31
0.0
  0
LINE
  5
BC
330
1E
100
AcDbEntity
  8
IMAGE
100
AcDbLine
 10
4.283799658868198
 20
4.233554347541035
 30
0.0
 11
4.238357740472202
 21
4.018918104565198
 31
0.0
  0
LWPOLYLINE
  5
BD
330
1E
100
AcDbEntity
  8
IMAGE
100
AcDbPolyline
 90
        2
 70
     0
 43
0.0
 10
4.305880423669139
 20
4.212661717098999
 10
4.267069494794028
 20
4.029345689646902
  0
LWPOLYLINE
  5
C1
330
1E
100
AcDbEntity
  8
IMAGE
100
AcDbPolyline
 90
        2
 70
     0
 43
0.0
 10
2.525841694907504
 20
4.70959284583883
 10
2.713221133803471
 20
4.70959284583883
  0
LINE
  5
C5
330
1E
100
AcDbEntity
  8
IMAGE
100
AcDbLine
 10
2.510021019327173
 20
4.736618528402528
 30
0.0
 11
2.729414922492897
 21
4.736618528402528
 31
0.0
  0
LWPOLYLINE
  5
CD
330
1E
100
AcDbEntity
  8
IMAGE
100
AcDbPolyline
 90
        4
 70
     0
 43
0.0
 10
1.798447871022779
 20
4.173781255595654
 42
0.6332430429610296
 10
1.798447871022779
 20
4.04296376719537
 42
-0.6332430429610812
 10
1.798447871022779
 20
3.912146278795088
 42
-0.6134111328532366
 10
1.798447871022779
 20
4.04296376719537
 42
-0.6134111328532366
  0
LWPOLYLINE
  5
D3
330
1E
100
AcDbEntity
  8
IMAGE
100
AcDbPolyline
 90
        4
 70
     0
 43
0.0
 10
5.188597805519239
 20
4.1756666881625
 42
-0.6332430429610296
 10
5.188597805519239
 20
4.044849199762218
 42
0.6332430429610812
 10
5.188597805519239
 20
3.914031711361932
 42
0.6134111328532366
 10
5.188597805519235
 20
4.044849199762214
 42
0.6134111328532366
  0
ARC
  5
D9
330
1E
100
AcDbEntity
  8
IMAGE
100
AcDbCircle
 10
2.620219244941737
 20
4.478484727734601
 30
0.0
 40
0.1293594744712923
100
AcDbArc
 50
179.379115872957
 51
0.2371380430744057
  0
LINE
  5
DA
330
1E
100
AcDbEntity
  8
IMAGE
100
AcDbLine
 10
4.288622564213155
 20
4.008045078106457
 30
0.0
 11
2.91744429452813
 21
4.298345402848923
 31
0.0
  0
LINE
  5
DB
330
1E
100
AcDbEntity
  8
IMAGE
100
AcDbLine
 10
4.334496045273929
 20
4.222589498872082
 30
0.0
 11
2.963317775588902
 21
4.512889823614548
 31
0.0
  0
LINE
  5
DC
330
1E
100
AcDbEntity
  8
IMAGE
100
AcDbLine
 10
2.491934825533374
 20
4.684295724471494
 30
0.0
 11
2.74916812053494
 21
4.684295724471494
 31
0.0
  0
LINE
  5
DD
330
1E
100
AcDbEntity
  8
IMAGE
100
AcDbLine
 10
2.491934825533374
 20
4.684295724471494
 30
0.0
 11
2.490859770470446
 21
4.478484727734601
 31
0.0
  0
LINE
  5
DE
330
1E
100
AcDbEntity
  8
IMAGE
100
AcDbLine
 10
2.749168120534942
 20
4.684295724471494
 30
0.0
 11
2.749578719413029
 21
4.478484727734601
 31
0.0
  0
LINE
  5
DF
330
1E
100
AcDbEntity
  8
IMAGE
100
AcDbLine
 10
4.992410110099167
 20
4.207906820226504
 30
0.0
 11
4.992410110099164
 21
3.882997884345513
 31
0.0
  0
LINE
  5
E0
330
1E
100
AcDbEntity
  8
IMAGE
100
AcDbLine
 10
4.3367799824616
 20
4.234710226719071
 30
0.0
 11
4.653132989249605
 21
4.167557808974505
 31
0.0
  0
LINE
  5
E1
330
1E
100
AcDbEntity
  8
IMAGE
100
AcDbLine
 10
4.285588115038478
 20
3.995292391180196
 30
0.0
 11
4.601841016934804
 21
3.927671795623417
 31
0.0
  0
LINE
  5
E2
330
1E
100
AcDbEntity
  8
IMAGE
100
AcDbLine
 10
4.653132989249605
 20
4.167557808974505
 30
0.0
 11
4.668243040929094
 21
4.139037071966544
 31
0.0
  0
LINE
  5
E3
330
1E
100
AcDbEntity
  8
IMAGE
100
AcDbLine
 10
4.601841016934804
 20
3.927671795623417
 30
0.0
 11
4.628891359005197
 21
3.944248381404372
 31
0.0
  0
LINE
  5
E4
330
1E
100
AcDbEntity
  8
IMAGE
100
AcDbLine
 10
4.628891359005197
 20
3.944248381404371
 30
0.0
 11
4.668243040929094
 21
4.139037071966544
 31
0.0
  0
ARC
  5
E5
330
1E
100
AcDbEntity
  8
IMAGE
100
AcDbCircle
 10
4.624627007505263
 20
4.046479182211893
 30
0.0
 40
0.1023197015606605
100
AcDbArc
 50
272.3885930691139
 51
64.76879059918148
  0
LINE
  5
E6
330
1E
100
AcDbEntity
  8
IMAGE
100
AcDbLine
 10
2.914855819134134
 20
4.286043364968589
 30
0.0
 11
2.613432145958163
 21
4.349303425206413
 31
0.0
  0
LINE
  5
E7
330
1E
100
AcDbEntity
  8
IMAGE
100
AcDbLine
 10
2.965266654207886
 20
4.525626868097569
 30
0.0
 11
2.749401789101368
 21
4.571380873795227
 31
0.0
  0
LINE
  5
E8
330
1E
100
AcDbEntity
  8
IMAGE
100
AcDbLine
 10
2.965266654207886
 20
4.525626868097569
 30
0.0
 11
2.914855819134134
 21
4.286043364968591
 31
0.0
  0
LINE
  5
E9
330
1E
100
AcDbEntity
  8
IMAGE
100
AcDbLine
 10
4.3367799824616
 20
4.234710226719071
 30
0.0
 11
4.285588115038478
 21
3.995292391180196
 31
0.0
  0
LINE
  5
EA
330
1E
100
AcDbEntity
  8
IMAGE
100
AcDbLine
 10
4.992410110099167
 20
3.882997884345513
 30
0.0
 11
4.255239149636451
 21
3.882997884345513
 31
0.0
  0
LINE
  5
EB
330
1E
100
AcDbEntity
  8
IMAGE
100
AcDbLine
 10
4.255239149636451
 20
4.015112879797083
 30
0.0
 11
4.255239149636451
 21
3.882997884345515
 31
0.0
  0
LINE
  5
EC
330
1E
100
AcDbEntity
  8
IMAGE
100
AcDbLine
 10
4.653132989249605
 20
4.167557808974507
 30
0.0
 11
4.601841016934804
 21
3.927671795623417
 31
0.0
  0
LINE
  5
ED
330
1E
100
AcDbEntity
  8
IMAGE
100
AcDbLine
 10
5.188597805519239
 20
4.1756666881625
 30
0.0
 11
4.992410110099167
 21
4.1756666881625
 31
0.0
  0
LINE
  5
EE
330
1E
100
AcDbEntity
  8
IMAGE
100
AcDbLine
 10
5.188597805519239
 20
3.914031711361932
 30
0.0
 11
4.992410110099167
 21
3.914031711361932
 31
0.0
  0
LINE
  5
EF
330
1E
100
AcDbEntity
  8
IMAGE
100
AcDbLine
 10
4.255239149636451
 20
3.912146278795086
 30
0.0
 11
2.487352437278437
 21
3.912146278795087
 31
0.0
  0
LINE
  5
F0
330
1E
100
AcDbEntity
  8
IMAGE
100
AcDbLine
 10
3.505799309449478
 20
4.173781255595654
 30
0.0
 11
2.487352437278437
 21
4.173781255595654
 31
0.0
  0
LINE
  5
F1
330
1E
100
AcDbEntity
  8
IMAGE
100
AcDbLine
 10
4.463050018908213
 20
4.207906820226504
 30
0.0
 11
4.992410110099167
 21
4.207906820226506
 31
0.0
  0
LINE
  5
F5
330
1E
100
AcDbEntity
  8
IMAGE
100
AcDbLine
 10
2.729414922492895
 20
5.367060534523327
 30
0.0
 11
3.584699948767623
 21
5.367060534523327
 31
0.0
  0
LINE
  5
F6
330
1E
100
AcDbEntity
  8
IMAGE
100
AcDbLine
 10
2.487352437278437
 20
6.56857087354273
 30
0.0
 11
2.487352437278437
 21
6.467553994577759
 31
0.0
  0
LINE
  5
F7
330
1E
100
AcDbEntity
  8
IMAGE
100
AcDbLine
 10
2.27335689563868
 20
6.56857087354273
 30
0.0
 11
2.27335689563868
 21
6.467553994577759
 31
0.0
  0
LINE
  5
F8
330
1E
100
AcDbEntity
  8
IMAGE
100
AcDbLine
 10
2.27335689563868
 20
3.912146278795088
 30
0.0
 11
2.27335689563868
 21
3.04685283662277
 31
0.0
  0
ARC
  5
F9
330
1E
100
AcDbEntity
  8
IMAGE
100
AcDbCircle
 10
2.388925522376989
 20
6.428448721739419
 30
0.0
 40
0.0363347932812923
100
AcDbArc
 50
142.5532855597031
 51
232.8116314160015
  0
LINE
  5
FA
330
1E
100
AcDbEntity
  8
IMAGE
100
AcDbLine
 10
2.756448602065449
 20
6.467553994577759
 30
0.0
 11
2.272472263081128
 21
6.467553994577759
 31
0.0
  0
LINE
  5
FB
330
1E
100
AcDbEntity
  8
IMAGE
100
AcDbLine
 10
2.756448602065449
 20
6.382489642328584
 30
0.0
 11
2.272472263081128
 21
6.382489642328584
 31
0.0
  0
ARC
  5
FC
330
1E
100
AcDbEntity
  8
IMAGE
100
AcDbCircle
 10
2.315070607811905
 20
6.428448721739419
 30
0.0
 40
0.0363347932812923
100
AcDbArc
 50
142.5532855597031
 51
232.8116314160015
  0
LINE
  5
FD
330
1E
100
AcDbEntity
  8
IMAGE
100
AcDbLine
 10
2.286223719600092
 20
6.450541124127903
 30
0.0
 11
2.293108499771515
 21
6.399502512778331
 31
0.0
  0
ARC
  5
FE
330
1E
100
AcDbEntity
  8
IMAGE
100
AcDbCircle
 10
2.351372175987999
 20
6.428448721739419
 30
0.0
 40
0.0363347932812923
100
AcDbArc
 50
142.5532855597031
 51
232.8116314160015
  0
LINE
  5
FF
330
1E
100
AcDbEntity
  8
IMAGE
100
AcDbLine
 10
2.322525287776083
 20
6.450541124127903
 30
0.0
 11
2.329410067947502
 21
6.399502512778331
 31
0.0
  0
ARC
  5
100
330
1E
100
AcDbEntity
  8
IMAGE
100
AcDbCircle
 10
2.265124210203167
 20
6.385962421120211
 30
0.0
 40
0.0101391053531439
100
AcDbArc
 50
221.6972960676141
 51
316.4458918268223
  0
LINE
  5
101
330
1E
100
AcDbEntity
  8
IMAGE
100
AcDbLine
 10
2.257553648714853
 20
6.37921793773666
 30
0.0
 11
2.248619718380722
 21
6.389500086786716
 31
0.0
  0
LINE
  5
102
330
1E
100
AcDbEntity
  8
IMAGE
100
AcDbLine
 10
2.258837886386792
 20
6.380333783250762
 30
0.0
 11
2.250289211004022
 21
6.390172538555532
 31
0.0
  0
ARC
  5
103
330
1E
100
AcDbEntity
  8
IMAGE
100
AcDbCircle
 10
2.265124210203167
 20
6.385962421120211
 30
0.0
 40
0.0084378183081614
100
AcDbArc
 50
221.6972960676141
 51
330.5572729070301
  0
ARC
  5
104
330
1E
100
AcDbEntity
  8
IMAGE
100
AcDbCircle
 10
2.265124210203167
 20
6.460567752650536
 30
0.0
 40
0.0084378183081614
100
AcDbArc
 50
29.4427270929698
 51
138.3027039323858
  0
LINE
  5
105
330
1E
100
AcDbEntity
  8
IMAGE
100
AcDbLine
 10
2.258837886386792
 20
6.466196390519986
 30
0.0
 11
2.250289211004022
 21
6.456357635215216
 31
0.0
  0
LINE
  5
106
330
1E
100
AcDbEntity
  8
IMAGE
100
AcDbLine
 10
2.257553648714853
 20
6.46731223603408
 30
0.0
 11
2.248619718380722
 21
6.457030086984024
 31
0.0
  0
CIRCLE
  5
107
330
1E
100
AcDbEntity
  8
IMAGE
100
AcDbCircle
 10
2.235989752097945
 20
6.423265086885351
 30
0.0
 40
0.0360498443820563
  0
ARC
  5
108
330
1E
100
AcDbEntity
  8
IMAGE
100
AcDbCircle
 10
2.265124210203167
 20
6.460567752650536
 30
0.0
 40
0.0101391053531439
100
AcDbArc
 50
43.55410817317756
 51
138.3027039323858
  0
LWPOLYLINE
  5
109
330
1E
100
AcDbEntity
  8
IMAGE
100
AcDbPolyline
 90
        2
 70
     0
 43
0.0
 10
2.244077214543339
 20
6.40075075580067
 10
2.235989752097945
 20
6.396081457180839
  0
LWPOLYLINE
  5
10D
330
1E
100
AcDbEntity
  8
IMAGE
100
AcDbPolyline
 90
        5
 70
     0
 43
0.0
 10
2.22790228965266
 20
6.445779417970078
 10
2.235989752097945
 20
6.450448716589965
 10
2.259531465989327
 20
6.436856901737604
 10
2.259531465989327
 20
6.409673272033144
 10
2.251444003543819
 20
6.405003973413204
  0
ARC
  5
114
330
1E
100
AcDbEntity
  8
IMAGE
100
AcDbCircle
 10
2.235989752097945
 20
6.423265086885351
 30
0.0
 40
0.019416878360384
100
AcDbArc
 50
132.6530910809695
 51
287.3469089190293
  0
LWPOLYLINE
  5
115
330
1E
100
AcDbEntity
  8
IMAGE
100
AcDbPolyline
 90
        4
 70
     0
 43
0.0
 10
2.235989752097945
 20
6.396081457180839
 10
2.212448038206882
 20
6.409673272033144
 10
2.212448038206882
 20
6.436856901737604
 10
2.220535500652174
 20
6.441526200357543
  0
LINE
  5
11B
330
1E
100
AcDbEntity
  8
IMAGE
100
AcDbLine
 10
2.22790228965266
 20
6.445779417970078
 30
0.0
 11
2.251444003543819
 21
6.405003973413204
 31
0.0
  0
LINE
  5
11C
330
1E
100
AcDbEntity
  8
IMAGE
100
AcDbLine
 10
2.220535500652174
 20
6.441526200357543
 30
0.0
 11
2.244077214543339
 21
6.40075075580067
 31
0.0
  0
ARC
  5
11D
330
1E
100
AcDbEntity
  8
IMAGE
100
AcDbCircle
 10
2.235989752097945
 20
6.423265086885351
 30
0.0
 40
0.019416878360384
100
AcDbArc
 50
312.6530910809717
 51
107.3469089190281
  0
CIRCLE
  5
11E
330
1E
100
AcDbEntity
  8
IMAGE
100
AcDbCircle
 10
2.235989752097945
 20
6.423265086885351
 30
0.0
 40
0.0322956548274434
  0
LINE
  5
11F
330
1E
100
AcDbEntity
  8
IMAGE
100
AcDbLine
 10
2.360078634165181
 20
6.450541124127903
 30
0.0
 11
2.366963414336502
 21
6.399502512778331
 31
0.0
  0
ARC
  5
120
330
1E
100
AcDbEntity
  8
IMAGE
100
AcDbCircle
 10
2.427730646978885
 20
6.428448721739419
 30
0.0
 40
0.0363347932812923
100
AcDbArc
 50
142.5532855597031
 51
232.8116314160015
  0
LINE
  5
121
330
1E
100
AcDbEntity
  8
IMAGE
100
AcDbLine
 10
2.398883758767179
 20
6.450541124127903
 30
0.0
 11
2.405768538938501
 21
6.399502512778331
 31
0.0
  0
ARC
  5
122
330
1E
100
AcDbEntity
  8
IMAGE
100
AcDbCircle
 10
2.465909882474487
 20
6.428448721739419
 30
0.0
 40
0.0363347932812923
100
AcDbArc
 50
142.5532855597031
 51
232.8116314160015
  0
LINE
  5
123
330
1E
100
AcDbEntity
  8
IMAGE
100
AcDbLine
 10
2.437062994262565
 20
6.450541124127903
 30
0.0
 11
2.443947774433989
 21
6.399502512778331
 31
0.0
  0
ARC
  5
124
330
1E
100
AcDbEntity
  8
IMAGE
100
AcDbCircle
 10
2.505340896182773
 20
6.428448721739419
 30
0.0
 40
0.0363347932812923
100
AcDbArc
 50
142.5532855597031
 51
232.8116314160015
  0
LINE
  5
125
330
1E
100
AcDbEntity
  8
IMAGE
100
AcDbLine
 10
2.47649400797117
 20
6.450541124127903
 30
0.0
 11
2.483378788142275
 21
6.399502512778331
 31
0.0
  0
ARC
  5
126
330
1E
100
AcDbEntity
  8
IMAGE
100
AcDbCircle
 10
2.544146020784766
 20
6.428448721739419
 30
0.0
 40
0.0363347932812923
100
AcDbArc
 50
142.5532855597031
 51
232.8116314160015
  0
LINE
  5
127
330
1E
100
AcDbEntity
  8
IMAGE
100
AcDbLine
 10
2.515299132573066
 20
6.450541124127903
 30
0.0
 11
2.522183912744382
 21
6.399502512778331
 31
0.0
  0
ARC
  5
128
330
1E
100
AcDbEntity
  8
IMAGE
100
AcDbCircle
 10
2.582325256280266
 20
6.428448721739419
 30
0.0
 40
0.0363347932812923
100
AcDbArc
 50
142.5532855597031
 51
232.8116314160015
  0
LINE
  5
129
330
1E
100
AcDbEntity
  8
IMAGE
100
AcDbLine
 10
2.553478368068673
 20
6.450541124127903
 30
0.0
 11
2.560363148239768
 21
6.399502512778331
 31
0.0
  0
LINE
  5
12A
330
1E
100
AcDbEntity
  8
IMAGE
100
AcDbLine
 10
2.756448602065449
 20
6.467553994577759
 30
0.0
 11
2.756448602065449
 21
6.382489642328584
 31
0.0
  0
LINE
  5
12B
330
1E
100
AcDbEntity
  8
IMAGE
100
AcDbLine
 10
2.630462728166052
 20
6.450541124127903
 30
0.0
 11
2.637347508337266
 21
6.399502512778331
 31
0.0
  0
ARC
  5
12C
330
1E
100
AcDbEntity
  8
IMAGE
100
AcDbCircle
 10
2.659309616377758
 20
6.428448721739419
 30
0.0
 40
0.0363347932812923
100
AcDbArc
 50
142.5532855597031
 51
232.8116314160015
  0
LINE
  5
12D
330
1E
100
AcDbEntity
  8
IMAGE
100
AcDbLine
 10
2.592283492670559
 20
6.450541124127903
 30
0.0
 11
2.599168272841875
 21
6.399502512778331
 31
0.0
  0
ARC
  5
12E
330
1E
100
AcDbEntity
  8
IMAGE
100
AcDbCircle
 10
2.621130380882163
 20
6.428448721739419
 30
0.0
 40
0.0363347932812923
100
AcDbArc
 50
142.5532855597031
 51
232.8116314160015
  0
ARC
  5
12F
330
1E
100
AcDbEntity
  8
IMAGE
100
AcDbCircle
 10
2.698114740979609
 20
6.428448721739489
 30
0.0
 40
0.0363347932812923
100
AcDbArc
 50
142.5532855597031
 51
232.8116314160015
  0
LINE
  5
130
330
1E
100
AcDbEntity
  8
IMAGE
100
AcDbLine
 10
2.669267852767908
 20
6.450541124127971
 30
0.0
 11
2.676152632939225
 21
6.399502512778401
 31
0.0
  0
ARC
  5
131
330
1E
100
AcDbEntity
  8
IMAGE
100
AcDbCircle
 10
2.736293976475109
 20
6.428448721739489
 30
0.0
 40
0.0363347932812923
100
AcDbArc
 50
142.5532855597031
 51
232.8116314160015
  0
LINE
  5
132
330
1E
100
AcDbEntity
  8
IMAGE
100
AcDbLine
 10
2.707447088263516
 20
6.450541124127971
 30
0.0
 11
2.714331868434611
 21
6.399502512778401
 31
0.0
  0
ARC
  5
133
330
1E
100
AcDbEntity
  8
IMAGE
100
AcDbCircle
 10
2.775099101076986
 20
6.428448721739499
 30
0.0
 40
0.0363347932812923
100
AcDbArc
 50
142.5532855597031
 51
232.8116314160015
  0
LINE
  5
134
330
1E
100
AcDbEntity
  8
IMAGE
100
AcDbLine
 10
2.746252212865393
 20
6.450541124127983
 30
0.0
 11
2.753136993036489
 21
6.399502512778411
 31
0.0
  0
LINE
  5
135
330
1E
100
AcDbEntity
  8
IMAGE
100
AcDbLine
 10
2.27335689563868
 20
6.382489642328584
 30
0.0
 11
2.27335689563868
 21
5.57718406026348
 31
0.0
  0
LINE
  5
136
330
1E
100
AcDbEntity
  8
IMAGE
100
AcDbLine
 10
2.27335689563868
 20
6.56857087354273
 30
0.0
 11
2.487352437278436
 21
6.56857087354273
 31
0.0
  0
LINE
  5
137
330
1E
100
AcDbEntity
  8
IMAGE
100
AcDbLine
 10
2.487352437278437
 20
6.382489642328584
 30
0.0
 11
2.487352437278437
 21
5.57718406026348
 31
0.0
  0
LINE
  5
138
330
1E
100
AcDbEntity
  8
IMAGE
100
AcDbLine
 10
2.258837886386792
 20
5.575826456205708
 30
0.0
 11
2.250289211004022
 21
5.565987700900938
 31
0.0
  0
LINE
  5
139
330
1E
100
AcDbEntity
  8
IMAGE
100
AcDbLine
 10
2.257553648714853
 20
5.576942301719803
 30
0.0
 11
2.248619718380722
 21
5.566660152669747
 31
0.0
  0
ARC
  5
13A
330
1E
100
AcDbEntity
  8
IMAGE
100
AcDbCircle
 10
2.333221391899841
 20
5.538078787425142
 30
0.0
 40
0.0363347932812923
100
AcDbArc
 50
142.5532855597031
 51
232.8116314160015
  0
LINE
  5
13B
330
1E
100
AcDbEntity
  8
IMAGE
100
AcDbLine
 10
2.30437450368825
 20
5.560171189813626
 30
0.0
 11
2.311259283859356
 21
5.509132578464054
 31
0.0
  0
ARC
  5
13C
330
1E
100
AcDbEntity
  8
IMAGE
100
AcDbCircle
 10
2.370148849182338
 20
5.538078787425142
 30
0.0
 40
0.0363347932812923
100
AcDbArc
 50
142.5532855597031
 51
232.8116314160015
  0
LINE
  5
13D
330
1E
100
AcDbEntity
  8
IMAGE
100
AcDbLine
 10
2.341301960970626
 20
5.560171189813626
 30
0.0
 11
2.348186741141948
 21
5.509132578464054
 31
0.0
  0
ARC
  5
13E
330
1E
100
AcDbEntity
  8
IMAGE
100
AcDbCircle
 10
2.265124210203167
 20
5.495592486805934
 30
0.0
 40
0.0101391053531439
100
AcDbArc
 50
221.6972960676141
 51
316.4458918268223
  0
LINE
  5
13F
330
1E
100
AcDbEntity
  8
IMAGE
100
AcDbLine
 10
2.257553648714853
 20
5.488848003422383
 30
0.0
 11
2.248619718380722
 21
5.499130152472439
 31
0.0
  0
LINE
  5
140
330
1E
100
AcDbEntity
  8
IMAGE
100
AcDbLine
 10
2.258837886386792
 20
5.489963848936485
 30
0.0
 11
2.250289211004022
 21
5.499802604241255
 31
0.0
  0
ARC
  5
141
330
1E
100
AcDbEntity
  8
IMAGE
100
AcDbCircle
 10
2.265124210203167
 20
5.495592486805934
 30
0.0
 40
0.0084378183081614
100
AcDbArc
 50
221.6972960676141
 51
330.5572729070301
  0
CIRCLE
  5
142
330
1E
100
AcDbEntity
  8
IMAGE
100
AcDbCircle
 10
2.235989752097945
 20
5.532895152571073
 30
0.0
 40
0.0360498443820563
  0
LWPOLYLINE
  5
143
330
1E
100
AcDbEntity
  8
IMAGE
100
AcDbPolyline
 90
        2
 70
     0
 43
0.0
 10
2.244077214543339
 20
5.510380821486391
 10
2.235989752097945
 20
5.50571152286656
  0
LWPOLYLINE
  5
147
330
1E
100
AcDbEntity
  8
IMAGE
100
AcDbPolyline
 90
        5
 70
     0
 43
0.0
 10
2.22790228965266
 20
5.5554094836558
 10
2.235989752097945
 20
5.560078782275688
 10
2.259531465989327
 20
5.546486967423327
 10
2.259531465989327
 20
5.519303337718865
 10
2.251444003543819
 20
5.514634039098927
  0
ARC
  5
14E
330
1E
100
AcDbEntity
  8
IMAGE
100
AcDbCircle
 10
2.235989752097945
 20
5.532895152571073
 30
0.0
 40
0.019416878360384
100
AcDbArc
 50
132.6530910809695
 51
287.3469089190293
  0
LWPOLYLINE
  5
14F
330
1E
100
AcDbEntity
  8
IMAGE
100
AcDbPolyline
 90
        4
 70
     0
 43
0.0
 10
2.235989752097945
 20
5.50571152286656
 10
2.212448038206882
 20
5.519303337718865
 10
2.212448038206882
 20
5.546486967423327
 10
2.220535500652174
 20
5.551156266043266
  0
LINE
  5
155
330
1E
100
AcDbEntity
  8
IMAGE
100
AcDbLine
 10
2.22790228965266
 20
5.5554094836558
 30
0.0
 11
2.251444003543819
 21
5.514634039098927
 31
0.0
  0
LINE
  5
156
330
1E
100
AcDbEntity
  8
IMAGE
100
AcDbLine
 10
2.220535500652174
 20
5.551156266043266
 30
0.0
 11
2.244077214543339
 21
5.510380821486391
 31
0.0
  0
ARC
  5
157
330
1E
100
AcDbEntity
  8
IMAGE
100
AcDbCircle
 10
2.235989752097945
 20
5.532895152571073
 30
0.0
 40
0.019416878360384
100
AcDbArc
 50
312.6530910809717
 51
107.3469089190281
  0
CIRCLE
  5
158
330
1E
100
AcDbEntity
  8
IMAGE
100
AcDbCircle
 10
2.235989752097945
 20
5.532895152571073
 30
0.0
 40
0.0322956548274434
  0
ARC
  5
159
330
1E
100
AcDbEntity
  8
IMAGE
100
AcDbCircle
 10
2.265124210203167
 20
5.570197818336259
 30
0.0
 40
0.0084378183081614
100
AcDbArc
 50
29.4427270929698
 51
138.3027039323858
  0
ARC
  5
15A
330
1E
100
AcDbEntity
  8
IMAGE
100
AcDbCircle
 10
2.265124210203167
 20
5.570197818336259
 30
0.0
 40
0.0101391053531439
100
AcDbArc
 50
43.55410817317756
 51
138.3027039323858
  0
LINE
  5
15B
330
1E
100
AcDbEntity
  8
IMAGE
100
AcDbLine
 10
2.735981471607511
 20
5.492119708014307
 30
0.0
 11
2.272472263081128
 21
5.492119708014307
 31
0.0
  0
LINE
  5
15C
330
1E
100
AcDbEntity
  8
IMAGE
100
AcDbLine
 10
2.735981471607511
 20
5.577184060263482
 30
0.0
 11
2.272472263081128
 21
5.577184060263482
 31
0.0
  0
ARC
  5
15D
330
1E
100
AcDbEntity
  8
IMAGE
100
AcDbCircle
 10
2.407702195571435
 20
5.538078787425142
 30
0.0
 40
0.0363347932812923
100
AcDbArc
 50
142.5532855597031
 51
232.8116314160015
  0
ARC
  5
15E
330
1E
100
AcDbEntity
  8
IMAGE
100
AcDbCircle
 10
2.447133209279939
 20
5.538078787425142
 30
0.0
 40
0.0363347932812923
100
AcDbArc
 50
142.5532855597031
 51
232.8116314160015
  0
LINE
  5
15F
330
1E
100
AcDbEntity
  8
IMAGE
100
AcDbLine
 10
2.418286321068129
 20
5.560171189813626
 30
0.0
 11
2.425171101239441
 21
5.509132578464054
 31
0.0
  0
LINE
  5
160
330
1E
100
AcDbEntity
  8
IMAGE
100
AcDbLine
 10
2.378855307359628
 20
5.560171189813626
 30
0.0
 11
2.385740087531051
 21
5.509132578464054
 31
0.0
  0
ARC
  5
161
330
1E
100
AcDbEntity
  8
IMAGE
100
AcDbCircle
 10
2.485938333881828
 20
5.538078787425142
 30
0.0
 40
0.0363347932812923
100
AcDbArc
 50
142.5532855597031
 51
232.8116314160015
  0
LINE
  5
162
330
1E
100
AcDbEntity
  8
IMAGE
100
AcDbLine
 10
2.457091445670225
 20
5.560171189813626
 30
0.0
 11
2.463976225841331
 21
5.509132578464054
 31
0.0
  0
ARC
  5
163
330
1E
100
AcDbEntity
  8
IMAGE
100
AcDbCircle
 10
2.524743458483725
 20
5.538078787425142
 30
0.0
 40
0.0363347932812923
100
AcDbArc
 50
142.5532855597031
 51
232.8116314160015
  0
LINE
  5
164
330
1E
100
AcDbEntity
  8
IMAGE
100
AcDbLine
 10
2.495896570272122
 20
5.560171189813626
 30
0.0
 11
2.502781350443437
 21
5.509132578464054
 31
0.0
  0
ARC
  5
165
330
1E
100
AcDbEntity
  8
IMAGE
100
AcDbCircle
 10
2.562922693979321
 20
5.538078787425142
 30
0.0
 40
0.0363347932812923
100
AcDbArc
 50
142.5532855597031
 51
232.8116314160015
  0
LINE
  5
166
330
1E
100
AcDbEntity
  8
IMAGE
100
AcDbLine
 10
2.534075805767614
 20
5.560171189813626
 30
0.0
 11
2.540960585938829
 21
5.509132578464054
 31
0.0
  0
LINE
  5
167
330
1E
100
AcDbEntity
  8
IMAGE
100
AcDbLine
 10
2.572880930369607
 20
5.560171189813626
 30
0.0
 11
2.579765710540713
 21
5.509132578464054
 31
0.0
  0
ARC
  5
168
330
1E
100
AcDbEntity
  8
IMAGE
100
AcDbCircle
 10
2.601727818581211
 20
5.538078787425142
 30
0.0
 40
0.0363347932812923
100
AcDbArc
 50
142.5532855597031
 51
232.8116314160015
  0
LINE
  5
169
330
1E
100
AcDbEntity
  8
IMAGE
100
AcDbLine
 10
2.735981471607511
 20
5.577184060263482
 30
0.0
 11
2.735981471607511
 21
5.492119708014307
 31
0.0
  0
LINE
  5
16A
330
1E
100
AcDbEntity
  8
IMAGE
100
AcDbLine
 10
2.64986529046711
 20
5.560171189813626
 30
0.0
 11
2.656750070638206
 21
5.509132578464054
 31
0.0
  0
ARC
  5
16B
330
1E
100
AcDbEntity
  8
IMAGE
100
AcDbCircle
 10
2.678712178678703
 20
5.538078787425142
 30
0.0
 40
0.0363347932812923
100
AcDbArc
 50
142.5532855597031
 51
232.8116314160015
  0
LINE
  5
16C
330
1E
100
AcDbEntity
  8
IMAGE
100
AcDbLine
 10
2.611686054971504
 20
5.560171189813626
 30
0.0
 11
2.618570835142819
 21
5.509132578464054
 31
0.0
  0
ARC
  5
16D
330
1E
100
AcDbEntity
  8
IMAGE
100
AcDbCircle
 10
2.716891414174162
 20
5.538078787425211
 30
0.0
 40
0.0363347932812923
100
AcDbArc
 50
142.5532855597031
 51
232.8116314160015
  0
LINE
  5
16E
330
1E
100
AcDbEntity
  8
IMAGE
100
AcDbLine
 10
2.688044525962458
 20
5.560171189813694
 30
0.0
 11
2.694929306133672
 21
5.509132578464123
 31
0.0
  0
ARC
  5
16F
330
1E
100
AcDbEntity
  8
IMAGE
100
AcDbCircle
 10
2.755696538776049
 20
5.538078787425217
 30
0.0
 40
0.0363347932812923
100
AcDbArc
 50
142.5532855597031
 51
232.8116314160015
  0
LINE
  5
170
330
1E
100
AcDbEntity
  8
IMAGE
100
AcDbLine
 10
2.726849650564456
 20
5.560171189813699
 30
0.0
 11
2.733734430735551
 21
5.509132578464129
 31
0.0
  0
ARC
  5
171
330
1E
100
AcDbEntity
  8
IMAGE
100
AcDbCircle
 10
2.640532943183203
 20
5.538078787425142
 30
0.0
 40
0.0363347932812923
100
AcDbArc
 50
142.5532855597031
 51
232.8116314160015
  0
LINE
  5
172
330
1E
100
AcDbEntity
  8
IMAGE
100
AcDbLine
 10
2.729414922492895
 20
5.492119708014307
 30
0.0
 11
2.729414922492897
 21
4.684295724471494
 31
0.0
  0
LINE
  5
173
330
1E
100
AcDbEntity
  8
IMAGE
100
AcDbLine
 10
2.487352437278437
 20
5.492119708014307
 30
0.0
 11
2.487352437278437
 21
3.046852836622769
 31
0.0
  0
LINE
  5
174
330
1E
100
AcDbEntity
  8
IMAGE
100
AcDbLine
 10
2.510021019327171
 20
5.492119708014307
 30
0.0
 11
2.510021019327173
 21
4.684295724471494
 31
0.0
  0
LINE
  5
175
330
1E
100
AcDbEntity
  8
IMAGE
100
AcDbLine
 10
2.27335689563868
 20
5.492119708014307
 30
0.0
 11
2.273356895638678
 21
3.912146278795087
 31
0.0
  0
TEXT
  5
17A
330
1E
100
AcDbEntity
  8
TEXT_BUBBLES
100
AcDbText
 10
5.86937851875599
 20
6.472254978874079
 30
0.0
 40
0.125
  1
4
  7
ROMANS
 72
     4
 11
5.93187851875599
 21
6.534754978874079
 31
0.0
100
AcDbText
  0
TEXT
  5
17D
330
1E
100
AcDbEntity
  8
TEXT_BUBBLES
100
AcDbText
 10
5.872354709232181
 20
6.822254978874079
 30
0.0
 40
0.125
  1
3
  7
ROMANS
 72
     4
 11
5.93187851875599
 21
6.884754978874079
 31
0.0
100
AcDbText
  0
ARC
  5
17E
330
1E
100
AcDbEntity
  8
IMAGE
100
AcDbCircle
 10
3.014628935046562
 20
5.84600407558751
 30
0.0
 40
0.1818260367492528
100
AcDbArc
 50
116.0563205359582
 51
205.2549940243739
  0
ARC
  5
17F
330
1E
100
AcDbEntity
  8
IMAGE
100
AcDbCircle
 10
2.770314309373459
 20
5.931774168158868
 30
0.0
 40
0.1818260367492528
100
AcDbArc
 50
296.0563205359582
 51
25.2549940243739
  0
ARC
  5
180
330
1E
100
AcDbEntity
  8
IMAGE
100
AcDbCircle
 10
3.120729217002395
 20
6.355285012711195
 30
0.0
 40
0.1818260367492528
100
AcDbArc
 50
116.0563205359582
 51
205.2549940243739
  0
ARC
  5
181
330
1E
100
AcDbEntity
  8
IMAGE
100
AcDbCircle
 10
2.876414591329293
 20
6.441055105282556
 30
0.0
 40
0.1818260367492528
100
AcDbArc
 50
296.0563205359582
 51
25.2549940243739
  0
ARC
  5
182
330
1E
100
AcDbEntity
  8
IMAGE
100
AcDbCircle
 10
3.32868576963583
 20
6.321332950236284
 30
0.0
 40
0.1818260367492528
100
AcDbArc
 50
116.0563205359582
 51
205.2549940243739
  0
ARC
  5
183
330
1E
100
AcDbEntity
  8
IMAGE
100
AcDbCircle
 10
3.084371143962727
 20
6.407103042807642
 30
0.0
 40
0.1818260367492528
100
AcDbArc
 50
296.0563205359582
 51
25.2549940243739
  0
ARC
  5
184
330
1E
100
AcDbEntity
  8
IMAGE
100
AcDbCircle
 10
3.638498592946866
 20
6.304356918998827
 30
0.0
 40
0.1818260367492528
100
AcDbArc
 50
116.0563205359582
 51
205.2549940243739
  0
ARC
  5
185
330
1E
100
AcDbEntity
  8
IMAGE
100
AcDbCircle
 10
3.394183967273763
 20
6.390127011570188
 30
0.0
 40
0.1818260367492528
100
AcDbArc
 50
296.0563205359582
 51
25.2549940243739
  0
ARC
  5
186
330
1E
100
AcDbEntity
  8
IMAGE
100
AcDbCircle
 10
3.570594412495132
 20
6.079424505102531
 30
0.0
 40
0.1818260367492528
100
AcDbArc
 50
116.0563205359582
 51
205.2549940243739
  0
ARC
  5
187
330
1E
100
AcDbEntity
  8
IMAGE
100
AcDbCircle
 10
3.32627978682203
 20
6.165194597673892
 30
0.0
 40
0.1818260367492528
100
AcDbArc
 50
296.0563205359582
 51
25.2549940243739
  0
ARC
  5
188
330
1E
100
AcDbEntity
  8
IMAGE
100
AcDbCircle
 10
3.074045092941829
 20
6.100644544149352
 30
0.0
 40
0.1818260367492528
100
AcDbArc
 50
116.0563205359582
 51
205.2549940243739
  0
ARC
  5
189
330
1E
100
AcDbEntity
  8
IMAGE
100
AcDbCircle
 10
2.829730467268726
 20
6.186414636720712
 30
0.0
 40
0.1818260367492528
100
AcDbArc
 50
296.0563205359582
 51
25.2549940243739
  0
ARC
  5
18A
330
1E
100
AcDbEntity
  8
IMAGE
100
AcDbCircle
 10
3.460250119261063
 20
5.722927849115951
 30
0.0
 40
0.1818260367492528
100
AcDbArc
 50
116.0563205359582
 51
205.2549940243739
  0
ARC
  5
18B
330
1E
100
AcDbEntity
  8
IMAGE
100
AcDbCircle
 10
3.215935493587961
 20
5.808697941687311
 30
0.0
 40
0.1818260367492528
100
AcDbArc
 50
296.0563205359582
 51
25.2549940243739
  0
ARC
  5
18C
330
1E
100
AcDbEntity
  8
IMAGE
100
AcDbCircle
 10
3.485714186930465
 20
5.544679521122661
 30
0.0
 40
0.1818260367492528
100
AcDbArc
 50
116.0563205359582
 51
205.2549940243739
  0
ARC
  5
18D
330
1E
100
AcDbEntity
  8
IMAGE
100
AcDbCircle
 10
3.241399561257362
 20
5.63044961369402
 30
0.0
 40
0.1818260367492528
100
AcDbArc
 50
296.0563205359582
 51
25.2549940243739
  0
ARC
  5
18E
330
1E
100
AcDbEntity
  8
IMAGE
100
AcDbCircle
 10
3.6809387057292
 20
5.73141586473468
 30
0.0
 40
0.1818260367492528
100
AcDbArc
 50
116.0563205359582
 51
205.2549940243739
  0
ARC
  5
18F
330
1E
100
AcDbEntity
  8
IMAGE
100
AcDbCircle
 10
3.436624080056096
 20
5.817185957306039
 30
0.0
 40
0.1818260367492528
100
AcDbArc
 50
296.0563205359582
 51
25.2549940243739
  0
ARC
  5
190
330
1E
100
AcDbEntity
  8
IMAGE
100
AcDbCircle
 10
3.201756551295209
 20
6.186730454466294
 30
0.0
 40
0.1818260367492528
100
AcDbArc
 50
143.5307656099477
 51
232.7294390983634
  0
ARC
  5
191
330
1E
100
AcDbEntity
  8
IMAGE
100
AcDbCircle
 10
2.94542625227549
 20
6.15011184032062
 30
0.0
 40
0.1818260367492528
100
AcDbArc
 50
323.5307656099477
 51
52.72943909836341
  0
ARC
  5
192
330
1E
100
AcDbEntity
  8
IMAGE
100
AcDbCircle
 10
3.099621984796085
 20
5.727124905220234
 30
0.0
 40
0.1818260367492528
100
AcDbArc
 50
143.5307656099477
 51
232.7294390983634
  0
ARC
  5
193
330
1E
100
AcDbEntity
  8
IMAGE
100
AcDbCircle
 10
2.843291685776367
 20
5.690506291074562
 30
0.0
 40
0.1818260367492528
100
AcDbArc
 50
323.5307656099477
 51
52.72943909836341
  0
ARC
  5
194
330
1E
100
AcDbEntity
  8
IMAGE
100
AcDbCircle
 10
3.048554701546523
 20
5.58413651212146
 30
0.0
 40
0.1818260367492528
100
AcDbArc
 50
143.5307656099477
 51
232.7294390983634
  0
ARC
  5
195
330
1E
100
AcDbEntity
  8
IMAGE
100
AcDbCircle
 10
2.792224402526805
 20
5.547517897975787
 30
0.0
 40
0.1818260367492528
100
AcDbArc
 50
323.5307656099477
 51
52.72943909836341
  0
ARC
  5
196
330
1E
100
AcDbEntity
  8
IMAGE
100
AcDbCircle
 10
3.222183464595033
 20
5.563709598821635
 30
0.0
 40
0.1818260367492528
100
AcDbArc
 50
143.5307656099477
 51
232.7294390983634
  0
ARC
  5
197
330
1E
100
AcDbEntity
  8
IMAGE
100
AcDbCircle
 10
2.965853165575317
 20
5.527090984675963
 30
0.0
 40
0.1818260367492528
100
AcDbArc
 50
323.5307656099477
 51
52.72943909836341
  0
ARC
  5
198
330
1E
100
AcDbEntity
  8
IMAGE
100
AcDbCircle
 10
3.314104574444245
 20
5.972247864818132
 30
0.0
 40
0.1818260367492528
100
AcDbArc
 50
143.5307656099477
 51
232.7294390983634
  0
ARC
  5
199
330
1E
100
AcDbEntity
  8
IMAGE
100
AcDbCircle
 10
3.057774275424528
 20
5.935629250672461
 30
0.0
 40
0.1818260367492528
100
AcDbArc
 50
323.5307656099477
 51
52.72943909836341
  0
ARC
  5
19A
330
1E
100
AcDbEntity
  8
IMAGE
100
AcDbCircle
 10
3.477519880842844
 20
6.115236257916906
 30
0.0
 40
0.1818260367492528
100
AcDbArc
 50
143.5307656099477
 51
232.7294390983634
  0
ARC
  5
19B
330
1E
100
AcDbEntity
  8
IMAGE
100
AcDbCircle
 10
3.221189581823127
 20
6.078617643771233
 30
0.0
 40
0.1818260367492528
100
AcDbArc
 50
323.5307656099477
 51
52.72943909836341
  0
ARC
  5
19C
330
1E
100
AcDbEntity
  8
IMAGE
100
AcDbCircle
 10
3.712429383790828
 20
5.982461321468045
 30
0.0
 40
0.1818260367492528
100
AcDbArc
 50
143.5307656099477
 51
232.7294390983634
  0
ARC
  5
19D
330
1E
100
AcDbEntity
  8
IMAGE
100
AcDbCircle
 10
3.456099084771112
 20
5.945842707322372
 30
0.0
 40
0.1818260367492528
100
AcDbArc
 50
323.5307656099477
 51
52.72943909836341
  0
ARC
  5
19E
330
1E
100
AcDbEntity
  8
IMAGE
100
AcDbCircle
 10
3.569440990692056
 20
5.727124905220234
 30
0.0
 40
0.1818260367492528
100
AcDbArc
 50
143.5307656099477
 51
232.7294390983634
  0
ARC
  5
19F
330
1E
100
AcDbEntity
  8
IMAGE
100
AcDbCircle
 10
3.313110691672338
 20
5.690506291074562
 30
0.0
 40
0.1818260367492528
100
AcDbArc
 50
323.5307656099477
 51
52.72943909836341
  0
ARC
  5
1A0
330
1E
100
AcDbEntity
  8
IMAGE
100
AcDbCircle
 10
3.354958401043896
 20
5.563709598821635
 30
0.0
 40
0.1818260367492528
100
AcDbArc
 50
143.5307656099477
 51
232.7294390983634
  0
ARC
  5
1A1
330
1E
100
AcDbEntity
  8
IMAGE
100
AcDbCircle
 10
3.098628102024177
 20
5.527090984675963
 30
0.0
 40
0.1818260367492528
100
AcDbArc
 50
323.5307656099477
 51
52.72943909836341
  0
ARC
  5
1A2
330
1E
100
AcDbEntity
  8
IMAGE
100
AcDbCircle
 10
3.650528952475132
 20
5.569385120260294
 30
0.0
 40
0.1818260367492528
100
AcDbArc
 50
143.5307656099477
 51
232.7294390983634
  0
ARC
  5
1A3
330
1E
100
AcDbEntity
  8
IMAGE
100
AcDbCircle
 10
3.394198653455415
 20
5.532766506114622
 30
0.0
 40
0.1818260367492528
100
AcDbArc
 50
323.5307656099477
 51
52.72943909836341
  0
ARC
  5
1A4
330
1E
100
AcDbEntity
  8
IMAGE
100
AcDbCircle
 10
3.201756551295209
 20
6.401213044114454
 30
0.0
 40
0.1818260367492528
100
AcDbArc
 50
143.5307656099477
 51
232.7294390983634
  0
ARC
  5
1A5
330
1E
100
AcDbEntity
  8
IMAGE
100
AcDbCircle
 10
2.94542625227549
 20
6.364594429968782
 30
0.0
 40
0.1818260367492528
100
AcDbArc
 50
323.5307656099477
 51
52.72943909836341
  0
ARC
  5
1A6
330
1E
100
AcDbEntity
  8
IMAGE
100
AcDbCircle
 10
3.439106695192698
 20
5.990887130605171
 30
0.0
 40
0.1818260367492528
100
AcDbArc
 50
159.7199718669747
 51
248.9186453553905
  0
ARC
  5
1A7
330
1E
100
AcDbEntity
  8
IMAGE
100
AcDbCircle
 10
3.203150502672087
 20
5.884253082062203
 30
0.0
 40
0.1818260367492528
100
AcDbArc
 50
339.7199718669747
 51
68.91864535539045
  0
ARC
  5
1A8
330
1E
100
AcDbEntity
  8
IMAGE
100
AcDbCircle
 10
3.367612498643311
 20
5.817258367556661
 30
0.0
 40
0.1818260367492528
100
AcDbArc
 50
159.7199718669747
 51
248.9186453553905
  0
ARC
  5
1A9
330
1E
100
AcDbEntity
  8
IMAGE
100
AcDbCircle
 10
3.131656306122701
 20
5.710624319013692
 30
0.0
 40
0.1818260367492528
100
AcDbArc
 50
339.7199718669747
 51
68.91864535539045
  0
ARC
  5
1AA
330
1E
100
AcDbEntity
  8
IMAGE
100
AcDbCircle
 10
3.160336505791602
 20
5.957838102688636
 30
0.0
 40
0.1818260367492528
100
AcDbArc
 50
159.7199718669747
 51
248.9186453553905
  0
ARC
  5
1AB
330
1E
100
AcDbEntity
  8
IMAGE
100
AcDbCircle
 10
2.924380313270992
 20
5.851204054145668
 30
0.0
 40
0.1818260367492528
100
AcDbArc
 50
339.7199718669747
 51
68.91864535539045
  0
ARC
  5
1AC
330
1E
100
AcDbEntity
  8
IMAGE
100
AcDbCircle
 10
3.439106695192698
 20
6.297290830102543
 30
0.0
 40
0.1818260367492528
100
AcDbArc
 50
159.7199718669747
 51
248.9186453553905
  0
ARC
  5
1AD
330
1E
100
AcDbEntity
  8
IMAGE
100
AcDbCircle
 10
3.203150502672087
 20
6.190656781559576
 30
0.0
 40
0.1818260367492528
100
AcDbArc
 50
339.7199718669747
 51
68.91864535539045
  0
ARC
  5
1AE
330
1E
100
AcDbEntity
  8
IMAGE
100
AcDbCircle
 10
3.622948914891122
 20
6.23601009020307
 30
0.0
 40
0.1818260367492528
100
AcDbArc
 50
159.7199718669747
 51
248.9186453553905
  0
ARC
  5
1AF
330
1E
100
AcDbEntity
  8
IMAGE
100
AcDbCircle
 10
3.386992722370512
 20
6.129376041660101
 30
0.0
 40
0.1818260367492528
100
AcDbArc
 50
339.7199718669747
 51
68.91864535539045
  0
ARC
  5
1B0
330
1E
100
AcDbEntity
  8
IMAGE
100
AcDbCircle
 10
3.306331758743837
 20
6.225796633553157
 30
0.0
 40
0.1818260367492528
100
AcDbArc
 50
159.7199718669747
 51
248.9186453553905
  0
ARC
  5
1B1
330
1E
100
AcDbEntity
  8
IMAGE
100
AcDbCircle
 10
3.070375566223226
 20
6.119162585010188
 30
0.0
 40
0.1818260367492528
100
AcDbArc
 50
339.7199718669747
 51
68.91864535539045
  0
ARC
  5
1B2
330
1E
100
AcDbEntity
  8
IMAGE
100
AcDbCircle
 10
3.377060860164906
 20
5.61647764846732
 30
0.0
 40
0.1818260367492528
100
AcDbArc
 50
278.5307656099478
 51
7.729439098363569
  0
ARC
  5
1B3
330
1E
100
AcDbEntity
  8
IMAGE
100
AcDbCircle
 10
3.584207023205383
 20
5.46111802618696
 30
0.0
 40
0.1818260367492528
100
AcDbArc
 50
98.53076560994793
 51
187.7294390983635
  0
ARC
  5
1B4
330
1E
100
AcDbEntity
  8
IMAGE
100
AcDbCircle
 10
2.978736050818321
 20
5.759466041566094
 30
0.0
 40
0.1818260367492528
100
AcDbArc
 50
278.5307656099478
 51
7.729439098363569
  0
ARC
  5
1B5
330
1E
100
AcDbEntity
  8
IMAGE
100
AcDbCircle
 10
3.185882213858798
 20
5.604106419285736
 30
0.0
 40
0.1818260367492528
100
AcDbArc
 50
98.53076560994793
 51
187.7294390983635
  0
ARC
  5
1B6
330
1E
100
AcDbEntity
  8
IMAGE
100
AcDbCircle
 10
3.356352352420774
 20
5.87403962541229
 30
0.0
 40
0.1818260367492528
100
AcDbArc
 50
339.7199718669747
 51
68.91864535539045
  0
ARC
  5
1B7
330
1E
100
AcDbEntity
  8
IMAGE
100
AcDbCircle
 10
3.592308544941384
 20
5.980673673955259
 30
0.0
 40
0.1818260367492528
100
AcDbArc
 50
159.7199718669747
 51
248.9186453553905
  0
ARC
  5
1B8
330
1E
100
AcDbEntity
  8
IMAGE
100
AcDbCircle
 10
3.254499380365958
 20
6.402913810510577
 30
0.0
 40
0.1818260367492528
100
AcDbArc
 50
278.5307656099478
 51
7.729439098363569
  0
ARC
  5
1B9
330
1E
100
AcDbEntity
  8
IMAGE
100
AcDbCircle
 10
3.461645543406434
 20
6.247554188230218
 30
0.0
 40
0.1818260367492528
100
AcDbArc
 50
98.53076560994793
 51
187.7294390983635
  0
ARC
  5
1BA
330
1E
100
AcDbEntity
  8
IMAGE
100
AcDbCircle
 10
1.971324562879672
 20
5.891320472582467
 30
0.0
 40
0.1818260367492528
100
AcDbArc
 50
116.0563205359582
 51
205.2549940243739
  0
ARC
  5
1BB
330
1E
100
AcDbEntity
  8
IMAGE
100
AcDbCircle
 10
1.72700993720657
 20
5.977090565153828
 30
0.0
 40
0.1818260367492528
100
AcDbArc
 50
296.0563205359582
 51
25.2549940243739
  0
ARC
  5
1BC
330
1E
100
AcDbEntity
  8
IMAGE
100
AcDbCircle
 10
1.50023931099577
 20
6.298745222281418
 30
0.0
 40
0.1818260367492528
100
AcDbArc
 50
116.0563205359582
 51
205.2549940243739
  0
ARC
  5
1BD
330
1E
100
AcDbEntity
  8
IMAGE
100
AcDbCircle
 10
1.255924685322668
 20
6.384515314852777
 30
0.0
 40
0.1818260367492528
100
AcDbArc
 50
296.0563205359582
 51
25.2549940243739
  0
ARC
  5
1BE
330
1E
100
AcDbEntity
  8
IMAGE
100
AcDbCircle
 10
1.810052134306806
 20
6.281769191043961
 30
0.0
 40
0.1818260367492528
100
AcDbArc
 50
116.0563205359582
 51
205.2549940243739
  0
ARC
  5
1BF
330
1E
100
AcDbEntity
  8
IMAGE
100
AcDbCircle
 10
1.565737508633702
 20
6.367539283615322
 30
0.0
 40
0.1818260367492528
100
AcDbArc
 50
296.0563205359582
 51
25.2549940243739
  0
ARC
  5
1C0
330
1E
100
AcDbEntity
  8
IMAGE
100
AcDbCircle
 10
1.742147953855074
 20
6.056836777147665
 30
0.0
 40
0.1818260367492528
100
AcDbArc
 50
116.0563205359582
 51
205.2549940243739
  0
ARC
  5
1C1
330
1E
100
AcDbEntity
  8
IMAGE
100
AcDbCircle
 10
1.49783332818197
 20
6.142606869719026
 30
0.0
 40
0.1818260367492528
100
AcDbArc
 50
296.0563205359582
 51
25.2549940243739
  0
ARC
  5
1C2
330
1E
100
AcDbEntity
  8
IMAGE
100
AcDbCircle
 10
2.115620946339608
 20
5.810684324204551
 30
0.0
 40
0.1818260367492528
100
AcDbArc
 50
116.0563205359582
 51
205.2549940243739
  0
ARC
  5
1C3
330
1E
100
AcDbEntity
  8
IMAGE
100
AcDbCircle
 10
1.871306320666505
 20
5.896454416775911
 30
0.0
 40
0.1818260367492528
100
AcDbArc
 50
296.0563205359582
 51
25.2549940243739
  0
ARC
  5
1C4
330
1E
100
AcDbEntity
  8
IMAGE
100
AcDbCircle
 10
1.631803660621002
 20
5.700340121161085
 30
0.0
 40
0.1818260367492528
100
AcDbArc
 50
116.0563205359582
 51
205.2549940243739
  0
ARC
  5
1C5
330
1E
100
AcDbEntity
  8
IMAGE
100
AcDbCircle
 10
1.3874890349479
 20
5.786110213732445
 30
0.0
 40
0.1818260367492528
100
AcDbArc
 50
296.0563205359582
 51
25.2549940243739
  0
ARC
  5
1C6
330
1E
100
AcDbEntity
  8
IMAGE
100
AcDbCircle
 10
1.657267728290406
 20
5.522091793167795
 30
0.0
 40
0.1818260367492528
100
AcDbArc
 50
116.0563205359582
 51
205.2549940243739
  0
ARC
  5
1C7
330
1E
100
AcDbEntity
  8
IMAGE
100
AcDbCircle
 10
1.412953102617303
 20
5.607861885739154
 30
0.0
 40
0.1818260367492528
100
AcDbArc
 50
296.0563205359582
 51
25.2549940243739
  0
ARC
  5
1C8
330
1E
100
AcDbEntity
  8
IMAGE
100
AcDbCircle
 10
1.852492247089141
 20
5.708828136779814
 30
0.0
 40
0.1818260367492528
100
AcDbArc
 50
116.0563205359582
 51
205.2549940243739
  0
ARC
  5
1C9
330
1E
100
AcDbEntity
  8
IMAGE
100
AcDbCircle
 10
1.608177621416036
 20
5.794598229351173
 30
0.0
 40
0.1818260367492528
100
AcDbArc
 50
296.0563205359582
 51
25.2549940243739
  0
ARC
  5
1CA
330
1E
100
AcDbEntity
  8
IMAGE
100
AcDbCircle
 10
2.159746254698407
 20
5.551335327516682
 30
0.0
 40
0.1818260367492528
100
AcDbArc
 50
143.5307656099477
 51
232.7294390983634
  0
ARC
  5
1CB
330
1E
100
AcDbEntity
  8
IMAGE
100
AcDbCircle
 10
1.903415955678688
 20
5.51471671337101
 30
0.0
 40
0.1818260367492528
100
AcDbArc
 50
323.5307656099477
 51
52.72943909836341
  0
ARC
  5
1CC
330
1E
100
AcDbEntity
  8
IMAGE
100
AcDbCircle
 10
2.210813537947966
 20
6.347984946209852
 30
0.0
 40
0.1818260367492528
100
AcDbArc
 50
143.5307656099477
 51
232.7294390983634
  0
ARC
  5
1CD
330
1E
100
AcDbEntity
  8
IMAGE
100
AcDbCircle
 10
1.954483238928251
 20
6.311366332064178
 30
0.0
 40
0.1818260367492528
100
AcDbArc
 50
323.5307656099477
 51
52.72943909836341
  0
ARC
  5
1CE
330
1E
100
AcDbEntity
  8
IMAGE
100
AcDbCircle
 10
1.485658115804184
 20
5.949660136863267
 30
0.0
 40
0.1818260367492528
100
AcDbArc
 50
143.5307656099477
 51
232.7294390983634
  0
ARC
  5
1CF
330
1E
100
AcDbEntity
  8
IMAGE
100
AcDbCircle
 10
1.229327816784469
 20
5.913041522717595
 30
0.0
 40
0.1818260367492528
100
AcDbArc
 50
323.5307656099477
 51
52.72943909836341
  0
ARC
  5
1D0
330
1E
100
AcDbEntity
  8
IMAGE
100
AcDbCircle
 10
1.649073422202786
 20
6.09264852996204
 30
0.0
 40
0.1818260367492528
100
AcDbArc
 50
143.5307656099477
 51
232.7294390983634
  0
ARC
  5
1D1
330
1E
100
AcDbEntity
  8
IMAGE
100
AcDbCircle
 10
1.392743123183066
 20
6.056029915816367
 30
0.0
 40
0.1818260367492528
100
AcDbArc
 50
323.5307656099477
 51
52.72943909836341
  0
ARC
  5
1D2
330
1E
100
AcDbEntity
  8
IMAGE
100
AcDbCircle
 10
2.016757861599632
 20
6.245850379710727
 30
0.0
 40
0.1818260367492528
100
AcDbArc
 50
143.5307656099477
 51
232.7294390983634
  0
ARC
  5
1D3
330
1E
100
AcDbEntity
  8
IMAGE
100
AcDbCircle
 10
1.760427562579913
 20
6.209231765565053
 30
0.0
 40
0.1818260367492528
100
AcDbArc
 50
323.5307656099477
 51
52.72943909836341
  0
ARC
  5
1D4
330
1E
100
AcDbEntity
  8
IMAGE
100
AcDbCircle
 10
1.96569057835007
 20
6.143715813211603
 30
0.0
 40
0.1818260367492528
100
AcDbArc
 50
143.5307656099477
 51
232.7294390983634
  0
ARC
  5
1D5
330
1E
100
AcDbEntity
  8
IMAGE
100
AcDbCircle
 10
1.709360279330351
 20
6.107097199065929
 30
0.0
 40
0.1818260367492528
100
AcDbArc
 50
323.5307656099477
 51
52.72943909836341
  0
ARC
  5
1D6
330
1E
100
AcDbEntity
  8
IMAGE
100
AcDbCircle
 10
1.883982925150768
 20
5.959873593513179
 30
0.0
 40
0.1818260367492528
100
AcDbArc
 50
143.5307656099477
 51
232.7294390983634
  0
ARC
  5
1D7
330
1E
100
AcDbEntity
  8
IMAGE
100
AcDbCircle
 10
1.627652626131052
 20
5.923254979367506
 30
0.0
 40
0.1818260367492528
100
AcDbArc
 50
323.5307656099477
 51
52.72943909836341
  0
ARC
  5
1D8
330
1E
100
AcDbEntity
  8
IMAGE
100
AcDbCircle
 10
1.740994532051995
 20
5.704537177265368
 30
0.0
 40
0.1818260367492528
100
AcDbArc
 50
143.5307656099477
 51
232.7294390983634
  0
ARC
  5
1D9
330
1E
100
AcDbEntity
  8
IMAGE
100
AcDbCircle
 10
1.48466423303228
 20
5.667918563119696
 30
0.0
 40
0.1818260367492528
100
AcDbArc
 50
323.5307656099477
 51
52.72943909836341
  0
ARC
  5
1DA
330
1E
100
AcDbEntity
  8
IMAGE
100
AcDbCircle
 10
1.526511942403836
 20
5.541121870866769
 30
0.0
 40
0.1818260367492528
100
AcDbArc
 50
143.5307656099477
 51
232.7294390983634
  0
ARC
  5
1DB
330
1E
100
AcDbEntity
  8
IMAGE
100
AcDbCircle
 10
1.270181643384116
 20
5.504503256721097
 30
0.0
 40
0.1818260367492528
100
AcDbArc
 50
323.5307656099477
 51
52.72943909836341
  0
ARC
  5
1DC
330
1E
100
AcDbEntity
  8
IMAGE
100
AcDbCircle
 10
1.863556011850945
 20
5.520694957566945
 30
0.0
 40
0.1818260367492528
100
AcDbArc
 50
143.5307656099477
 51
232.7294390983634
  0
ARC
  5
1DD
330
1E
100
AcDbEntity
  8
IMAGE
100
AcDbCircle
 10
1.607225712831226
 20
5.484076343421273
 30
0.0
 40
0.1818260367492528
100
AcDbArc
 50
323.5307656099477
 51
52.72943909836341
  0
ARC
  5
1DE
330
1E
100
AcDbEntity
  8
IMAGE
100
AcDbCircle
 10
2.047398231549368
 20
5.58197569746642
 30
0.0
 40
0.1818260367492528
100
AcDbArc
 50
143.5307656099477
 51
232.7294390983634
  0
ARC
  5
1DF
330
1E
100
AcDbEntity
  8
IMAGE
100
AcDbCircle
 10
1.791067932529653
 20
5.545357083320746
 30
0.0
 40
0.1818260367492528
100
AcDbArc
 50
323.5307656099477
 51
52.72943909836341
  0
ARC
  5
1E0
330
1E
100
AcDbEntity
  8
IMAGE
100
AcDbCircle
 10
2.210813537947966
 20
5.949660136863267
 30
0.0
 40
0.1818260367492528
100
AcDbArc
 50
143.5307656099477
 51
232.7294390983634
  0
ARC
  5
1E1
330
1E
100
AcDbEntity
  8
IMAGE
100
AcDbCircle
 10
1.954483238928251
 20
5.913041522717595
 30
0.0
 40
0.1818260367492528
100
AcDbArc
 50
323.5307656099477
 51
52.72943909836341
  0
ARC
  5
1E2
330
1E
100
AcDbEntity
  8
IMAGE
100
AcDbCircle
 10
1.904409838450597
 20
6.276490749660464
 30
0.0
 40
0.1818260367492528
100
AcDbArc
 50
143.5307656099477
 51
232.7294390983634
  0
ARC
  5
1E3
330
1E
100
AcDbEntity
  8
IMAGE
100
AcDbCircle
 10
1.648079539430877
 20
6.239872135514792
 30
0.0
 40
0.1818260367492528
100
AcDbArc
 50
323.5307656099477
 51
52.72943909836341
  0
ARC
  5
1E4
330
1E
100
AcDbEntity
  8
IMAGE
100
AcDbCircle
 10
2.203040722247559
 20
5.764030269652057
 30
0.0
 40
0.1818260367492528
100
AcDbArc
 50
159.7199718669747
 51
248.9186453553905
  0
ARC
  5
1E5
330
1E
100
AcDbEntity
  8
IMAGE
100
AcDbCircle
 10
1.967084529726948
 20
5.65739622110909
 30
0.0
 40
0.1818260367492528
100
AcDbArc
 50
339.7199718669747
 51
68.91864535539045
  0
ARC
  5
1E6
330
1E
100
AcDbEntity
  8
IMAGE
100
AcDbCircle
 10
2.029411959199048
 20
6.029580142549779
 30
0.0
 40
0.1818260367492528
100
AcDbArc
 50
159.7199718669747
 51
248.9186453553905
  0
ARC
  5
1E7
330
1E
100
AcDbEntity
  8
IMAGE
100
AcDbCircle
 10
1.793455766678437
 20
5.922946094006812
 30
0.0
 40
0.1818260367492528
100
AcDbArc
 50
339.7199718669747
 51
68.91864535539045
  0
ARC
  5
1E8
330
1E
100
AcDbEntity
  8
IMAGE
100
AcDbCircle
 10
1.610660236552639
 20
5.968299402650306
 30
0.0
 40
0.1818260367492528
100
AcDbArc
 50
159.7199718669747
 51
248.9186453553905
  0
ARC
  5
1E9
330
1E
100
AcDbEntity
  8
IMAGE
100
AcDbCircle
 10
1.374704044032029
 20
5.861665354107337
 30
0.0
 40
0.1818260367492528
100
AcDbArc
 50
339.7199718669747
 51
68.91864535539045
  0
ARC
  5
1EA
330
1E
100
AcDbEntity
  8
IMAGE
100
AcDbCircle
 10
1.539166040003252
 20
5.794670639601795
 30
0.0
 40
0.1818260367492528
100
AcDbArc
 50
159.7199718669747
 51
248.9186453553905
  0
ARC
  5
1EB
330
1E
100
AcDbEntity
  8
IMAGE
100
AcDbCircle
 10
1.303209847482641
 20
5.688036591058827
 30
0.0
 40
0.1818260367492528
100
AcDbArc
 50
339.7199718669747
 51
68.91864535539045
  0
ARC
  5
1EC
330
1E
100
AcDbEntity
  8
IMAGE
100
AcDbCircle
 10
1.610660236552639
 20
6.274703102147677
 30
0.0
 40
0.1818260367492528
100
AcDbArc
 50
159.7199718669747
 51
248.9186453553905
  0
ARC
  5
1ED
330
1E
100
AcDbEntity
  8
IMAGE
100
AcDbCircle
 10
1.374704044032029
 20
6.16806905360471
 30
0.0
 40
0.1818260367492528
100
AcDbArc
 50
339.7199718669747
 51
68.91864535539045
  0
ARC
  5
1EE
330
1E
100
AcDbEntity
  8
IMAGE
100
AcDbCircle
 10
1.794502456251063
 20
6.213422362248204
 30
0.0
 40
0.1818260367492528
100
AcDbArc
 50
159.7199718669747
 51
248.9186453553905
  0
ARC
  5
1EF
330
1E
100
AcDbEntity
  8
IMAGE
100
AcDbCircle
 10
1.558546263730452
 20
6.106788313705235
 30
0.0
 40
0.1818260367492528
100
AcDbArc
 50
339.7199718669747
 51
68.91864535539045
  0
ARC
  5
1F0
330
1E
100
AcDbEntity
  8
IMAGE
100
AcDbCircle
 10
2.141759982348085
 20
6.254276188847853
 30
0.0
 40
0.1818260367492528
100
AcDbArc
 50
159.7199718669747
 51
248.9186453553905
  0
ARC
  5
1F1
330
1E
100
AcDbEntity
  8
IMAGE
100
AcDbCircle
 10
1.905803789827473
 20
6.147642140304885
 30
0.0
 40
0.1818260367492528
100
AcDbArc
 50
339.7199718669747
 51
68.91864535539045
  0
ARC
  5
1F2
330
1E
100
AcDbEntity
  8
IMAGE
100
AcDbCircle
 10
1.947704305999749
 20
5.723176443052407
 30
0.0
 40
0.1818260367492528
100
AcDbArc
 50
159.7199718669747
 51
248.9186453553905
  0
ARC
  5
1F3
330
1E
100
AcDbEntity
  8
IMAGE
100
AcDbCircle
 10
1.711748113479139
 20
5.616542394509439
 30
0.0
 40
0.1818260367492528
100
AcDbArc
 50
339.7199718669747
 51
68.91864535539045
  0
ARC
  5
1F4
330
1E
100
AcDbEntity
  8
IMAGE
100
AcDbCircle
 10
2.008985045899223
 20
5.804884096251706
 30
0.0
 40
0.1818260367492528
100
AcDbArc
 50
159.7199718669747
 51
248.9186453553905
  0
ARC
  5
1F5
330
1E
100
AcDbEntity
  8
IMAGE
100
AcDbCircle
 10
1.773028853378612
 20
5.698250047708739
 30
0.0
 40
0.1818260367492528
100
AcDbArc
 50
339.7199718669747
 51
68.91864535539045
  0
ARC
  5
1F6
330
1E
100
AcDbEntity
  8
IMAGE
100
AcDbCircle
 10
1.477885300103778
 20
6.203208905598291
 30
0.0
 40
0.1818260367492528
100
AcDbArc
 50
159.7199718669747
 51
248.9186453553905
  0
ARC
  5
1F7
330
1E
100
AcDbEntity
  8
IMAGE
100
AcDbCircle
 10
1.241929107583167
 20
6.096574857055323
 30
0.0
 40
0.1818260367492528
100
AcDbArc
 50
339.7199718669747
 51
68.91864535539045
  0
ARC
  5
1F8
330
1E
100
AcDbEntity
  8
IMAGE
100
AcDbCircle
 10
1.548614401524847
 20
5.593889920512454
 30
0.0
 40
0.1818260367492528
100
AcDbArc
 50
278.5307656099478
 51
7.729439098363569
  0
ARC
  5
1F9
330
1E
100
AcDbEntity
  8
IMAGE
100
AcDbCircle
 10
1.755760564565324
 20
5.438530298232095
 30
0.0
 40
0.1818260367492528
100
AcDbArc
 50
98.53076560994793
 51
187.7294390983635
  0
ARC
  5
1FA
330
1E
100
AcDbEntity
  8
IMAGE
100
AcDbCircle
 10
1.926512297571605
 20
6.227124232807025
 30
0.0
 40
0.1818260367492528
100
AcDbArc
 50
278.5307656099478
 51
7.729439098363569
  0
ARC
  5
1FB
330
1E
100
AcDbEntity
  8
IMAGE
100
AcDbCircle
 10
2.133658460612083
 20
6.071764610526667
 30
0.0
 40
0.1818260367492528
100
AcDbArc
 50
98.53076560994793
 51
187.7294390983635
  0
ARC
  5
1FC
330
1E
100
AcDbEntity
  8
IMAGE
100
AcDbCircle
 10
1.527905893780715
 20
5.851451897457424
 30
0.0
 40
0.1818260367492528
100
AcDbArc
 50
339.7199718669747
 51
68.91864535539045
  0
ARC
  5
1FD
330
1E
100
AcDbEntity
  8
IMAGE
100
AcDbCircle
 10
1.763862086301324
 20
5.958085946000393
 30
0.0
 40
0.1818260367492528
100
AcDbArc
 50
159.7199718669747
 51
248.9186453553905
  0
ARC
  5
1FE
330
1E
100
AcDbEntity
  8
IMAGE
100
AcDbCircle
 10
1.426052921725897
 20
6.380326082555711
 30
0.0
 40
0.1818260367492528
100
AcDbArc
 50
278.5307656099478
 51
7.729439098363569
  0
ARC
  5
1FF
330
1E
100
AcDbEntity
  8
IMAGE
100
AcDbCircle
 10
1.633199084766374
 20
6.224966460275352
 30
0.0
 40
0.1818260367492528
100
AcDbArc
 50
98.53076560994793
 51
187.7294390983635
  0
ARC
  5
200
330
1E
100
AcDbEntity
  8
IMAGE
100
AcDbCircle
 10
1.801428540889592
 20
6.446610474005497
 30
0.0
 40
0.1818260367492528
100
AcDbArc
 50
278.5307656099478
 51
7.729439098363569
  0
ARC
  5
201
330
1E
100
AcDbEntity
  8
IMAGE
100
AcDbCircle
 10
2.008574703930068
 20
6.291250851725139
 30
0.0
 40
0.1818260367492528
100
AcDbArc
 50
98.53076560994793
 51
187.7294390983635
  0
TEXT
  5
212
330
1E
100
AcDbEntity
  8
TEXT_BUBBLES
100
AcDbText
 10
4.055795107734458
 20
7.460716685639274
 30
0.0
 40
0.125
  1
1
  7
ROMANS
 72
     4
 11
4.106390345829696
 21
7.523216685639274
 31
0.0
100
AcDbText
  0
TEXT
  5
214
330
1E
100
AcDbEntity
  8
TEXT_BUBBLES
100
AcDbText
 10
4.046866536305887
 20
6.102080129449555
 30
0.0
 40
0.125
  1
3
  7
ROMANS
 72
     4
 11
4.106390345829696
 21
6.164580129449555
 31
0.0
100
AcDbText
  0
TEXT
  5
216
330
1E
100
AcDbEntity
  8
TEXT_BUBBLES
100
AcDbText
 10
4.043890345829696
 20
5.462983953802169
 30
0.0
 40
0.125
  1
4
  7
ROMANS
 72
     4
 11
4.106390345829696
 21
5.525483953802169
 31
0.0
100
AcDbText
  0
TEXT
  5
218
330
1E
100
AcDbEntity
  8
TEXT_BUBBLES
100
AcDbText
 10
3.179313555820798
 20
5.030558608036574
 30
0.0
 40
0.125
  1
5
  7
ROMANS
 72
     4
 11
3.238837365344608
 21
5.093058608036574
 31
0.0
100
AcDbText
  0
TEXT
  5
21A
330
1E
100
AcDbEntity
  8
TEXT_BUBBLES
100
AcDbText
 10
3.176337365344608
 20
4.704451703687674
 30
0.0
 40
0.125
  1
6
  7
ROMANS
 72
     4
 11
3.238837365344608
 21
4.766951703687674
 31
0.0
100
AcDbText
  0
TEXT
  5
21C
330
1E
100
AcDbEntity
  8
TEXT_BUBBLES
100
AcDbText
 10
2.645881087685144
 20
3.116683651033955
 30
0.0
 40
0.125
  1
7
  7
ROMANS
 72
     4
 11
2.705404897208953
 21
3.179183651033955
 31
0.0
100
AcDbText
  0
TEXT
  5
21E
330
1E
100
AcDbEntity
  8
TEXT_BUBBLES
100
AcDbText
 10
3.178173356647273
 20
3.116683651033955
 30
0.0
 40
0.125
  1
8
  7
ROMANS
 72
     4
 11
3.237697166171082
 21
3.179183651033955
 31
0.0
100
AcDbText
  0
TEXT
  5
220
330
1E
100
AcDbEntity
  8
TEXT_BUBBLES
100
AcDbText
 10
3.992553137832147
 20
3.116683651033955
 30
0.0
 40
0.125
  1
9
  7
ROMANS
 72
     4
 11
4.049100756879767
 21
3.179183651033955
 31
0.0
100
AcDbText
  0
TEXT
  5
222
330
1E
100
AcDbEntity
  8
TEXT_BUBBLES
100
AcDbText
 10
4.671676179809577
 20
3.116683651033955
 30
0.0
 40
0.125
  1
8
  7
ROMANS
 72
     4
 11
4.731199989333386
 21
3.179183651033955
 31
0.0
100
AcDbText
  0
TEXT
  5
224
330
1E
100
AcDbEntity
  8
TEXT_BUBBLES
100
AcDbText
 10
4.973434258556443
 20
3.116683651033955
 30
0.0
 40
0.125
  1
10
  7
ROMANS
 72
     4
 11
5.101410449032633
 21
3.179183651033955
 31
0.0
100
AcDbText
  0
TEXT
  5
226
330
1E
100
AcDbEntity
  8
TEXT_BUBBLES
100
AcDbText
 10
5.311957590654072
 20
3.116683651033955
 30
0.0
 40
0.125
  1
11
  7
ROMANS
 72
     4
 11
5.42207663827312
 21
3.179183651033955
 31
0.0
100
AcDbText
  0
TEXT
  5
22B
330
1E
100
AcDbEntity
  8
TEXT_BUBBLES
100
AcDbText
 10
5.872354709232181
 20
6.122254978874079
 30
0.0
 40
0.125
  1
5
  7
ROMANS
 72
     4
 11
5.93187851875599
 21
6.184754978874079
 31
0.0
100
AcDbText
  0
TEXT
  5
22D
330
1E
100
AcDbEntity
  8
TEXT_BUBBLES
100
AcDbText
 10
5.86937851875599
 20
5.422254978874079
 30
0.0
 40
0.125
  1
6
  7
ROMANS
 72
     4
 11
5.93187851875599
 21
5.484754978874079
 31
0.0
100
AcDbText
  0
TEXT
  5
22F
330
1E
100
AcDbEntity
  8
TEXT_BUBBLES
100
AcDbText
 10
5.872354709232181
 20
5.072254978874079
 30
0.0
 40
0.125
  1
7
  7
ROMANS
 72
     4
 11
5.93187851875599
 21
5.134754978874079
 31
0.0
100
AcDbText
  0
TEXT
  5
231
330
1E
100
AcDbEntity
  8
TEXT_BUBBLES
100
AcDbText
 10
5.872354709232181
 20
4.197254978874079
 30
0.0
 40
0.125
  1
8
  7
ROMANS
 72
     4
 11
5.93187851875599
 21
4.259754978874079
 31
0.0
100
AcDbText
  0
TEXT
  5
233
330
1E
100
AcDbEntity
  8
TEXT_BUBBLES
100
AcDbText
 10
5.875330899708371
 20
3.847254978874079
 30
0.0
 40
0.125
  1
9
  7
ROMANS
 72
     4
 11
5.93187851875599
 21
3.909754978874079
 31
0.0
100
AcDbText
  0
TEXT
  5
235
330
1E
100
AcDbEntity
  8
TEXT_BUBBLES
100
AcDbText
 10
5.803902328279799
 20
3.322254978874079
 30
0.0
 40
0.125
  1
10
  7
ROMANS
 72
     4
 11
5.93187851875599
 21
3.384754978874079
 31
0.0
100
AcDbText
  0
TEXT
  5
236
330
1E
100
AcDbEntity
  8
TEXT_BUBBLES
100
AcDbText
 10
5.872354709232181
 20
7.347254978874079
 30
0.0
 40
0.125
  1
2
  7
ROMANS
 72
     4
 11
5.93187851875599
 21
7.409754978874079
 31
0.0
100
AcDbText
  0
TEXT
  5
239
330
1E
100
AcDbEntity
  8
TEXT_LEADERS
100
AcDbText
 10
5.70369625
 20
7.877790742092978
 30
0.0
 40
0.125
  1
IMPACT SPRINKLER:
  7
SIMPLEX
100
AcDbText
  0
TEXT
  5
23A
330
1E
100
AcDbEntity
  8
TEXT_LEADERS
100
AcDbText
 10
5.70369625
 20
6.534807553858168
 30
0.0
 40
0.125
  1
PLANT MATERIAL
  7
SIMPLEX
100
AcDbText
  0
TEXT
  5
23B
330
1E
100
AcDbEntity
  8
TEXT_LEADERS
100
AcDbText
 10
5.70369625
 20
2.943811146846305
 30
0.0
 40
0.125
  1
PVC SCH 40 ELL
  7
SIMPLEX
100
AcDbText
  0
TEXT
  5
23C
330
1E
100
AcDbEntity
  8
TEXT_LEADERS
100
AcDbText
 10
5.70369625
 20
2.216179528529129
 30
0.0
 40
0.125
  1
  SUPPORT SYSTEM
  7
SIMPLEX
100
AcDbText
  0
TEXT
  5
23D
330
1E
100
AcDbEntity
  8
TEXT_LEADERS
100
AcDbText
 10
5.70369625
 20
3.164745830022868
 30
0.0
 40
0.125
  1
PVC LATERAL PIPE
  7
SIMPLEX
100
AcDbText
  0
TEXT
  5
23E
330
1E
100
AcDbEntity
  8
TEXT_LEADERS
100
AcDbText
 10
5.70369625
 20
5.893135057399227
 30
0.0
 40
0.125
  1
FINISH GRADE/TOP OF MULCH
  7
SIMPLEX
100
AcDbText
  0
TEXT
  5
23F
330
1E
100
AcDbEntity
  8
TEXT_LEADERS
100
AcDbText
 10
5.70369625
 20
5.690457113817254
 30
0.0
 40
0.125
  1
UV RADIATION RESISTANT
  7
SIMPLEX
100
AcDbText
  0
TEXT
  5
240
330
1E
100
AcDbEntity
  8
TEXT_LEADERS
100
AcDbText
 10
5.70369625
 20
5.340457113817254
 30
0.0
 40
0.125
  1
  (LENGTH AS REQUIRED)
  7
SIMPLEX
100
AcDbText
  0
TEXT
  5
241
330
1E
100
AcDbEntity
  8
TEXT_LEADERS
100
AcDbText
 10
5.70369625
 20
5.515457113817254
 30
0.0
 40
0.125
  1
  PVC SCH 80 NIPPLE
  7
SIMPLEX
100
AcDbText
  0
TEXT
  5
242
330
1E
100
AcDbEntity
  8
TEXT_LEADERS
100
AcDbText
 10
5.70369625
 20
2.391179528529129
 30
0.0
 40
0.125
  1
  CLAMPS OR EQUIVALENT
  7
SIMPLEX
100
AcDbText
  0
TEXT
  5
243
330
1E
100
AcDbEntity
  8
TEXT_LEADERS
100
AcDbText
 10
5.70369625
 20
2.566179528529128
 30
0.0
 40
0.125
  1
  WITH STAINLESS STEEL GEAR
  7
SIMPLEX
100
AcDbText
  0
TEXT
  5
244
330
1E
100
AcDbEntity
  8
TEXT_LEADERS
100
AcDbText
 10
5.70369625
 20
2.741179528529129
 30
0.0
 40
0.125
  1
1-INCH GALVANIZED STEEL PIPE
  7
SIMPLEX
100
AcDbText
  0
TEXT
  5
245
330
1E
100
AcDbEntity
  8
TEXT_LEADERS
100
AcDbText
 10
5.70369625
 20
5.080528487692
 30
0.0
 40
0.125
  1
PVC SCH 40 STREET ELL
  7
SIMPLEX
100
AcDbText
  0
TEXT
  5
246
330
1E
100
AcDbEntity
  8
TEXT_LEADERS
100
AcDbText
 10
5.70369625
 20
4.845314676708723
 30
0.0
 40
0.125
  1
PVC SCH 80 NIPPLE
  7
SIMPLEX
100
AcDbText
  0
TEXT
  5
247
330
1E
100
AcDbEntity
  8
TEXT_LEADERS
100
AcDbText
 10
5.70369625
 20
4.670314676708724
 30
0.0
 40
0.125
  1
  (LENGTH AS REQUIRED)
  7
SIMPLEX
100
AcDbText
  0
TEXT
  5
248
330
1E
100
AcDbEntity
  8
TEXT_LEADERS
100
AcDbText
 10
5.70369625
 20
3.409752290037298
 30
0.0
 40
0.125
  1
PVC SCH 40 TEE OR ELL
  7
SIMPLEX
100
AcDbText
  0
TEXT
  5
262
330
1E
100
AcDbEntity
  8
TEXT_LEADERS
100
AcDbText
 10
5.70369625
 20
3.702048446942304
 30
0.0
 40
0.125
  1
PVC SCH 40 STREET ELL
  7
SIMPLEX
100
AcDbText
  0
LINE
  5
270
330
1E
100
AcDbEntity
  8
IMAGE
100
AcDbLine
 10
2.273356895638678
 20
4.173781255595654
 30
0.0
 11
1.798447871022779
 21
4.173781255595654
 31
0.0
  0
LINE
  5
271
330
1E
100
AcDbEntity
  8
IMAGE
100
AcDbLine
 10
2.273356895638678
 20
3.912146278795087
 30
0.0
 11
1.798447871022779
 21
3.912146278795088
 31
0.0
  0
TEXT
  5
285
330
1E
100
AcDbEntity
  8
TEXT_LEADERS
100
AcDbText
 10
4.841919898987
 20
4.539030075072999
 30
0.0
 40
0.10000000149
  1

  7
SIMPLEX
100
AcDbText
  0
LINE
  5
28C
330
1E
100
AcDbEntity
  8
IMAGE
100
AcDbLine
 10
2.748590498366291
 20
6.592495424105116
 30
0.0
 11
2.748572715047105
 21
6.467553994577759
 31
0.0
  0
LINE
  5
28D
330
1E
100
AcDbEntity
  8
IMAGE
100
AcDbLine
 10
2.490901549574124
 20
6.592495424105116
 30
0.0
 11
2.490897187626774
 21
6.467553994577759
 31
0.0
  0
LINE
  5
28E
330
1E
100
AcDbEntity
  8
IMAGE
100
AcDbLine
 10
2.490890498366291
 20
6.250520730357541
 30
0.0
 11
2.748545443453779
 21
6.250520730357541
 31
0.0
  0
LINE
  5
28F
330
1E
100
AcDbEntity
  8
IMAGE
100
AcDbLine
 10
2.510021019327173
 20
6.250520730357541
 30
0.0
 11
2.729414922492897
 21
6.250520730357541
 31
0.0
  0
LINE
  5
290
330
1E
100
AcDbEntity
  8
IMAGE
100
AcDbLine
 10
2.490901549574124
 20
6.592495424105116
 30
0.0
 11
2.748590498366291
 21
6.592495424105116
 31
0.0
  0
LINE
  5
291
330
1E
100
AcDbEntity
  8
IMAGE
100
AcDbLine
 10
2.748562026176764
 20
6.382489642328584
 30
0.0
 11
2.748545443453779
 21
6.250520730357541
 31
0.0
  0
LINE
  5
292
330
1E
100
AcDbEntity
  8
IMAGE
100
AcDbLine
 10
2.490894565827705
 20
6.382489642328584
 30
0.0
 11
2.490890498366291
 21
6.250520730357541
 31
0.0
  0
TEXT
  5
297
330
1E
100
AcDbEntity
  8
TEXT_LEADERS
100
AcDbText
 10
5.70369625
 20
7.413084887001877
 30
0.0
 40
0.125
  1
UV RADIATION RESISTANT
  7
SIMPLEX
100
AcDbText
  0
TEXT
  5
298
330
1E
100
AcDbEntity
  8
TEXT_LEADERS
100
AcDbText
 10
5.70369625
 20
7.238084887001878
 30
0.0
 40
0.125
  1
  PVC SCH 80 COUPLING
  7
SIMPLEX
100
AcDbText
  0
TEXT
  5
29C
330
1E
100
AcDbEntity
  8
TEXT_BUBBLES
100
AcDbText
 10
5.821759471136942
 20
2.972254978874079
 30
0.0
 40
0.125
  1
11
  7
ROMANS
 72
     4
 11
5.93187851875599
 21
3.034754978874079
 31
0.0
100
AcDbText
  0
LINE
  5
29D
330
1E
100
AcDbEntity
  8
IMAGE
100
AcDbLine
 10
1.305985856322672
 20
5.365110462464686
 30
0.0
 11
2.27335689563868
 21
5.365110462464645
 31
0.0
  0
TEXT
  5
2A1
330
1E
100
AcDbEntity
  8
TEXT_BUBBLES
100
AcDbText
 10
4.046866536305887
 20
6.935463099110066
 30
0.0
 40
0.125
  1
2
  7
ROMANS
 72
     4
 11
4.106390345829696
 21
6.997963099110066
 31
0.0
100
AcDbText
  0
LINE
  5
2A3
330
1E
100
AcDbEntity
  8
IMAGE
100
AcDbLine
 10
2.27335689563868
 20
3.04685283662277
 30
0.0
 11
2.487352437278437
 21
3.046852836622769
 31
0.0
  0
TEXT
  5
2A4
330
1E
100
AcDbEntity
  8
IMAGE
100
AcDbText
 10
1.37436289
 20
2.393414572092977
 30
0.0
 40
0.125
  1
A SWING PIPE ASSEMBLY MAY BE
  7
SIMPLEX
100
AcDbText
  0
TEXT
  5
2A5
330
1E
100
AcDbEntity
  8
IMAGE
100
AcDbText
 10
1.37436289
 20
2.595789572092977
 30
0.0
 40
0.125
  1
NOTE:
  7
SIMPLEX
100
AcDbText
  0
TEXT
  5
2A6
330
1E
100
AcDbEntity
  8
IMAGE
100
AcDbText
 10
1.37436289
 20
2.191039572092977
 30
0.0
 40
0.125
  1
USED WITH FLOWS LESS THAN 4 GPM.
  7
SIMPLEX
100
AcDbText
  0
LINE
  5
2A7
330
1E
100
AcDbEntity
  8
IMAGE
100
AcDbLine
 10
2.510021019327174
 20
6.636616458694785
 30
0.0
 11
2.729414922492898
 21
6.636616458694787
 31
0.0
  0
LINE
  5
2A8
330
1E
100
AcDbEntity
  8
IMAGE
100
AcDbLine
 10
2.533212106344509
 20
6.790824547218161
 30
0.0
 11
2.706279941595907
 21
6.790824547218161
 31
0.0
  0
LINE
  5
2A9
330
1E
100
AcDbEntity
  8
IMAGE
100
AcDbLine
 10
2.538862538110279
 20
6.81082454721816
 30
0.0
 11
2.700629509830137
 21
6.81082454721816
 31
0.0
  0
LINE
  5
2AA
330
1E
100
AcDbEntity
  8
IMAGE
100
AcDbLine
 10
2.559746023970208
 20
6.860824547218159
 30
0.0
 11
2.679746023970208
 21
6.860824547218159
 31
0.0
  0
LINE
  5
2AB
330
1E
100
AcDbEntity
  8
IMAGE
100
AcDbLine
 10
2.532246023970208
 20
6.880824547218161
 30
0.0
 11
2.707246023970208
 21
6.880824547218161
 31
0.0
  0
LINE
  5
2AC
330
1E
100
AcDbEntity
  8
IMAGE
100
AcDbLine
 10
2.732246023970208
 20
6.648609265252936
 30
0.0
 11
2.732246023970208
 21
6.69838607529104
 31
0.0
  0
LINE
  5
2AD
330
1E
100
AcDbEntity
  8
IMAGE
100
AcDbLine
 10
2.699746023970208
 20
6.790824547218161
 30
0.0
 11
2.699746023970208
 21
6.70582454721816
 31
0.0
  0
LINE
  5
2AE
330
1E
100
AcDbEntity
  8
IMAGE
100
AcDbLine
 10
2.539746023970208
 20
6.790824547218161
 30
0.0
 11
2.539746023970208
 21
6.70582454721816
 31
0.0
  0
LINE
  5
2AF
330
1E
100
AcDbEntity
  8
IMAGE
100
AcDbLine
 10
2.533212106344509
 20
6.790824547218161
 30
0.0
 11
2.538862538110279
 21
6.81082454721816
 31
0.0
  0
LINE
  5
2B0
330
1E
100
AcDbEntity
  8
IMAGE
100
AcDbLine
 10
2.706279941595907
 20
6.790824547218161
 30
0.0
 11
2.700629509830137
 21
6.81082454721816
 31
0.0
  0
LINE
  5
2B1
330
1E
100
AcDbEntity
  8
IMAGE
100
AcDbLine
 10
2.559746023970208
 20
6.860824547218159
 30
0.0
 11
2.559746023970208
 21
6.81082454721816
 31
0.0
  0
LINE
  5
2B2
330
1E
100
AcDbEntity
  8
IMAGE
100
AcDbLine
 10
2.679746023970208
 20
6.860824547218159
 30
0.0
 11
2.679746023970208
 21
6.81082454721816
 31
0.0
  0
LINE
  5
2B3
330
1E
100
AcDbEntity
  8
IMAGE
100
AcDbLine
 10
2.667801722183004
 20
6.880824547218161
 30
0.0
 11
2.667801722183004
 21
6.860824547218159
 31
0.0
  0
LINE
  5
2B4
330
1E
100
AcDbEntity
  8
IMAGE
100
AcDbLine
 10
2.571690325757412
 20
6.880824547218161
 30
0.0
 11
2.571690325757412
 21
6.860824547218159
 31
0.0
  0
LINE
  5
2B5
330
1E
100
AcDbEntity
  8
IMAGE
100
AcDbLine
 10
2.707246023970208
 20
6.99082454721816
 30
0.0
 11
2.707246023970208
 21
6.880824547218161
 31
0.0
  0
LINE
  5
2B6
330
1E
100
AcDbEntity
  8
IMAGE
100
AcDbLine
 10
2.532246023970208
 20
6.99082454721816
 30
0.0
 11
2.532246023970208
 21
6.880824547218161
 31
0.0
  0
LINE
  5
2B7
330
1E
100
AcDbEntity
  8
IMAGE
100
AcDbLine
 10
2.544648345544363
 20
7.11582454721816
 30
0.0
 11
2.686090783828024
 21
7.11582454721816
 31
0.0
  0
LINE
  5
2B8
330
1E
100
AcDbEntity
  8
IMAGE
100
AcDbLine
 10
2.679870818501977
 20
7.055824547218159
 30
0.0
 11
2.806146389359508
 21
7.121884642177894
 31
0.0
  0
LINE
  5
2B9
330
1E
100
AcDbEntity
  8
IMAGE
100
AcDbLine
 10
2.806146389359508
 20
7.121884642177894
 30
0.0
 11
2.863777358544319
 21
7.132046536969554
 31
0.0
  0
LINE
  5
2BA
330
1E
100
AcDbEntity
  8
IMAGE
100
AcDbLine
 10
2.856821462718744
 20
7.26639980616364
 30
0.0
 11
2.877145252302064
 21
7.151137867794018
 31
0.0
  0
LINE
  5
2BB
330
1E
100
AcDbEntity
  8
IMAGE
100
AcDbLine
 10
2.790027269381605
 20
7.271356398203375
 30
0.0
 11
2.83773013189428
 21
7.279767699921386
 31
0.0
  0
LINE
  5
2BC
330
1E
100
AcDbEntity
  8
IMAGE
100
AcDbLine
 10
2.786841610543678
 20
7.231367483307852
 30
0.0
 11
2.803413512113817
 21
7.137383559216624
 31
0.0
  0
LINE
  5
2BD
330
1E
100
AcDbEntity
  8
IMAGE
100
AcDbLine
 10
2.50428834239184
 20
7.415824547218161
 30
0.0
 11
2.735203705548577
 21
7.415824547218161
 31
0.0
  0
LINE
  5
2BE
330
1E
100
AcDbEntity
  8
IMAGE
100
AcDbLine
 10
2.637246023970208
 20
7.415824547218161
 30
0.0
 11
2.637246023970208
 21
7.457405219367956
 31
0.0
  0
LINE
  5
2BF
330
1E
100
AcDbEntity
  8
IMAGE
100
AcDbLine
 10
2.602246023970208
 20
7.415824547218161
 30
0.0
 11
2.602246023970208
 21
7.457405219367956
 31
0.0
  0
LINE
  5
2C0
330
1E
100
AcDbEntity
  8
IMAGE
100
AcDbLine
 10
2.610727394962828
 20
7.46582454721816
 30
0.0
 11
2.628764652977589
 21
7.46582454721816
 31
0.0
  0
LINE
  5
2C1
330
1E
100
AcDbEntity
  8
IMAGE
100
AcDbLine
 10
2.747600006725835
 20
7.406719020144432
 30
0.0
 11
2.790027269381605
 21
7.271356398203375
 31
0.0
  0
LINE
  5
2C2
330
1E
100
AcDbEntity
  8
IMAGE
100
AcDbLine
 10
2.512172038398951
 20
7.39082454721816
 30
0.0
 11
2.727320009541466
 21
7.39082454721816
 31
0.0
  0
LINE
  5
2C3
330
1E
100
AcDbEntity
  8
IMAGE
100
AcDbLine
 10
2.739716310718724
 20
7.381719020144434
 30
0.0
 11
2.786841610543678
 21
7.231367483307851
 31
0.0
  0
LINE
  5
2C4
330
1E
100
AcDbEntity
  8
IMAGE
100
AcDbLine
 10
2.672917673153734
 20
7.069115663415313
 30
0.0
 11
2.811055359844606
 21
7.141381333159245
 31
0.0
  0
LINE
  5
2C5
330
1E
100
AcDbEntity
  8
IMAGE
100
AcDbLine
 10
2.719263939418859
 20
7.39082454721816
 30
0.0
 11
2.727557228316568
 21
7.364025561243309
 31
0.0
  0
LINE
  5
2C6
330
1E
100
AcDbEntity
  8
IMAGE
100
AcDbLine
 10
2.727557228316568
 20
7.364025561243309
 30
0.0
 11
2.739997158968663
 21
7.345384152644774
 31
0.0
  0
LINE
  5
2C7
330
1E
100
AcDbEntity
  8
IMAGE
100
AcDbLine
 10
2.739997158968663
 20
7.345384152644774
 30
0.0
 11
2.739997158968663
 21
7.169730922358798
 31
0.0
  0
ARC
  5
2C8
330
1E
100
AcDbEntity
  8
IMAGE
100
AcDbCircle
 10
2.686090783828024
 20
7.169730922358798
 30
0.0
 40
0.0539063751406388
100
AcDbArc
 50
270.0
 51
0.0
  0
LINE
  5
2C9
330
1E
100
AcDbEntity
  8
IMAGE
100
AcDbLine
 10
2.499494888971753
 20
7.345384152644774
 30
0.0
 11
2.499494888971753
 21
7.250670840911375
 31
0.0
  0
LINE
  5
2CA
330
1E
100
AcDbEntity
  8
IMAGE
100
AcDbLine
 10
2.511934819623848
 20
7.364025561243309
 30
0.0
 11
2.499494888971753
 21
7.345384152644774
 31
0.0
  0
LINE
  5
2CB
330
1E
100
AcDbEntity
  8
IMAGE
100
AcDbLine
 10
2.520228108521557
 20
7.39082454721816
 30
0.0
 11
2.511934819623848
 21
7.364025561243309
 31
0.0
  0
LINE
  5
2CC
330
1E
100
AcDbEntity
  8
IMAGE
100
AcDbLine
 10
2.499775737221692
 20
7.381719020144434
 30
0.0
 11
2.464293354841977
 21
7.268513783440804
 31
0.0
  0
LINE
  5
2CD
330
1E
100
AcDbEntity
  8
IMAGE
100
AcDbLine
 10
2.491892041214581
 20
7.406719020144432
 30
0.0
 11
2.45072884559426
 21
7.275389357614775
 31
0.0
  0
LINE
  5
2CE
330
1E
100
AcDbEntity
  8
IMAGE
100
AcDbLine
 10
2.657246023970208
 20
7.138943137608441
 30
0.0
 11
2.657246023970208
 21
7.227990363006544
 31
0.0
  0
LINE
  5
2CF
330
1E
100
AcDbEntity
  8
IMAGE
100
AcDbLine
 10
2.582246023970208
 20
7.138943137608441
 30
0.0
 11
2.582246023970208
 21
7.235824547218161
 31
0.0
  0
LINE
  5
2D0
330
1E
100
AcDbEntity
  8
IMAGE
100
AcDbLine
 10
2.615714998331729
 20
7.351597957523004
 30
0.0
 11
2.620729341490194
 21
7.351597957523004
 31
0.0
  0
LINE
  5
2D1
330
1E
100
AcDbEntity
  8
IMAGE
100
AcDbLine
 10
2.540959782136443
 20
7.363589604871496
 30
0.0
 11
2.540959782136442
 21
7.371261941301577
 31
0.0
  0
LINE
  5
2D2
330
1E
100
AcDbEntity
  8
IMAGE
100
AcDbLine
 10
2.698532265803973
 20
7.363589604871496
 30
0.0
 11
2.698532265803974
 21
7.370420924513231
 31
0.0
  0
LINE
  5
2D3
330
1E
100
AcDbEntity
  8
IMAGE
100
AcDbLine
 10
2.606730174225679
 20
7.360582781629053
 30
0.0
 11
2.606730174225679
 21
7.367556982469466
 31
0.0
  0
LINE
  5
2D4
330
1E
100
AcDbEntity
  8
IMAGE
100
AcDbLine
 10
2.606730174225679
 20
7.367556982469466
 30
0.0
 11
2.629714165596244
 21
7.367556982469466
 31
0.0
  0
LINE
  5
2D5
330
1E
100
AcDbEntity
  8
IMAGE
100
AcDbLine
 10
2.629714165596244
 20
7.367556982469466
 30
0.0
 11
2.629714165596244
 21
7.360582781629053
 31
0.0
  0
ARC
  5
2D6
330
1E
100
AcDbEntity
  8
IMAGE
100
AcDbCircle
 10
2.686540618455483
 20
7.363589604871496
 30
0.0
 40
0.0119916473484911
100
AcDbArc
 50
270.0
 51
0.0
  0
ARC
  5
2D7
330
1E
100
AcDbEntity
  8
IMAGE
100
AcDbCircle
 10
2.552951429484934
 20
7.363589604871496
 30
0.0
 40
0.0119916473484911
100
AcDbArc
 50
179.9999999999996
 51
205.2700300389401
  0
ARC
  5
2D8
330
1E
100
AcDbEntity
  8
IMAGE
100
AcDbCircle
 10
2.615714998331728
 20
7.360582781629053
 30
0.0
 40
0.0089848241060493
100
AcDbArc
 50
180.0
 51
270.0
  0
ARC
  5
2D9
330
1E
100
AcDbEntity
  8
IMAGE
100
AcDbCircle
 10
2.620729341490195
 20
7.360582781629053
 30
0.0
 40
0.0089848241060493
100
AcDbArc
 50
270.0
 51
0.0
  0
LINE
  5
2DA
330
1E
100
AcDbEntity
  8
IMAGE
100
AcDbLine
 10
2.686540618455482
 20
7.351597957523004
 30
0.0
 11
2.60109707761641
 21
7.351597957523004
 31
0.0
  0
ARC
  5
2DB
330
1E
100
AcDbEntity
  8
IMAGE
100
AcDbCircle
 10
2.735203705548578
 20
7.402833596543251
 30
0.0
 40
0.0129909506749089
100
AcDbArc
 50
17.40277049818344
 51
90.00000000000005
  0
ARC
  5
2DC
330
1E
100
AcDbEntity
  8
IMAGE
100
AcDbCircle
 10
2.727320009541466
 20
7.377833596543251
 30
0.0
 40
0.0129909506749089
100
AcDbArc
 50
17.40277049818356
 51
90.0
  0
ARC
  5
2DD
330
1E
100
AcDbEntity
  8
IMAGE
100
AcDbCircle
 10
2.50428834239184
 20
7.402833596543251
 30
0.0
 40
0.0129909506749089
100
AcDbArc
 50
90.0000000000001
 51
162.5972295018165
  0
ARC
  5
2DE
330
1E
100
AcDbEntity
  8
IMAGE
100
AcDbCircle
 10
2.512172038398951
 20
7.377833596543251
 30
0.0
 40
0.0129909506749089
100
AcDbArc
 50
90.0
 51
162.5972295018164
  0
LINE
  5
2DF
330
1E
100
AcDbEntity
  8
IMAGE
100
AcDbLine
 10
2.602246023970208
 20
7.457405219367956
 30
0.0
 11
2.610727394962828
 21
7.46582454721816
 31
0.0
  0
LINE
  5
2E0
330
1E
100
AcDbEntity
  8
IMAGE
100
AcDbLine
 10
2.637246023970208
 20
7.457405219367956
 30
0.0
 11
2.628764652977588
 21
7.46582454721816
 31
0.0
  0
LINE
  5
2E1
330
1E
100
AcDbEntity
  8
IMAGE
100
AcDbLine
 10
2.602246023970208
 20
7.457405219367956
 30
0.0
 11
2.637246023970208
 21
7.457405219367956
 31
0.0
  0
LINE
  5
2E2
330
1E
100
AcDbEntity
  8
IMAGE
100
AcDbLine
 10
2.5397768141983
 20
7.26582454721816
 30
0.0
 11
2.582246023970208
 21
7.26582454721816
 31
0.0
  0
LINE
  5
2E3
330
1E
100
AcDbEntity
  8
IMAGE
100
AcDbLine
 10
2.552767764873208
 20
7.235824547218161
 30
0.0
 11
2.582246023970208
 21
7.235824547218161
 31
0.0
  0
LINE
  5
2E4
330
1E
100
AcDbEntity
  8
IMAGE
100
AcDbLine
 10
2.621719738984901
 20
7.26582454721816
 30
0.0
 11
2.621719738984901
 21
7.252217245526539
 31
0.0
  0
LINE
  5
2E5
330
1E
100
AcDbEntity
  8
IMAGE
100
AcDbLine
 10
2.649700246987554
 20
7.252092317591026
 30
0.0
 11
2.649700246987554
 21
7.250890357273394
 31
0.0
  0
LINE
  5
2E6
330
1E
100
AcDbEntity
  8
IMAGE
100
AcDbLine
 10
2.663690500988881
 20
7.26582454721816
 30
0.0
 11
2.663690500988881
 21
7.252092317591026
 31
0.0
  0
LINE
  5
2E7
330
1E
100
AcDbEntity
  8
IMAGE
100
AcDbLine
 10
2.5397768141983
 20
7.26582454721816
 30
0.0
 11
2.5397768141983
 21
7.256103132956361
 31
0.0
  0
LINE
  5
2E8
330
1E
100
AcDbEntity
  8
IMAGE
100
AcDbLine
 10
2.552767764873208
 20
7.247993941380707
 30
0.0
 11
2.552767764873208
 21
7.235824547218161
 31
0.0
  0
LINE
  5
2E9
330
1E
100
AcDbEntity
  8
IMAGE
100
AcDbLine
 10
2.582246023970208
 20
7.235824547218161
 30
0.0
 11
2.582246023970208
 21
7.274684191693271
 31
0.0
  0
LINE
  5
2EA
330
1E
100
AcDbEntity
  8
IMAGE
100
AcDbLine
 10
2.621719738984901
 20
7.26582454721816
 30
0.0
 11
2.663690500988881
 21
7.26582454721816
 31
0.0
  0
LINE
  5
2EB
330
1E
100
AcDbEntity
  8
IMAGE
100
AcDbLine
 10
2.659531236888337
 20
7.252092317591026
 30
0.0
 11
2.659531236888337
 21
7.250424153263987
 31
0.0
  0
LINE
  5
2EC
330
1E
100
AcDbEntity
  8
IMAGE
100
AcDbLine
 10
2.663690500988881
 20
7.241722592633676
 30
0.0
 11
2.663690500988881
 21
7.227990363006544
 31
0.0
  0
LINE
  5
2ED
330
1E
100
AcDbEntity
  8
IMAGE
100
AcDbLine
 10
2.695718020436446
 20
7.235824547218161
 30
0.0
 11
2.663690500988881
 21
7.235824547218161
 31
0.0
  0
LINE
  5
2EE
330
1E
100
AcDbEntity
  8
IMAGE
100
AcDbLine
 10
2.708708971111355
 20
7.26582454721816
 30
0.0
 11
2.657246023970209
 21
7.26582454721816
 31
0.0
  0
LINE
  5
2EF
330
1E
100
AcDbEntity
  8
IMAGE
100
AcDbLine
 10
2.708708971111355
 20
7.255824547218161
 30
0.0
 11
2.695718020436446
 21
7.255824547218161
 31
0.0
  0
LINE
  5
2F0
330
1E
100
AcDbEntity
  8
IMAGE
100
AcDbLine
 10
2.695718020436446
 20
7.255824547218161
 30
0.0
 11
2.695718020436446
 21
7.248884990334005
 31
0.0
  0
LINE
  5
2F1
330
1E
100
AcDbEntity
  8
IMAGE
100
AcDbLine
 10
2.708708971111355
 20
7.26582454721816
 30
0.0
 11
2.708708971111355
 21
7.255824547218161
 31
0.0
  0
LINE
  5
2F2
330
1E
100
AcDbEntity
  8
IMAGE
100
AcDbLine
 10
2.582246023970208
 20
7.138943137608441
 30
0.0
 11
2.657246023970208
 21
7.138943137608443
 31
0.0
  0
LINE
  5
2F3
330
1E
100
AcDbEntity
  8
IMAGE
100
AcDbLine
 10
2.657246023970208
 20
7.141176202110129
 30
0.0
 11
2.712434459907418
 21
7.153341450055258
 31
0.0
  0
LINE
  5
2F4
330
1E
100
AcDbEntity
  8
IMAGE
100
AcDbLine
 10
2.723611026206708
 20
7.14546185108696
 30
0.0
 11
2.725228232976919
 21
7.132661293888569
 31
0.0
  0
LINE
  5
2F5
330
1E
100
AcDbEntity
  8
IMAGE
100
AcDbLine
 10
2.733641770995514
 20
7.066066238369602
 30
0.0
 11
2.760622983103227
 21
7.066066238369602
 31
0.0
  0
LINE
  5
2F6
330
1E
100
AcDbEntity
  8
IMAGE
100
AcDbLine
 10
2.760622983103227
 20
7.066066238369602
 30
0.0
 11
2.763225400738952
 21
7.099430856661149
 31
0.0
  0
LINE
  5
2F7
330
1E
100
AcDbEntity
  8
IMAGE
100
AcDbLine
 10
2.731521909810504
 20
7.082845418899388
 30
0.0
 11
2.733641770995514
 21
7.066066238369602
 31
0.0
  0
LINE
  5
2F8
330
1E
100
AcDbEntity
  8
IMAGE
100
AcDbLine
 10
2.873472725751676
 20
7.1719658008513
 30
0.0
 11
3.042610145934458
 21
7.178839292342519
 31
0.0
  0
ARC
  5
2F9
330
1E
100
AcDbEntity
  8
IMAGE
100
AcDbCircle
 10
3.042507164101373
 20
7.237697318681499
 30
0.0
 40
0.0588581164307707
100
AcDbArc
 50
270.1002483220781
 51
90.10024832207816
  0
LINE
  5
2FA
330
1E
100
AcDbEntity
  8
IMAGE
100
AcDbLine
 10
2.695718020436446
 20
7.235824547218161
 30
0.0
 11
2.717652910341352
 21
7.235824547218161
 31
0.0
  0
LINE
  5
2FB
330
1E
100
AcDbEntity
  8
IMAGE
100
AcDbLine
 10
2.717652910341352
 20
7.235824547218161
 30
0.0
 11
2.739997158968663
 21
7.240003080645845
 31
0.0
  0
LINE
  5
2FC
330
1E
100
AcDbEntity
  8
IMAGE
100
AcDbLine
 10
2.85759809729566
 20
7.261995292607087
 30
0.0
 11
3.042404182268286
 21
7.296555345020481
 31
0.0
  0
LINE
  5
2FD
330
1E
100
AcDbEntity
  8
IMAGE
100
AcDbLine
 10
2.861274506902373
 20
7.242336095970305
 30
0.0
 11
3.044086885769434
 21
7.276523311160751
 31
0.0
  0
LINE
  5
2FE
330
1E
100
AcDbEntity
  8
IMAGE
100
AcDbLine
 10
2.872660626009323
 20
7.191949306399838
 30
0.0
 11
3.041798046192106
 21
7.198822797891057
 31
0.0
  0
ARC
  5
2FF
330
1E
100
AcDbEntity
  8
IMAGE
100
AcDbCircle
 10
3.042507164101373
 20
7.237697318681499
 30
0.0
 40
0.0388581164307707
100
AcDbArc
 50
270.1002483220781
 51
87.67007917956149
  0
ARC
  5
300
330
1E
100
AcDbEntity
  8
IMAGE
100
AcDbCircle
 10
2.840591850427639
 20
7.26353808763028
 30
0.0
 40
0.0164799802209754
100
AcDbArc
 50
9.999999999999898
 51
100.0
  0
ARC
  5
301
330
1E
100
AcDbEntity
  8
IMAGE
100
AcDbCircle
 10
2.86091564001096
 20
7.148276149260658
 30
0.0
 40
0.0164799802209754
100
AcDbArc
 50
279.9999999999998
 51
9.999999999999772
  0
LINE
  5
302
330
1E
100
AcDbEntity
  8
IMAGE
100
AcDbLine
 10
2.790027269381605
 20
7.271356398203375
 30
0.0
 11
2.792600704411551
 21
7.242767768023231
 31
0.0
  0
LINE
  5
303
330
1E
100
AcDbEntity
  8
IMAGE
100
AcDbLine
 10
2.552767764873208
 20
7.235824547218161
 30
0.0
 11
2.528784470176227
 21
7.235824547218161
 31
0.0
  0
LINE
  5
304
330
1E
100
AcDbEntity
  8
IMAGE
100
AcDbLine
 10
2.528784470176227
 20
7.235824547218161
 30
0.0
 11
2.433540907961563
 21
7.284101574026962
 31
0.0
  0
LINE
  5
305
330
1E
100
AcDbEntity
  8
IMAGE
100
AcDbLine
 10
2.433540907961563
 20
7.284101574026962
 30
0.0
 11
2.296373370599277
 21
7.290426109276994
 31
0.0
  0
LINE
  5
306
330
1E
100
AcDbEntity
  8
IMAGE
100
AcDbLine
 10
2.644746023970208
 20
7.138943137608441
 30
0.0
 11
2.644746023970208
 21
7.11582454721816
 31
0.0
  0
LINE
  5
307
330
1E
100
AcDbEntity
  8
IMAGE
100
AcDbLine
 10
2.594746023970208
 20
7.138943137608441
 30
0.0
 11
2.594746023970208
 21
7.11582454721816
 31
0.0
  0
ARC
  5
308
330
1E
100
AcDbEntity
  8
IMAGE
100
AcDbCircle
 10
2.714427130890094
 20
7.144301568963866
 30
0.0
 40
0.0092568994696772
100
AcDbArc
 50
7.200530165003506
 51
102.4309766070077
  0
LINE
  5
309
330
1E
100
AcDbEntity
  8
IMAGE
100
AcDbLine
 10
2.328147189829127
 20
7.253438941361068
 30
0.0
 11
2.289093745808125
 21
7.273234338762613
 31
0.0
  0
LINE
  5
30A
330
1E
100
AcDbEntity
  8
IMAGE
100
AcDbLine
 10
2.532246023970208
 20
6.99082454721816
 30
0.0
 11
2.489118051548548
 21
7.006867204482993
 31
0.0
  0
LINE
  5
30B
330
1E
100
AcDbEntity
  8
IMAGE
100
AcDbLine
 10
2.506286783193736
 20
7.113288248621824
 30
0.0
 11
2.533524625768956
 21
7.099299008224901
 31
0.0
  0
LINE
  5
30C
330
1E
100
AcDbEntity
  8
IMAGE
100
AcDbLine
 10
2.468693530426782
 20
7.037045111228707
 30
0.0
 11
2.495023070693822
 21
7.023735451756158
 31
0.0
  0
LINE
  5
30D
330
1E
100
AcDbEntity
  8
IMAGE
100
AcDbLine
 10
2.457927261593424
 20
7.198352797340355
 30
0.0
 11
2.385023674343409
 21
7.055306892645132
 31
0.0
  0
LINE
  5
30E
330
1E
100
AcDbEntity
  8
IMAGE
100
AcDbLine
 10
2.385023674343409
 20
7.055306892645132
 30
0.0
 11
2.080687975187591
 21
7.209568475952009
 31
0.0
  0
LINE
  5
30F
330
1E
100
AcDbEntity
  8
IMAGE
100
AcDbLine
 10
2.314520151604774
 20
7.281227874638087
 30
0.0
 11
2.150665204722957
 21
7.364282618490902
 31
0.0
  0
LINE
  5
310
330
1E
100
AcDbEntity
  8
IMAGE
100
AcDbLine
 10
2.334996730163236
 20
7.232429821601934
 30
0.0
 11
2.289681856994791
 21
7.143516404950709
 31
0.0
  0
LINE
  5
311
330
1E
100
AcDbEntity
  8
IMAGE
100
AcDbLine
 10
2.268130856504455
 20
7.26639987080531
 30
0.0
 11
2.222815983336011
 21
7.177486454154085
 31
0.0
  0
ARC
  5
312
330
1E
100
AcDbEntity
  8
IMAGE
100
AcDbCircle
 10
2.115322936873572
 20
7.287010263345575
 30
0.0
 40
0.0848184658710091
100
AcDbArc
 50
65.42630778965483
 51
245.4715225939219
  0
LINE
  5
313
330
1E
100
AcDbEntity
  8
IMAGE
100
AcDbLine
 10
2.225812874278667
 20
7.159236706850162
 30
0.0
 11
2.297693735444336
 21
7.159236706850162
 31
0.0
  0
LINE
  5
314
330
1E
100
AcDbEntity
  8
IMAGE
100
AcDbLine
 10
2.473715853466358
 20
7.159236706850162
 30
0.0
 11
2.473715853466358
 21
7.138305954710601
 31
0.0
  0
ARC
  5
315
330
1E
100
AcDbEntity
  8
IMAGE
100
AcDbCircle
 10
2.576595570090018
 20
6.974064822875483
 30
0.0
 40
0.1317210289177174
100
AcDbArc
 50
7.309929965283819
 51
38.36753745638012
  0
ARC
  5
316
330
1E
100
AcDbEntity
  8
IMAGE
100
AcDbCircle
 10
2.523585378928599
 20
7.063331012185992
 30
0.0
 40
0.073021875042129
100
AcDbArc
 50
276.8115095683776
 51
356.5202277806853
  0
LINE
  5
317
330
1E
100
AcDbEntity
  8
IMAGE
100
AcDbLine
 10
2.672917673153734
 20
7.069115663415313
 30
0.0
 11
2.672917673153734
 21
7.11582454721816
 31
0.0
  0
LINE
  5
318
330
1E
100
AcDbEntity
  8
IMAGE
100
AcDbLine
 10
2.268718967691122
 20
7.136681936993406
 30
0.0
 11
2.229665523670119
 21
7.156477334394951
 31
0.0
  0
LINE
  5
319
330
1E
100
AcDbEntity
  8
IMAGE
100
AcDbLine
 10
2.437991679921182
 20
7.159236706850162
 30
0.0
 11
2.536210208186166
 21
7.159236706850162
 31
0.0
  0
ARC
  5
31A
330
1E
100
AcDbEntity
  8
IMAGE
100
AcDbCircle
 10
2.275775642175902
 20
7.150603730851624
 30
0.0
 40
0.015608106836349
100
AcDbArc
 50
243.1204758498612
 51
332.994257974138
  0
ARC
  5
31B
330
1E
100
AcDbEntity
  8
IMAGE
100
AcDbCircle
 10
2.236722198154899
 20
7.170399128253169
 30
0.0
 40
0.015608106836349
100
AcDbArc
 50
152.994257974138
 51
243.1204758498612
  0
ARC
  5
31C
330
1E
100
AcDbEntity
  8
IMAGE
100
AcDbCircle
 10
2.321090515344346
 20
7.23951714750285
 30
0.0
 40
0.015608106836349
100
AcDbArc
 50
332.994257974138
 51
63.12047584986125
  0
ARC
  5
31D
330
1E
100
AcDbEntity
  8
IMAGE
100
AcDbCircle
 10
2.282037071323344
 20
7.259312544904394
 30
0.0
 40
0.015608106836349
100
AcDbArc
 50
63.12047584986117
 51
152.9942579741381
  0
ARC
  5
31E
330
1E
100
AcDbEntity
  8
IMAGE
100
AcDbCircle
 10
2.073631300702809
 20
7.195646682093791
 30
0.0
 40
0.015608106836349
100
AcDbArc
 50
63.12047584986093
 51
65.47152259392163
  0
LINE
  5
31F
330
1E
100
AcDbEntity
  8
IMAGE
100
AcDbLine
 10
2.394105292213032
 20
7.07312615632281
 30
0.0
 11
2.268718967691122
 21
7.136681936993406
 31
0.0
  0
LINE
  5
320
330
1E
100
AcDbEntity
  8
IMAGE
100
AcDbLine
 10
2.453594851577075
 20
7.189852070096662
 30
0.0
 11
2.328147189829127
 21
7.253438941361068
 31
0.0
  0
LINE
  5
321
330
1E
100
AcDbEntity
  8
IMAGE
100
AcDbLine
 10
2.557969124280356
 20
7.147643609499878
 30
0.0
 11
2.331790622845046
 21
7.262288897049677
 31
0.0
  0
TEXT
  5
322
330
1E
100
AcDbEntity
  8
IMAGE
100
AcDbText
 10
2.35619458971696
 20
7.257312166752235
 30
0.0
 40
0.0275
  1
RAINBIRD
 50
334.0
  7
ROMANS
100
AcDbText
  0
LINE
  5
323
330
1E
100
AcDbEntity
  8
IMAGE
100
AcDbLine
 10
2.582246023970208
 20
7.147643609499878
 30
0.0
 11
2.557969124280356
 21
7.147643609499878
 31
0.0
  0
CIRCLE
  5
324
330
1E
100
AcDbEntity
  8
IMAGE
100
AcDbCircle
 10
2.559552589982924
 20
7.215062807465937
 30
0.0
 40
0.0175
  0
LWPOLYLINE
  5
325
330
1E
100
AcDbEntity
  8
IMAGE
100
AcDbPolyline
 90
        2
 70
     0
 43
0.0
 10
2.501964489171435
 20
7.159236706850162
 42
0.1754495043653588
 10
2.544648345544363
 20
7.11582454721816
 42
-0.1981567577073352
  0
LINE
  5
329
330
1E
100
AcDbEntity
  8
IMAGE
100
AcDbLine
 10
2.448213675213926
 20
7.124237129864699
 30
0.0
 11
2.448961027460268
 21
7.123856240528413
 31
0.0
  0
LINE
  5
32A
330
1E
100
AcDbEntity
  8
IMAGE
100
AcDbLine
 10
2.42470578126958
 20
7.078111718433074
 30
0.0
 11
2.426133327767461
 21
7.077384166946133
 31
0.0
  0
LINE
  5
32B
330
1E
100
AcDbEntity
  8
IMAGE
100
AcDbLine
 10
2.663690500988881
 20
7.227990363006542
 30
0.0
 11
2.621719738984901
 21
7.227990363006542
 31
0.0
  0
LINE
  5
32C
330
1E
100
AcDbEntity
  8
IMAGE
100
AcDbLine
 10
2.621719738984901
 20
7.235824547218161
 30
0.0
 11
2.575801546951535
 21
7.235824547218161
 31
0.0
  0
LINE
  5
32D
330
1E
100
AcDbEntity
  8
IMAGE
100
AcDbLine
 10
2.649700246987554
 20
7.252092317591026
 30
0.0
 11
2.663690500988881
 21
7.252092317591026
 31
0.0
  0
LINE
  5
32E
330
1E
100
AcDbEntity
  8
IMAGE
100
AcDbLine
 10
2.663690500988881
 20
7.241722592633676
 30
0.0
 11
2.649700246987554
 21
7.241722592633676
 31
0.0
  0
LINE
  5
32F
330
1E
100
AcDbEntity
  8
IMAGE
100
AcDbLine
 10
2.651959457700118
 20
7.26582454721816
 30
0.0
 11
2.651959457700118
 21
7.252092317591026
 31
0.0
  0
LINE
  5
330
330
1E
100
AcDbEntity
  8
IMAGE
100
AcDbLine
 10
2.651959457700118
 20
7.241722592633676
 30
0.0
 11
2.651959457700118
 21
7.227990363006542
 31
0.0
  0
LWPOLYLINE
  5
331
330
1E
100
AcDbEntity
  8
IMAGE
100
AcDbPolyline
 90
       16
 70
     1
 43
0.0
 10
2.436459728241752
 20
7.101174424148886
 42
0.0181102978860001
 10
2.42801324862246
 20
7.082283343217726
 42
0.025251119422707
 10
2.423149943861709
 20
7.068256464157055
 42
0.0567318492754421
 10
2.420836695239574
 20
7.054773182624733
 42
0.30132713690462
 10
2.422249482128188
 20
7.052355183509195
 42
0.3013271369046273
 10
2.425026808128747
 20
7.052714553516294
 42
0.0567318492754458
 10
2.434285821312287
 20
7.062785336749721
 42
0.0252511194227023
 10
2.442416758796051
 20
7.075206807073872
 42
0.0181102978859973
 10
2.452208237161283
 20
7.093437081567962
 42
0.0181102978859999
 10
2.460654716780575
 20
7.112328162499121
 42
0.0252511194227044
 10
2.465518021541326
 20
7.126355041559792
 42
0.056731849275441
 10
2.467831270163461
 20
7.139838323092115
 42
0.3013271369046308
 10
2.466418483274847
 20
7.142256322207652
 42
0.3013271369046384
 10
2.463641157274289
 20
7.141896952200553
 42
0.056731849275446
 10
2.454382144090748
 20
7.131826168967126
 42
0.0252511194227023
 10
2.446251206606986
 20
7.119404698642977
 42
0.0181102978859963
  0
LINE
  5
343
330
1E
100
AcDbEntity
  8
IMAGE
100
AcDbLine
 10
2.466418483274847
 20
7.142256322207652
 30
0.0
 11
2.505609796121613
 21
7.122287350913127
 31
0.0
  0
LINE
  5
344
330
1E
100
AcDbEntity
  8
IMAGE
100
AcDbLine
 10
2.422249482128188
 20
7.052355183509195
 30
0.0
 11
2.461440794974954
 21
7.032386212214671
 31
0.0
  0
LINE
  5
345
330
1E
100
AcDbEntity
  8
IMAGE
100
AcDbLine
 10
2.462445849984619
 20
7.116983677923077
 30
0.0
 11
2.50163563877861
 21
7.097010535785663
 31
0.0
  0
LINE
  5
346
330
1E
100
AcDbEntity
  8
IMAGE
100
AcDbLine
 10
2.439568414113362
 20
7.070536952468259
 30
0.0
 11
2.478757351212413
 21
7.050564244398612
 31
0.0
  0
LWPOLYLINE
  5
347
330
1E
100
AcDbEntity
  8
IMAGE
100
AcDbPolyline
 90
       10
 70
     0
 43
0.0
 10
2.461374992188962
 20
7.032419740408782
 42
0.0072853079490162
 10
2.461440794974954
 20
7.032386212214671
 42
0.3013271369046273
 10
2.464218120975512
 20
7.032745582221769
 42
0.0567318492754458
 10
2.473477134159053
 20
7.042816365455196
 42
0.0252511194227023
 10
2.481608071642816
 20
7.055237835779346
 42
0.0181102978859973
 10
2.491399550008049
 20
7.073468110273436
 42
0.0181102978859999
 10
2.499846029627341
 20
7.092359191204597
 42
0.0252511194227044
 10
2.504709334388092
 20
7.106386070265267
 42
0.056731849275441
 10
2.507022583010227
 20
7.119869351797589
 42
0.3013271369043888
 10
2.505609796121615
 20
7.122287350913126
 42
0.3013271369046384
  0
LWPOLYLINE
  5
353
330
1E
100
AcDbEntity
  8
IMAGE
100
AcDbPolyline
 90
        8
 70
     1
 43
0.0
 10
2.443524643258793
 20
7.097703386473337
 42
0.018110297885937
 10
2.43531083725373
 20
7.079332694659891
 42
0.0038807394898528
 10
2.43451641115779
 20
7.077323166924365
 42
0.0038807394898478
 10
2.435621567825228
 20
7.079180030754102
 42
0.018110297886078
 10
2.445143322144243
 20
7.096908119243511
 42
0.0181102978859348
 10
2.453357128149304
 20
7.115278811056954
 42
0.0038807394898475
 10
2.454151554245245
 20
7.117288338792482
 42
0.0038807394898498
 10
2.453046397577808
 20
7.115431474962745
 42
0.0181102978860776
  0
LWPOLYLINE
  5
35D
330
1E
100
AcDbEntity
  8
IMAGE
100
AcDbPolyline
 90
       14
 70
     0
 43
0.0
 10
2.492317048570944
 20
7.025103353839346
 42
0.0424350596889043
 10
2.488454385396145
 20
7.009744958950042
 42
0.283356539812344
 10
2.489118051548548
 20
7.006867204482993
 42
0.3060635366480914
 10
2.492055607255185
 20
7.007910044763585
 42
0.0445050271778487
 10
2.502651081364103
 20
7.020696834431845
 42
0.019232983690142
 10
2.512175200240825
 20
7.035735844392849
 42
0.0137112069743171
 10
2.524114909307204
 20
7.057661135174594
 42
0.0137112069743158
 10
2.534834857250366
 20
7.080207925290919
 42
0.0192329836901437
 10
2.541403535270576
 20
7.096752807582793
 42
0.0445050271778509
 10
2.545520401993427
 20
7.112840612591536
 42
0.3261619044463538
 10
2.544389516639672
 20
7.115072480135568
 42
0.3261619044463421
 10
2.541919180134387
 20
7.114675526777993
 42
0.0445050271778487
 10
2.531323706025469
 20
7.101888737109733
 42
0.0014131952128621
 10
2.530584698969006
 20
7.100808942157454
 42
0.0137112069743138
  0
LWPOLYLINE
  5
36D
330
1E
100
AcDbEntity
  8
IMAGE
100
AcDbPolyline
 90
        9
 70
     0
 43
0.0
 10
2.495023070693822
 20
7.023735451756158
 42
0.322604632641001
 10
2.496842880209891
 20
7.024015868571106
 42
0.0462780429687102
 10
2.504359889187917
 20
7.032917051360358
 42
0.0200731435481347
 10
2.511098503269213
 20
7.043461328234748
 42
0.0143207162137956
 10
2.519504170432866
 20
7.058852247719821
 42
0.014320716213786
 10
2.527014958660872
 20
7.074699130796819
 42
0.02007314354813
 10
2.531584599867772
 20
7.08634855454998
 42
0.0462780429687153
 10
2.53436742099568
 20
7.097661926531554
 42
0.322604632651915
 10
2.533524625768901
 20
7.09929900822493
 42
0.3226046326410785
  0
LINE
  5
378
330
1E
100
AcDbEntity
  8
IMAGE
100
AcDbLine
 10
2.713622754673423
 20
6.636616458694785
 30
0.0
 11
2.713622754673423
 21
6.64082454721816
 31
0.0
  0
LINE
  5
379
330
1E
100
AcDbEntity
  8
IMAGE
100
AcDbLine
 10
2.525869293266993
 20
6.636616458694785
 30
0.0
 11
2.525869293266993
 21
6.64082454721816
 31
0.0
  0
LINE
  5
37A
330
1E
100
AcDbEntity
  8
IMAGE
100
AcDbLine
 10
2.702729746057314
 20
7.240227984196188
 30
0.0
 11
2.5328859448159
 21
7.249042589060463
 31
0.0
  0
LINE
  5
37B
330
1E
100
AcDbEntity
  8
IMAGE
100
AcDbLine
 10
2.702883087896093
 20
7.248552949480105
 30
0.0
 11
2.531976861411969
 21
7.256473021370334
 31
0.0
  0
LINE
  5
37C
330
1E
100
AcDbEntity
  8
IMAGE
100
AcDbLine
 10
2.700875577449644
 20
7.27848433433663
 30
0.0
 11
2.535707361086879
 21
7.302972512919502
 31
0.0
  0
LINE
  5
37D
330
1E
100
AcDbEntity
  8
IMAGE
100
AcDbLine
 10
2.699602267735415
 20
7.309511475624617
 30
0.0
 11
2.535832350231793
 21
7.325428773929671
 31
0.0
  0
LINE
  5
37E
330
1E
100
AcDbEntity
  8
IMAGE
100
AcDbLine
 10
2.700409863066166
 20
7.301233825080537
 30
0.0
 11
2.537281599979555
 21
7.318024116981924
 31
0.0
  0
LINE
  5
37F
330
1E
100
AcDbEntity
  8
IMAGE
100
AcDbLine
 10
2.700479532064386
 20
7.270167381243741
 30
0.0
 11
2.535825255638166
 21
7.295487604247938
 31
0.0
  0
LINE
  5
380
330
1E
100
AcDbEntity
  8
IMAGE
100
AcDbLine
 10
2.535832350231793
 20
7.325428773929671
 30
0.0
 11
2.582246023970208
 21
7.329496502282562
 31
0.0
  0
LINE
  5
381
330
1E
100
AcDbEntity
  8
IMAGE
100
AcDbLine
 10
2.531976861411969
 20
7.256473021370334
 30
0.0
 11
2.5397768141983
 21
7.257559800410202
 31
0.0
  0
ARC
  5
382
330
1E
100
AcDbEntity
  8
IMAGE
100
AcDbCircle
 10
2.53605844673237
 20
7.299181136322674
 30
0.0
 40
0.0038075973566358
100
AcDbArc
 50
95.29056452857238
 51
255.8893738514848
  0
ARC
  5
383
330
1E
100
AcDbEntity
  8
IMAGE
100
AcDbCircle
 10
2.536907409245989
 20
7.321742288705808
 30
0.0
 40
0.0038400423420592
100
AcDbArc
 50
106.2578292083121
 51
264.7455233655514
  0
ARC
  5
384
330
1E
100
AcDbEntity
  8
IMAGE
100
AcDbCircle
 10
2.533125057343681
 20
7.252842671010956
 30
0.0
 40
0.0038075973566358
100
AcDbArc
 50
107.550959448767
 51
268.1497687716795
  0
LINE
  5
385
330
1E
100
AcDbEntity
  8
IMAGE
100
AcDbLine
 10
2.701267428755173
 20
7.339927625351453
 30
0.0
 11
2.538845390527193
 21
7.358850581261581
 31
0.0
  0
LINE
  5
386
330
1E
100
AcDbEntity
  8
IMAGE
100
AcDbLine
 10
2.701379321317952
 20
7.331551495021924
 30
0.0
 11
2.536951809356805
 21
7.351409890186351
 31
0.0
  0
LINE
  5
387
330
1E
100
AcDbEntity
  8
IMAGE
100
AcDbLine
 10
2.577719628183052
 20
7.321357621495206
 30
0.0
 11
2.582246023970208
 21
7.321730754445939
 31
0.0
  0
ARC
  5
388
330
1E
100
AcDbEntity
  8
IMAGE
100
AcDbCircle
 10
2.69999776700064
 20
7.30536280720034
 30
0.0
 40
0.0041674775779062
100
AcDbArc
 50
270.2464011589148
 51
95.44564216655112
  0
ARC
  5
389
330
1E
100
AcDbEntity
  8
IMAGE
100
AcDbCircle
 10
2.699009041264769
 20
7.33570864398912
 30
0.0
 40
0.0047854064682447
100
AcDbArc
 50
299.6904749881143
 51
61.84020771027801
  0
ARC
  5
38A
330
1E
100
AcDbEntity
  8
IMAGE
100
AcDbCircle
 10
2.702873872918032
 20
7.244385482090001
 30
0.0
 40
0.0041674775779062
100
AcDbArc
 50
264.6740685022613
 51
89.87330950989768
  0
ARC
  5
38B
330
1E
100
AcDbEntity
  8
IMAGE
100
AcDbCircle
 10
2.539679156279555
 20
7.354677101654814
 30
0.0
 40
0.0042559484052009
100
AcDbArc
 50
101.2976632281976
 51
230.1461164898265
  0
LINE
  5
38C
330
1E
100
AcDbEntity
  8
IMAGE
100
AcDbLine
 10
2.704853634053832
 20
7.370320061739326
 30
0.0
 11
2.539693470592725
 21
7.371269218651816
 31
0.0
  0
LINE
  5
38D
330
1E
100
AcDbEntity
  8
IMAGE
100
AcDbLine
 10
2.539693470592725
 20
7.380378262515408
 30
0.0
 11
2.704853634053832
 21
7.379429105602916
 31
0.0
  0
ARC
  5
38E
330
1E
100
AcDbEntity
  8
IMAGE
100
AcDbCircle
 10
2.704853634053833
 20
7.374874583671122
 30
0.0
 40
0.0045545219317955
100
AcDbArc
 50
270.0
 51
90.00000000000003
  0
ARC
  5
38F
330
1E
100
AcDbEntity
  8
IMAGE
100
AcDbCircle
 10
2.539693470592725
 20
7.375823740583612
 30
0.0
 40
0.0045545219317955
100
AcDbArc
 50
89.99999999999998
 51
270.0
  0
LINE
  5
390
330
1E
100
AcDbEntity
  8
IMAGE
100
AcDbLine
 10
2.659531236888336
 20
7.242362803643381
 30
0.0
 11
2.659531236888336
 21
7.241722592633676
 31
0.0
  0
LINE
  5
391
330
1E
100
AcDbEntity
  8
IMAGE
100
AcDbLine
 10
2.649700246987554
 20
7.242881329850712
 30
0.0
 11
2.649700246987554
 21
7.241722592633676
 31
0.0
  0
LINE
  5
392
330
1E
100
AcDbEntity
  8
IMAGE
100
AcDbLine
 10
2.695718020436446
 20
7.240454166179798
 30
0.0
 11
2.695718020436446
 21
7.235824547218161
 31
0.0
  0
LINE
  5
393
330
1E
100
AcDbEntity
  8
IMAGE
100
AcDbLine
 10
2.704853634053832
 20
7.370320061739326
 30
0.0
 11
2.698532265803974
 21
7.369883319507813
 31
0.0
  0
LINE
  5
394
330
1E
100
AcDbEntity
  8
IMAGE
100
AcDbLine
 10
2.698532265803974
 20
7.379529968376822
 30
0.0
 11
2.698532265803974
 21
7.39082454721816
 31
0.0
  0
LINE
  5
395
330
1E
100
AcDbEntity
  8
IMAGE
100
AcDbLine
 10
2.657246023970206
 20
7.26582454721816
 30
0.0
 11
2.657246023970206
 21
7.276815748294742
 31
0.0
  0
LINE
  5
396
330
1E
100
AcDbEntity
  8
IMAGE
100
AcDbLine
 10
2.657246023970207
 20
7.297415538775037
 30
0.0
 11
2.657246023970207
 21
7.305676546680661
 31
0.0
  0
LINE
  5
397
330
1E
100
AcDbEntity
  8
IMAGE
100
AcDbLine
 10
2.582246023970208
 20
7.254143466798138
 30
0.0
 11
2.582246023970208
 21
7.288349106349766
 31
0.0
  0
LINE
  5
398
330
1E
100
AcDbEntity
  8
IMAGE
100
AcDbLine
 10
2.540959782136442
 20
7.380370985165168
 30
0.0
 11
2.540959782136443
 21
7.39082454721816
 31
0.0
  0
LINE
  5
399
330
1E
100
AcDbEntity
  8
IMAGE
100
AcDbLine
 10
2.621719738984901
 20
7.244357135119587
 30
0.0
 11
2.621719738984901
 21
7.227990363006544
 31
0.0
  0
ARC
  5
39A
330
1E
100
AcDbEntity
  8
IMAGE
100
AcDbCircle
 10
2.699399234772235
 20
7.274386730170393
 30
0.0
 40
0.0043554503331191
100
AcDbArc
 50
284.3611712576872
 51
70.18620675450574
  0
LINE
  5
39B
330
1E
100
AcDbEntity
  8
IMAGE
100
AcDbLine
 10
2.700479532064386
 20
7.270167381243741
 30
0.0
 11
2.665255298872382
 21
7.26582454721816
 31
0.0
  0
LINE
  5
39C
330
1E
100
AcDbEntity
  8
IMAGE
100
AcDbLine
 10
2.670638162576012
 20
7.274756330565898
 30
0.0
 11
2.657246023970206
 21
7.273105199229821
 31
0.0
  0
LINE
  5
39D
330
1E
100
AcDbEntity
  8
IMAGE
100
AcDbLine
 10
2.535707361086879
 20
7.302972512919502
 30
0.0
 11
2.582246023970208
 21
7.30482927947288
 31
0.0
  0
LINE
  5
39E
330
1E
100
AcDbEntity
  8
IMAGE
100
AcDbLine
 10
2.700409863066166
 20
7.301233825080537
 30
0.0
 11
2.657246023970207
 21
7.299726825396277
 31
0.0
  0
LINE
  5
39F
330
1E
100
AcDbEntity
  8
IMAGE
100
AcDbLine
 10
2.582246023970208
 20
7.296072595291331
 30
0.0
 11
2.582246023970208
 21
7.313396066699921
 31
0.0
  0
LINE
  5
3A0
330
1E
100
AcDbEntity
  8
IMAGE
100
AcDbLine
 10
2.657246023970207
 20
7.284952941436854
 30
0.0
 11
2.657246023970207
 21
7.297415538775037
 31
0.0
  0
LINE
  5
3A1
330
1E
100
AcDbEntity
  8
IMAGE
100
AcDbLine
 10
2.573871484415497
 20
6.683853760519992
 30
0.0
 11
2.573871484415497
 21
6.663141580023985
 31
0.0
  0
LINE
  5
3A2
330
1E
100
AcDbEntity
  8
IMAGE
100
AcDbLine
 10
2.66562056352492
 20
6.683853760519991
 30
0.0
 11
2.66562056352492
 21
6.663141580023983
 31
0.0
  0
LINE
  5
3A3
330
1E
100
AcDbEntity
  8
IMAGE
100
AcDbLine
 10
2.66562056352492
 20
6.683853760519991
 30
0.0
 11
2.66562056352492
 21
6.663141580023983
 31
0.0
  0
LINE
  5
3A4
330
1E
100
AcDbEntity
  8
IMAGE
100
AcDbLine
 10
2.732246023970208
 20
6.69838607529104
 30
0.0
 11
2.732246023970208
 21
6.648609265252936
 31
0.0
  0
ARC
  5
3A5
330
1E
100
AcDbEntity
  8
IMAGE
100
AcDbCircle
 10
2.595842271113665
 20
6.683853760519992
 30
0.0
 40
0.0219707866981684
100
AcDbArc
 50
90.0
 51
180.0000000000003
  0
ARC
  5
3A6
330
1E
100
AcDbEntity
  8
IMAGE
100
AcDbCircle
 10
2.643649776826752
 20
6.683853760519991
 30
0.0
 40
0.0219707866981684
100
AcDbArc
 50
359.9999999999997
 51
90.0
  0
ARC
  5
3A7
330
1E
100
AcDbEntity
  8
IMAGE
100
AcDbCircle
 10
2.687591350223089
 20
6.683853760519991
 30
0.0
 40
0.0219707866981684
100
AcDbArc
 50
90.0
 51
180.0000000000003
  0
ARC
  5
3A8
330
1E
100
AcDbEntity
  8
IMAGE
100
AcDbCircle
 10
2.715767938658753
 20
6.683853760519992
 30
0.0
 40
0.0219707866981684
100
AcDbArc
 50
41.40964068769932
 51
90.0
  0
ARC
  5
3A9
330
1E
100
AcDbEntity
  8
IMAGE
100
AcDbCircle
 10
2.595842271113665
 20
6.663141580023985
 30
0.0
 40
0.0219707866981684
100
AcDbArc
 50
180.0000000000002
 51
270.0
  0
ARC
  5
3AA
330
1E
100
AcDbEntity
  8
IMAGE
100
AcDbCircle
 10
2.687591350223089
 20
6.663141580023983
 30
0.0
 40
0.0219707866981684
100
AcDbArc
 50
180.0000000000002
 51
270.0
  0
ARC
  5
3AB
330
1E
100
AcDbEntity
  8
IMAGE
100
AcDbCircle
 10
2.643649776826752
 20
6.663141580023983
 30
0.0
 40
0.0219707866981684
100
AcDbArc
 50
270.0
 51
359.9999999999997
  0
ARC
  5
3AC
330
1E
100
AcDbEntity
  8
IMAGE
100
AcDbCircle
 10
2.715767938658753
 20
6.663141580023985
 30
0.0
 40
0.0219707866981684
100
AcDbArc
 50
270.0
 51
318.5903593123006
  0
LINE
  5
3AD
330
1E
100
AcDbEntity
  8
IMAGE
100
AcDbLine
 10
2.595842271113665
 20
6.70582454721816
 30
0.0
 11
2.643649776826752
 21
6.70582454721816
 31
0.0
  0
LINE
  5
3AE
330
1E
100
AcDbEntity
  8
IMAGE
100
AcDbLine
 10
2.595842271113665
 20
6.641170793325816
 30
0.0
 11
2.643649776826752
 21
6.641170793325816
 31
0.0
  0
LINE
  5
3AF
330
1E
100
AcDbEntity
  8
IMAGE
100
AcDbLine
 10
2.687591350223089
 20
6.70582454721816
 30
0.0
 11
2.715767938658753
 21
6.70582454721816
 31
0.0
  0
LINE
  5
3B0
330
1E
100
AcDbEntity
  8
IMAGE
100
AcDbLine
 10
2.687591350223089
 20
6.641170793325816
 30
0.0
 11
2.715767938658753
 21
6.641170793325816
 31
0.0
  0
LINE
  5
3B1
330
1E
100
AcDbEntity
  8
IMAGE
100
AcDbLine
 10
2.523724109281664
 20
6.70582454721816
 30
0.0
 11
2.536442998752726
 21
6.70582454721816
 31
0.0
  0
ARC
  5
3B2
330
1E
100
AcDbEntity
  8
IMAGE
100
AcDbCircle
 10
2.551900697717329
 20
6.683853760519991
 30
0.0
 40
0.0219707866981684
100
AcDbArc
 50
359.9999999999997
 51
90.0
  0
ARC
  5
3B3
330
1E
100
AcDbEntity
  8
IMAGE
100
AcDbCircle
 10
2.551900697717329
 20
6.663141580023983
 30
0.0
 40
0.0219707866981684
100
AcDbArc
 50
270.0
 51
359.9999999999997
  0
ARC
  5
3B4
330
1E
100
AcDbEntity
  8
IMAGE
100
AcDbCircle
 10
2.523724109281664
 20
6.683853760519992
 30
0.0
 40
0.0219707866981684
100
AcDbArc
 50
90.0
 51
138.5903593123006
  0
ARC
  5
3B5
330
1E
100
AcDbEntity
  8
IMAGE
100
AcDbCircle
 10
2.523724109281664
 20
6.663141580023985
 30
0.0
 40
0.0219707866981684
100
AcDbArc
 50
221.4096406876993
 51
270.0
  0
LINE
  5
3B6
330
1E
100
AcDbEntity
  8
IMAGE
100
AcDbLine
 10
2.551900697717328
 20
6.641170793325816
 30
0.0
 11
2.523724109281663
 21
6.641170793325816
 31
0.0
  0
LINE
  5
3B7
330
1E
100
AcDbEntity
  8
IMAGE
100
AcDbLine
 10
2.507246023970209
 20
6.648609265252936
 30
0.0
 11
2.507246023970209
 21
6.69838607529104
 31
0.0
  0
LINE
  5
3B8
330
1E
100
AcDbEntity
  8
IMAGE
100
AcDbLine
 10
2.536442998752726
 20
6.70582454721816
 30
0.0
 11
2.687591350223089
 21
6.70582454721816
 31
0.0
  0
LINE
  5
3B9
330
1E
100
AcDbEntity
  8
IMAGE
100
AcDbLine
 10
2.551900697717328
 20
6.641170793325816
 30
0.0
 11
2.687591350223089
 21
6.641170793325816
 31
0.0
  0
LWPOLYLINE
  5
3BA
330
1E
100
AcDbEntity
  8
IMAGE
100
AcDbPolyline
 90
        2
 70
     0
 43
0.0
 10
2.525841694907504
 20
6.613875775395625
 10
2.713221133803471
 20
6.613875775395625
  0
LINE
  5
3BE
330
1E
100
AcDbEntity
  8
IMAGE
100
AcDbLine
 10
2.510021019327173
 20
6.250520730357541
 30
0.0
 11
2.510021019327171
 21
5.57718406026348
 31
0.0
  0
LINE
  5
3BF
330
1E
100
AcDbEntity
  8
IMAGE
100
AcDbLine
 10
2.729414922492897
 20
6.250520730357541
 30
0.0
 11
2.729414922492895
 21
5.57718406026348
 31
0.0
  0
TEXT
  5
3D2
330
1E
100
AcDbEntity
  8
TEXT_LEADERS
100
AcDbText
 10
4.841919898987
 20
4.539030075072999
 30
0.0
 40
0.10000000149
  1

  7
SIMPLEX
100
AcDbText
  0
LWPOLYLINE
  5
3D9
330
1E
100
AcDbEntity
  8
INSTRUCT-CALLOUT
100
AcDbPolyline
 90
        4
 70
     1
 43
0.0
 10
11.32650979340528
 20
9.709672297053682
 10
11.32650979340528
 20
8.278186275711441
 10
16.16419698720613
 20
8.278186275711441
 10
16.16419698720613
 20
9.709672297053682
  0
TEXT
  5
3DF
330
1E
100
AcDbEntity
  8
INSTRUCT-CALLOUT
100
AcDbText
 10
11.65710221334731
 20
9.766787787770883
 30
0.0
 40
0.125
  1
CHOOSING EQUIPMENT CALLOUT METHOD
  7
ROMANS
100
AcDbText
  0
TEXT
  5
3E0
330
1E
100
AcDbEntity
  8
INSTRUCT-CALLOUT
100
AcDbText
 10
11.42435244430058
 20
9.392676724295998
 30
0.0
 40
0.125
  1
CHOOSE EITHER LEADERS OR BUBBLE CALLOUTS
  7
ROMANS
100
AcDbText
  0
TEXT
  5
3E1
330
1E
100
AcDbEntity
  8
INSTRUCT-CALLOUT
100
AcDbText
 10
11.42435244430058
 20
9.230776680809
 30
0.0
 40
0.125
  1
BY TURNING ON THE APPROPRIATE LAYER:
  7
ROMANS
100
AcDbText
  0
TEXT
  5
3E2
330
1E
100
AcDbEntity
  8
INSTRUCT-CALLOUT
100
AcDbText
 10
11.86069617656341
 20
8.893759386333822
 30
0.0
 40
0.125
  1
TEXT_LEADERS         TEXT_BUBBLES
  7
ROMANS
100
AcDbText
  0
LINE
  5
3E3
330
1E
100
AcDbEntity
  8
INSTRUCT-CALLOUT
100
AcDbLine
 10
12.1678208285202
 20
8.641288132632208
 30
0.0
 11
12.30408937437883
 21
8.641288132632208
 31
0.0
  0
LINE
  5
3E4
330
1E
100
AcDbEntity
  8
INSTRUCT-CALLOUT
100
AcDbLine
 10
11.88005041404187
 20
8.521536430825925
 30
0.0
 11
12.1678208285202
 21
8.641288132632208
 31
0.0
  0
SOLID
  5
3E5
330
1E
100
AcDbEntity
  8
INSTRUCT-CALLOUT
100
AcDbTrace
 10
11.9654364115822
 20
8.524574756687815
 30
0.0
 11
11.94238452669047
 21
8.579969798008661
 31
0.0
 12
11.7877253451738
 22
8.483116622673037
 32
0.0
 13
11.7877253451738
 23
8.483116622673037
 33
0.0
  0
TEXT
  5
3E6
330
1E
100
AcDbEntity
  8
INSTRUCT-CALLOUT
100
AcDbText
 10
12.33006411139595
 20
8.576537523238307
 30
0.0
 40
0.125
  1
ITEM 1
  7
ROMANS
100
AcDbText
  0
SOLID
  5
3E7
330
1E
100
AcDbEntity
  8
INSTRUCT-CALLOUT
100
AcDbTrace
 10
14.10790573963163
 20
8.538000791239213
 30
0.0
 11
14.12370803328597
 21
8.480119123024984
 31
0.0
 12
13.94216188181611
 22
8.461653076169081
 32
0.0
 13
13.94216188181611
 23
8.461653076169081
 33
0.0
  0
LINE
  5
3E8
330
1E
100
AcDbEntity
  8
INSTRUCT-CALLOUT
100
AcDbLine
 10
14.03863132883983
 20
8.487990232259647
 30
0.0
 11
14.29451274576467
 21
8.557848503724265
 31
0.0
  0
TEXT
  5
3E9
330
1E
100
AcDbEntity
  8
INSTRUCT-CALLOUT
100
AcDbText
 10
14.36450431644908
 20
8.528269948837472
 30
0.0
 40
0.125
  1
1
  7
ROMANS
 72
     4
 11
14.41509955454431
 21
8.590769948837472
 31
0.0
100
AcDbText
  0
CIRCLE
  5
3EA
330
1E
100
AcDbEntity
  8
INSTRUCT-CALLOUT
100
AcDbCircle
 10
14.41509955454431
 20
8.590769948837472
 30
0.0
 40
0.125
  0
TEXT
  5
3EB
330
1E
100
AcDbEntity
  8
INSTRUCT-CALLOUT
100
AcDbText
 10
11.36553714062238
 20
7.926958218976029
 30
0.0
 40
0.125
  1
LAYER "INSTRUCT-CALLOUT".
  7
ROMANS
100
AcDbText
  0
TEXT
  5
3EC
330
1E
100
AcDbEntity
  8
INSTRUCT-CALLOUT
100
AcDbText
 10
11.36553714062238
 20
8.088858262464029
 30
0.0
 40
0.125
  1
TO TURN OFF THIS INSTRUCTION BOX, TURN OFF
  7
ROMANS
100
AcDbText
  0
TEXT
  5
3ED
330
1E
100
AcDbEntity
  8
TEXT_LEADERS
100
AcDbText
 10
5.70369625
 20
7.702790742092977
 30
0.0
 40
0.125
  1
  RAIN BIRD 20B-ADJ
  7
SIMPLEX
100
AcDbText
  0
LINE
  5
3EE
330
1E
100
AcDbEntity
  8
IMAGE
100
AcDbLine
 10
2.582246023970208
 20
7.297108314654721
 30
0.0
 11
2.576591778695213
 21
7.296910905294881
 31
0.0
  0
LINE
  5
3EF
330
1E
100
AcDbEntity
  8
IMAGE
100
AcDbLine
 10
2.657246023970207
 20
7.313628208278386
 30
0.0
 11
2.657246023970208
 21
7.336881603397266
 31
0.0
  0
LINE
  5
3F0
330
1E
100
AcDbEntity
  8
IMAGE
100
AcDbLine
 10
2.582246023970208
 20
7.320917687268645
 30
0.0
 11
2.582246023970208
 21
7.345939574411776
 31
0.0
  0
LINE
  5
3F1
330
1E
100
AcDbEntity
  8
IMAGE
100
AcDbLine
 10
2.657246023970208
 20
7.327913371393483
 30
0.0
 11
2.701379321317952
 21
7.331551495021924
 31
0.0
  0
LINE
  5
3F2
330
1E
100
AcDbEntity
  8
IMAGE
100
AcDbLine
 10
2.657246023970208
 20
7.336069557201383
 30
0.0
 11
2.661142343057061
 21
7.336411033459238
 31
0.0
  0
LINE
  5
3F3
330
1E
100
AcDbEntity
  8
IMAGE
100
AcDbLine
 10
2.657246023970208
 20
7.345056332705061
 30
0.0
 11
2.657246023970208
 21
7.351597957523004
 31
0.0
  0
INSERT
  5
49F
330
1E
100
AcDbEntity
  8
TITLE
100
AcDbBlockReference
 66
     1
  2
titleblock
 10
0.0
 20
0.0
 30
0.0
  0
ATTRIB
  5
4A0
330
49F
100
AcDbEntity
  8
TITLE
100
AcDbText
 10
0.4797525910084789
 20
0.3538993935320509
 30
0.0
 40
0.2
  1
D
  7
L200
 72
     4
 11
0.5806393577206208
 21
0.453899393532051
 31
0.0
100
AcDbAttribute
  2
D
 70
     0
  0
ATTRIB
  5
4A1
330
49F
100
AcDbEntity
  8
TITLE
100
AcDbText
 10
1.20563935772062
 20
0.9133845998004341
 30
0.0
 40
0.2
  1

  7
L200
100
AcDbAttribute
  2
TITLE1
 70
     0
  0
ATTRIB
  5
4A2
330
49F
100
AcDbEntity
  8
TITLE
100
AcDbText
 10
1.20563935772062
 20
0.5538993935320511
 30
0.0
 40
0.2
  1
FULL-CIRCLE IMPACT SPRINKLER
  7
L200
100
AcDbAttribute
  2
TITLE2
 70
     0
  0
ATTRIB
  5
4A3
330
49F
100
AcDbEntity
  8
TITLE
100
AcDbText
 10
2.687842738374449
 20
0.1624650635120026
 30
0.0
 40
0.2
  1
20B-ADJ
  7
L200
100
AcDbAttribute
  2
TITLE3
 70
     0
  0
ATTRIB
  5
4A4
330
49F
100
AcDbEntity
  8
TITLE
100
AcDbText
 10
2.687842738374449
 20
-0.1610716221295422
 30
0.0
 40
0.2
  1

  7
L200
100
AcDbAttribute
  2
TITLE4
 70
     0
  0
ATTRIB
  5
4A5
330
49F
100
AcDbEntity
  8
TITLE
 62
     7
100
AcDbText
 10
7.587602293362992
 20
0.5392750885983235
 30
0.0
 40
0.08
  1
01-09-04
  7
L80
 72
     2
 11
8.23522134098204
 21
0.5392750885983235
 31
0.0
100
AcDbAttribute
  2
REVISED
 70
     0
  0
ATTRIB
  5
4A6
330
49F
100
AcDbEntity
  8
TITLE
 62
     7
100
AcDbText
 10
0.2381393577206206
 20
-0.345616054925595
 30
0.0
 40
0.08
  1
I-20B-ADJ.dwg
  7
L80
100
AcDbAttribute
  2
DWG-NAME
 70
     0
  0
ATTRIB
  5
4A7
330
49F
100
AcDbEntity
  8
TITLE
 62
     7
100
AcDbText
 10
1.20563935772062
 20
0.2702360764491731
 30
0.0
 40
0.1
  1
N.T.S.
  7
L100
100
AcDbAttribute
  2
SCALE
 70
     0
  0
SEQEND
  5
4A8
330
49F
100
AcDbEntity
  8
0
  0
HATCH
  5
4BB
330
1E
100
AcDbEntity
  8
IMAGE
100
AcDbHatch
 10
0.0
 20
0.0
 30
0.0
210
0.0
220
0.0
230
1.0
  2
EARTH
 70
     0
 71
     0
 91
        2
 92
        7
 72
     0
 73
     1
 93
        6
 10
2.273356895638679
 20
5.365110462464645
 10
1.355333125311755
 20
5.365110462464683
 10
1.448108739704753
 20
5.105133681953899
 10
1.663675524461618
 20
5.012398622782202
 10
1.94745968182165
 20
4.985123612777209
 10
2.273356895638679
 20
4.985123612777209
 97
        0
 92
        7
 72
     0
 73
     1
 93
        7
 10
3.505715826379767
 20
5.367060534523327
 10
2.729414922492895
 20
5.367060534523327
 10
2.729414922492896
 20
5.116143047095001
 10
2.946333617979864
 20
5.173420593260205
 10
3.11278395774238
 20
5.227970638424912
 10
3.317435959795912
 20
5.244335644427909
 10
3.464785410534934
 20
5.287975685590617
 97
        0
 75
     0
 76
     1
 52
45.0
 41
0.65
 77
     0
 78
     6
 53
45.0
 43
0.0
 44
-0.7613427479070225
 45
0.0
 46
0.229809703885628
 79
     2
 49
0.1625
 49
-0.1625
 53
45.0
 43
-0.0430893194785553
 44
-0.7182534284284673
 45
0.0
 46
0.229809703885628
 79
     2
 49
0.1625
 49
-0.1625
 53
45.0
 43
-0.0861786389571105
 44
-0.675164108949912
 45
0.0
 46
0.229809703885628
 79
     2
 49
0.1625
 49
-0.1625
 53
135.0
 43
-0.0861786389571105
 44
-0.6464378959642085
 45
-0.2298097038856279
 46
0.0
 79
     2
 49
0.1625
 49
-0.1625
 53
135.0
 43
-0.0430893194785552
 44
-0.6033485764856534
 45
-0.2298097038856279
 46
0.0
 79
     2
 49
0.1625
 49
-0.1625
 53
135.0
 43
0.0
 44
-0.5602592570070981
 45
-0.2298097038856279
 46
0.0
 79
     2
 49
0.1625
 49
-0.1625
 47
0.002727501947352
 98
        2
 10
1.953089125097752
 20
5.252518147429407
 10
2.957248400683202
 20
5.315250695595611
  0
LEADER
  5
4CC
330
1E
100
AcDbEntity
  8
TEXT_BUBBLES
100
AcDbLeader
  3
Standard
 76
     2
 10
2.703647389036368
 20
7.008824925889813
 30
0.0
 10
3.950140312688242
 20
7.523216685639274
 30
0.0
1001
ACAD
1000
DSTYLE
1002
{
1070
   147
1040
0.09
1070
    77
1070
     0
1070
   279
1070
     2
1002
}
  0
LEADER
  5
4CE
330
1E
100
AcDbEntity
  8
TEXT_BUBBLES
100
AcDbLeader
  3
Standard
 76
     2
 10
2.748577578619615
 20
6.501724314283981
 30
0.0
 10
3.950140312688242
 20
6.997963099110066
 30
0.0
1001
ACAD
1000
DSTYLE
1002
{
1070
   147
1040
0.09
1070
    77
1070
     0
1070
   279
1070
     2
1002
}
  0
LEADER
  5
4CF
330
1E
100
AcDbEntity
  8
TEXT_BUBBLES
100
AcDbLeader
  3
Standard
 76
     2
 10
3.603593829567854
 20
5.994321142533421
 30
0.0
 10
3.950140312688242
 20
6.164580129449555
 30
0.0
1001
ACAD
1000
DSTYLE
1002
{
1070
   147
1040
0.09
1070
    77
1070
     0
1070
   279
1070
     2
1002
}
  0
LEADER
  5
4D0
330
1E
100
AcDbEntity
  8
TEXT_BUBBLES
100
AcDbLeader
  3
Standard
 76
     2
 10
3.584699948767623
 20
5.367060534523327
 30
0.0
 10
3.950140312688242
 20
5.525483953802169
 30
0.0
1001
ACAD
1000
DSTYLE
1002
{
1070
   147
1040
0.09
1070
    77
1070
     0
1070
   279
1070
     2
1002
}
  0
LEADER
  5
4D2
330
1E
100
AcDbEntity
  8
TEXT_BUBBLES
100
AcDbLeader
  3
Standard
 76
     2
 10
2.729414922492896
 20
4.914977207225941
 30
0.0
 10
3.082587332203154
 20
5.093058608036574
 30
0.0
1001
ACAD
1000
DSTYLE
1002
{
1070
   147
1040
0.09
1070
    77
1070
     0
1070
   279
1070
     2
1002
}
  0
LEADER
  5
4D3
330
1E
100
AcDbEntity
  8
TEXT_BUBBLES
100
AcDbLeader
  3
Standard
 76
     2
 10
2.749288857593244
 20
4.596899893868126
 30
0.0
 10
3.082587332203154
 20
4.766951703687674
 30
0.0
1001
ACAD
1000
DSTYLE
1002
{
1070
   147
1040
0.09
1070
    77
1070
     0
1070
   279
1070
     2
1002
}
  0
LEADER
  5
4D5
330
1E
100
AcDbEntity
  8
TEXT_BUBBLES
100
AcDbLeader
  3
Standard
 76
     2
 10
2.487352437278437
 20
3.718882427963057
 30
0.0
 10
2.705404897208953
 20
3.335433684175409
 30
0.0
1001
ACAD
1000
DSTYLE
1002
{
1070
   147
1040
0.09
1070
    77
1070
     0
1070
   279
1070
     2
1002
}
  0
LEADER
  5
4D6
330
1E
100
AcDbEntity
  8
TEXT_BUBBLES
100
AcDbLeader
  3
Standard
 76
     2
 10
2.77897502556901
 20
4.314560790609125
 30
0.0
 10
3.237697166171082
 20
3.335433684175409
 30
0.0
1001
ACAD
1000
DSTYLE
1002
{
1070
   147
1040
0.09
1070
    77
1070
     0
1070
   279
1070
     2
1002
}
  0
LEADER
  5
4D7
330
1E
100
AcDbEntity
  8
TEXT_BUBBLES
100
AcDbLeader
  3
Standard
 76
     2
 10
3.660489230819136
 20
4.141030930272666
 30
0.0
 10
4.049100756879767
 20
3.335433684175409
 30
0.0
1001
ACAD
1000
DSTYLE
1002
{
1070
   147
1040
0.09
1070
    77
1070
     0
1070
   279
1070
     2
1002
}
  0
LEADER
  5
4D9
330
1E
100
AcDbEntity
  8
TEXT_BUBBLES
100
AcDbLeader
  3
Standard
 76
     2
 10
4.412428125362995
 20
3.968171700786077
 30
0.0
 10
4.731199989333386
 20
3.335433684175409
 30
0.0
1001
ACAD
1000
DSTYLE
1002
{
1070
   147
1040
0.09
1070
    77
1070
     0
1070
   279
1070
     2
1002
}
  0
LEADER
  5
4DA
330
1E
100
AcDbEntity
  8
TEXT_BUBBLES
100
AcDbLeader
  3
Standard
 76
     2
 10
4.817051040658701
 20
3.882997884345513
 30
0.0
 10
5.101410449032633
 20
3.335433684175409
 30
0.0
1001
ACAD
1000
DSTYLE
1002
{
1070
   147
1040
0.09
1070
    77
1070
     0
1070
   279
1070
     2
1002
}
  0
LEADER
  5
4DC
330
1E
100
AcDbEntity
  8
TEXT_BUBBLES
100
AcDbLeader
  3
Standard
 76
     2
 10
5.12517874989652
 20
3.914031711361932
 30
0.0
 10
5.42207663827312
 20
3.335433684175409
 30
0.0
1001
ACAD
1000
DSTYLE
1002
{
1070
   147
1040
0.09
1070
    77
1070
     0
1070
   279
1070
     2
1002
}
  0
LEADER
  5
4FE
330
1E
100
AcDbEntity
  8
TEXT_LEADERS
100
AcDbLeader
  3
Standard
 76
     3
 10
2.707246023970208
 20
6.98920741772325
 30
0.0
 10
5.036453634360056
 20
7.930268377735574
 30
0.0
 10
5.598772062941629
 20
7.930268377735574
 30
0.0
1001
ACAD
1000
DSTYLE
1002
{
1070
   147
1040
0.09
1070
    77
1070
     0
1070
   279
1070
     2
1002
}
  0
LEADER
  5
503
330
1E
100
AcDbEntity
  8
TEXT_LEADERS
100
AcDbLeader
  3
Standard
 76
     3
 10
2.748582602195257
 20
6.546238067473627
 30
0.0
 10
5.036453634360055
 20
7.470597965796731
 30
0.0
 10
5.598772062941629
 20
7.470597965796731
 30
0.0
1001
ACAD
1000
DSTYLE
1002
{
1070
   147
1040
0.09
1070
    77
1070
     0
1070
   279
1070
     2
1002
}
  0
LEADER
  5
507
330
1E
100
AcDbEntity
  8
TEXT_LEADERS
100
AcDbLeader
  3
Standard
 76
     3
 10
3.62162990262611
 20
6.021077380048426
 30
0.0
 10
5.036453634360055
 20
6.592703272602889
 30
0.0
 10
5.598772062941629
 20
6.592703272602889
 30
0.0
1001
ACAD
1000
DSTYLE
1002
{
1070
   147
1040
0.09
1070
    77
1070
     0
1070
   279
1070
     2
1002
}
  0
LEADER
  5
509
330
1E
100
AcDbEntity
  8
TEXT_LEADERS
100
AcDbLeader
  3
Standard
 76
     3
 10
3.584699948767623
 20
5.367060534523327
 30
0.0
 10
5.036453634360055
 20
5.953607096955513
 30
0.0
 10
5.598772062941629
 20
5.953607096955513
 30
0.0
1001
ACAD
1000
DSTYLE
1002
{
1070
   147
1040
0.09
1070
    77
1070
     0
1070
   279
1070
     2
1002
}
  0
LEADER
  5
50A
330
1E
100
AcDbEntity
  8
TEXT_LEADERS
100
AcDbLeader
  3
Standard
 76
     3
 10
2.729414922492896
 20
4.83260615349554
 30
0.0
 10
5.036453634360055
 20
5.76471029710682
 30
0.0
 10
5.598772062941629
 20
5.76471029710682
 30
0.0
1001
ACAD
1000
DSTYLE
1002
{
1070
   147
1040
0.09
1070
    77
1070
     0
1070
   279
1070
     2
1002
}
  0
LEADER
  5
50B
330
1E
100
AcDbEntity
  8
TEXT_LEADERS
100
AcDbLeader
  3
Standard
 76
     3
 10
2.965266654207886
 20
4.525626868097569
 30
0.0
 10
4.64229022874889
 20
5.14107582260767
 30
0.0
 10
5.598772062941629
 20
5.14107582260767
 30
0.0
1001
ACAD
1000
DSTYLE
1002
{
1070
   147
1040
0.09
1070
    77
1070
     0
1070
   279
1070
     2
1002
}
  0
LEADER
  5
50C
330
1E
100
AcDbEntity
  8
TEXT_LEADERS
100
AcDbLeader
  3
Standard
 76
     3
 10
3.680346064234182
 20
4.361083490590415
 30
0.0
 10
5.036453634360055
 20
4.908986513974848
 30
0.0
 10
5.598772062941629
 20
4.908986513974848
 30
0.0
1001
ACAD
1000
DSTYLE
1002
{
1070
   147
1040
0.09
1070
    77
1070
     0
1070
   279
1070
     2
1002
}
  0
LEADER
  5
50D
330
1E
100
AcDbEntity
  8
TEXT_LEADERS
100
AcDbLeader
  3
Standard
 76
     3
 10
4.688072027540389
 20
3.966204337084635
 30
0.0
 10
5.036453634360055
 20
3.765066122606585
 30
0.0
 10
5.598772062941629
 20
3.765066122606585
 30
0.0
1001
ACAD
1000
DSTYLE
1002
{
1070
   147
1040
0.09
1070
    77
1070
     0
1070
   279
1070
     2
1002
}
  0
LEADER
  5
50E
330
1E
100
AcDbEntity
  8
TEXT_LEADERS
100
AcDbLeader
  3
Standard
 76
     3
 10
4.337509369737281
 20
3.882997884345513
 30
0.0
 10
5.036453634360056
 20
3.479462225017009
 30
0.0
 10
5.598772062941629
 20
3.479462225017009
 30
0.0
1001
ACAD
1000
DSTYLE
1002
{
1070
   147
1040
0.09
1070
    77
1070
     0
1070
   279
1070
     2
1002
}
  0
LEADER
  5
510
330
1E
100
AcDbEntity
  8
TEXT_LEADERS
100
AcDbLeader
  3
Standard
 76
     3
 10
3.852577409317687
 20
3.912146278795086
 30
0.0
 10
5.036453634360055
 20
3.228576765235466
 30
0.0
 10
5.598772062941629
 20
3.228576765235466
 30
0.0
1001
ACAD
1000
DSTYLE
1002
{
1070
   147
1040
0.09
1070
    77
1070
     0
1070
   279
1070
     2
1002
}
  0
LEADER
  5
511
330
1E
100
AcDbEntity
  8
TEXT_LEADERS
100
AcDbLeader
  3
Standard
 76
     3
 10
2.684787583382123
 20
4.366391894303839
 30
0.0
 10
5.036453634360055
 20
3.008656866727622
 30
0.0
 10
5.598772062941629
 20
3.008656866727622
 30
0.0
1001
ACAD
1000
DSTYLE
1002
{
1070
   147
1040
0.09
1070
    77
1070
     0
1070
   279
1070
     2
1002
}
  0
LEADER
  5
512
330
1E
100
AcDbEntity
  8
TEXT_LEADERS
100
AcDbLeader
  3
Standard
 76
     3
 10
2.487352437278437
 20
4.113235356021653
 30
0.0
 10
4.766083927854545
 20
2.797609116526657
 30
0.0
 10
5.598772062941629
 20
2.797609116526657
 30
0.0
1001
ACAD
1000
DSTYLE
1002
{
1070
   147
1040
0.09
1070
    77
1070
     0
1070
   279
1070
     2
1002
}
  0
TEXT
  5
56A
330
1E
100
AcDbEntity
  8
TEXT_BUBBLES
100
AcDbText
 10
6.20369625
 20
7.877790742092978
 30
0.0
 40
0.125
  1
IMPACT SPRINKLER:
  7
SIMPLEX
100
AcDbText
  0
TEXT
  5
56B
330
1E
100
AcDbEntity
  8
TEXT_BUBBLES
100
AcDbText
 10
6.20369625
 20
7.702790742092977
 30
0.0
 40
0.125
  1
  RAIN BIRD 20B-ADJ
  7
SIMPLEX
100
AcDbText
  0
TEXT
  5
56C
330
1E
100
AcDbEntity
  8
TEXT_BUBBLES
100
AcDbText
 10
6.20369625
 20
7.352790742092977
 30
0.0
 40
0.125
  1
UV RADIATION RESISTANT
  7
SIMPLEX
100
AcDbText
  0
TEXT
  5
56D
330
1E
100
AcDbEntity
  8
TEXT_BUBBLES
100
AcDbText
 10
6.20369625
 20
7.177790742092977
 30
0.0
 40
0.125
  1
  PVC SCH 80 COUPLING
  7
SIMPLEX
100
AcDbText
  0
TEXT
  5
56E
330
1E
100
AcDbEntity
  8
TEXT_BUBBLES
100
AcDbText
 10
6.20369625
 20
6.827790742092977
 30
0.0
 40
0.125
  1
PLANT MATERIAL
  7
SIMPLEX
100
AcDbText
  0
TEXT
  5
56F
330
1E
100
AcDbEntity
  8
TEXT_BUBBLES
100
AcDbText
 10
6.20369625
 20
6.477790742092977
 30
0.0
 40
0.125
  1
FINISH GRADE/TOP OF MULCH
  7
SIMPLEX
100
AcDbText
  0
TEXT
  5
570
330
1E
100
AcDbEntity
  8
TEXT_BUBBLES
100
AcDbText
 10
6.20369625
 20
6.127790742092977
 30
0.0
 40
0.125
  1
UV RADIATION RESISTANT
  7
SIMPLEX
100
AcDbText
  0
TEXT
  5
571
330
1E
100
AcDbEntity
  8
TEXT_BUBBLES
100
AcDbText
 10
6.20369625
 20
5.952790742092977
 30
0.0
 40
0.125
  1
  PVC SCH 80 NIPPLE
  7
SIMPLEX
100
AcDbText
  0
TEXT
  5
572
330
1E
100
AcDbEntity
  8
TEXT_BUBBLES
100
AcDbText
 10
6.20369625
 20
5.777790742092977
 30
0.0
 40
0.125
  1
  (LENGTH AS REQUIRED)
  7
SIMPLEX
100
AcDbText
  0
TEXT
  5
573
330
1E
100
AcDbEntity
  8
TEXT_BUBBLES
100
AcDbText
 10
6.20369625
 20
5.427790742092977
 30
0.0
 40
0.125
  1
PVC SCH 40 ELL
  7
SIMPLEX
100
AcDbText
  0
TEXT
  5
574
330
1E
100
AcDbEntity
  8
TEXT_BUBBLES
100
AcDbText
 10
6.20369625
 20
5.077790742092977
 30
0.0
 40
0.125
  1
1-INCH GALVANIZED STEEL PIPE
  7
SIMPLEX
100
AcDbText
  0
TEXT
  5
575
330
1E
100
AcDbEntity
  8
TEXT_BUBBLES
100
AcDbText
 10
6.20369625
 20
4.902790742092977
 30
0.0
 40
0.125
  1
  WITH STAINLESS STEEL GEAR
  7
SIMPLEX
100
AcDbText
  0
TEXT
  5
576
330
1E
100
AcDbEntity
  8
TEXT_BUBBLES
100
AcDbText
 10
6.20369625
 20
4.727790742092977
 30
0.0
 40
0.125
  1
  CLAMPS OR EQUIVALENT
  7
SIMPLEX
100
AcDbText
  0
TEXT
  5
577
330
1E
100
AcDbEntity
  8
TEXT_BUBBLES
100
AcDbText
 10
6.20369625
 20
4.552790742092977
 30
0.0
 40
0.125
  1
  SUPPORT SYSTEM
  7
SIMPLEX
100
AcDbText
  0
TEXT
  5
578
330
1E
100
AcDbEntity
  8
TEXT_BUBBLES
100
AcDbText
 10
6.20369625
 20
4.202790742092977
 30
0.0
 40
0.125
  1
PVC SCH 40 STREET ELL
  7
SIMPLEX
100
AcDbText
  0
TEXT
  5
579
330
1E
100
AcDbEntity
  8
TEXT_BUBBLES
100
AcDbText
 10
6.20369625
 20
3.852790742092977
 30
0.0
 40
0.125
  1
PVC SCH 80 NIPPLE
  7
SIMPLEX
100
AcDbText
  0
TEXT
  5
57A
330
1E
100
AcDbEntity
  8
TEXT_BUBBLES
100
AcDbText
 10
6.20369625
 20
3.677790742092977
 30
0.0
 40
0.125
  1
  (LENGTH AS REQUIRED)
  7
SIMPLEX
100
AcDbText
  0
TEXT
  5
57B
330
1E
100
AcDbEntity
  8
TEXT_BUBBLES
100
AcDbText
 10
6.20369625
 20
3.327790742092977
 30
0.0
 40
0.125
  1
PVC SCH 40 TEE OR ELL
  7
SIMPLEX
100
AcDbText
  0
TEXT
  5
57C
330
1E
100
AcDbEntity
  8
TEXT_BUBBLES
100
AcDbText
 10
6.20369625
 20
2.977790742092977
 30
0.0
 40
0.125
  1
PVC LATERAL PIPE
  7
SIMPLEX
100
AcDbText
  0
CIRCLE
  5
5B7
330
1E
100
AcDbEntity
  8
TEXT_BUBBLES
100
AcDbCircle
 10
5.93187851875599
 20
7.93475497887408
 30
0.0
 40
0.1562500331414542
  0
CIRCLE
  5
5B8
330
1E
100
AcDbEntity
  8
TEXT_BUBBLES
100
AcDbCircle
 10
5.93187851875599
 20
7.409754978874079
 30
0.0
 40
0.1562500331414542
  0
CIRCLE
  5
5B9
330
1E
100
AcDbEntity
  8
TEXT_BUBBLES
100
AcDbCircle
 10
5.93187851875599
 20
6.884754978874079
 30
0.0
 40
0.1562500331414542
  0
CIRCLE
  5
5BA
330
1E
100
AcDbEntity
  8
TEXT_BUBBLES
100
AcDbCircle
 10
5.93187851875599
 20
6.534754978874079
 30
0.0
 40
0.1562500331414542
  0
CIRCLE
  5
5BB
330
1E
100
AcDbEntity
  8
TEXT_BUBBLES
100
AcDbCircle
 10
5.93187851875599
 20
6.184754978874079
 30
0.0
 40
0.1562500331414542
  0
CIRCLE
  5
5BC
330
1E
100
AcDbEntity
  8
TEXT_BUBBLES
100
AcDbCircle
 10
5.93187851875599
 20
5.484754978874079
 30
0.0
 40
0.1562500331414542
  0
CIRCLE
  5
5BD
330
1E
100
AcDbEntity
  8
TEXT_BUBBLES
100
AcDbCircle
 10
5.93187851875599
 20
5.134754978874079
 30
0.0
 40
0.1562500331414542
  0
CIRCLE
  5
5BE
330
1E
100
AcDbEntity
  8
TEXT_BUBBLES
100
AcDbCircle
 10
5.93187851875599
 20
4.259754978874079
 30
0.0
 40
0.1562500331414542
  0
CIRCLE
  5
5BF
330
1E
100
AcDbEntity
  8
TEXT_BUBBLES
100
AcDbCircle
 10
5.93187851875599
 20
3.909754978874079
 30
0.0
 40
0.1562500331414542
  0
CIRCLE
  5
5C0
330
1E
100
AcDbEntity
  8
TEXT_BUBBLES
100
AcDbCircle
 10
5.93187851875599
 20
3.384754978874079
 30
0.0
 40
0.1562500331414542
  0
CIRCLE
  5
5C1
330
1E
100
AcDbEntity
  8
TEXT_BUBBLES
100
AcDbCircle
 10
5.93187851875599
 20
3.034754978874079
 30
0.0
 40
0.1562500331414542
  0
CIRCLE
  5
5C2
330
1E
100
AcDbEntity
  8
TEXT_BUBBLES
100
AcDbCircle
 10
5.42207663827312
 20
3.179183651033955
 30
0.0
 40
0.1562500331414542
  0
CIRCLE
  5
5C3
330
1E
100
AcDbEntity
  8
TEXT_BUBBLES
100
AcDbCircle
 10
5.101410449032633
 20
3.179183651033955
 30
0.0
 40
0.1562500331414542
  0
CIRCLE
  5
5C4
330
1E
100
AcDbEntity
  8
TEXT_BUBBLES
100
AcDbCircle
 10
4.731199989333386
 20
3.179183651033955
 30
0.0
 40
0.1562500331414542
  0
CIRCLE
  5
5C5
330
1E
100
AcDbEntity
  8
TEXT_BUBBLES
100
AcDbCircle
 10
4.049100756879767
 20
3.179183651033955
 30
0.0
 40
0.1562500331414542
  0
CIRCLE
  5
5C6
330
1E
100
AcDbEntity
  8
TEXT_BUBBLES
100
AcDbCircle
 10
3.237697166171082
 20
3.179183651033955
 30
0.0
 40
0.1562500331414542
  0
CIRCLE
  5
5C7
330
1E
100
AcDbEntity
  8
TEXT_BUBBLES
100
AcDbCircle
 10
2.705404897208953
 20
3.179183651033955
 30
0.0
 40
0.1562500331414542
  0
CIRCLE
  5
5C8
330
1E
100
AcDbEntity
  8
TEXT_BUBBLES
100
AcDbCircle
 10
3.238837365344608
 20
4.766951703687674
 30
0.0
 40
0.1562500331414542
  0
CIRCLE
  5
5CA
330
1E
100
AcDbEntity
  8
TEXT_BUBBLES
100
AcDbCircle
 10
3.238837365344608
 20
5.093058608036574
 30
0.0
 40
0.1562500331414542
  0
CIRCLE
  5
5CC
330
1E
100
AcDbEntity
  8
TEXT_BUBBLES
100
AcDbCircle
 10
4.106390345829696
 20
5.525483953802169
 30
0.0
 40
0.1562500331414542
  0
CIRCLE
  5
5CD
330
1E
100
AcDbEntity
  8
TEXT_BUBBLES
100
AcDbCircle
 10
4.106390345829696
 20
6.164580129449555
 30
0.0
 40
0.1562500331414542
  0
CIRCLE
  5
5CE
330
1E
100
AcDbEntity
  8
TEXT_BUBBLES
100
AcDbCircle
 10
4.106390345829696
 20
6.997963099110066
 30
0.0
 40
0.1562500331414542
  0
CIRCLE
  5
5D0
330
1E
100
AcDbEntity
  8
TEXT_BUBBLES
100
AcDbCircle
 10
4.106390345829696
 20
7.523216685639274
 30
0.0
 40
0.1562500331414542
  0
VIEWPORT
  5
AF
330
1A
100
AcDbEntity
 67
     1
  8
0
100
AcDbViewport
 10
6.172388059701492
 20
4.5
 30
0.0
 40
12.34477611940298
 41
9.0
 68
     1
 69
     1
 12
6.172388059701492
 22
4.5
 13
0.0
 23
0.0
 14
0.14
 24
0.14
 15
0.14
 25
0.14
 16
0.0
 26
0.0
 36
1.0
 17
0.0
 27
0.0
 37
0.0
 42
50.0
 43
0.0
 44
0.0
 45
9.0
 50
0.0
 51
0.0
 72
   100
 90
    32800
  1

281
     0
 71
     0
 74
     0
110
0.0
120
0.0
130
0.0
111
0.0
121
0.0
131
0.0
112
0.0
122
0.0
132
0.0
 79
     0
146
0.0
  0
ENDSEC
  0
SECTION
  2
OBJECTS
  0
DICTIONARY
  5
C
330
0
100
AcDbDictionary
281
     1
  3
ACAD_GROUP
350
D
  3
ACAD_LAYOUT
350
19
  3
ACAD_MLINESTYLE
350
16
  3
ACAD_PLOTSETTINGS
350
18
  3
ACAD_PLOTSTYLENAME
350
E
  3
AcadDim
350
50F
  3
AcDbVariableDictionary
350
47E
  3
ASE_INDEX_DICTIONARY
350
47B
  0
DICTIONARY
  5
515
330
2
100
AcDbDictionary
280
     1
281
     1
  3
ACAD_LAYERFILTERS
360
517
  0
DICTIONARY
  5
D
102
{ACAD_REACTORS
330
C
102
}
330
C
100
AcDbDictionary
281
     1
  0
DICTIONARY
  5
19
102
{ACAD_REACTORS
330
C
102
}
330
C
100
AcDbDictionary
281
     1
  3
Layout1
350
1D
  3
Model
350
21
  0
DICTIONARY
  5
16
102
{ACAD_REACTORS
330
C
102
}
330
C
100
AcDbDictionary
281
     1
  3
Standard
350
17
  0
DICTIONARY
  5
18
102
{ACAD_REACTORS
330
C
102
}
330
C
100
AcDbDictionary
281
     1
  0
ACDBDICTIONARYWDFLT
  5
E
102
{ACAD_REACTORS
330
C
102
}
330
C
100
AcDbDictionary
281
     1
  3
Normal
350
F
100
AcDbDictionaryWithDefault
340
F
  0
XRECORD
  5
50F
102
{ACAD_REACTORS
330
C
102
}
330
C
100
AcDbXrecord
280
     1
 90
   990106
  3

 60
     4
 61
     0
 62
     1
 63
     3
 64
     0
 65
     0
 66
     0
 67
     3
 68
     1
 69
     0
 70
     0
 71
     1
 72
     0
 40
0.0
170
     1
  0
DICTIONARY
  5
47E
102
{ACAD_REACTORS
330
C
102
}
330
C
100
AcDbDictionary
281
     1
  3
DIMASSOC
350
481
  3
HIDETEXT
350
480
  3
SORTENTS
350
47F
  0
DICTIONARY
  5
47B
102
{ACAD_REACTORS
330
C
102
}
330
C
100
AcDbDictionary
281
     1
  3
ASEBlockHierarchyIndexRecord
350
47C
1001
DCO15
1040
1487050234.357
  0
DICTIONARY
  5
517
102
{ACAD_REACTORS
330
515
102
}
330
515
100
AcDbDictionary
280
     1
281
     1
  0
LAYOUT
  5
1D
102
{ACAD_REACTORS
330
19
102
}
330
19
100
AcDbPlotSettings
  1

  2
S:\AutoCAD 2002\Plotters\1055B&WDraftShaded.pc3
  4

  6

 40
0.0
 41
0.0
 42
0.0
 43
0.0
 44
0.0
 45
0.0
 46
0.0
 47
0.0
 48
0.0
 49
0.0
140
0.0
141
0.0
142
1.0
143
1.0
 70
   688
 72
     0
 73
     0
 74
     5
  7
Color.ctb
 75
    16
147
1.0
148
0.0
149
0.0
100
AcDbLayout
  1
Layout1
 70
     1
 71
     1
 10
0.0
 20
0.0
 11
12.0
 21
9.0
 12
0.0
 22
0.0
 32
0.0
 14
1.000000000000000E+20
 24
1.000000000000000E+20
 34
1.000000000000000E+20
 15
-1.000000000000000E+20
 25
-1.000000000000000E+20
 35
-1.000000000000000E+20
146
0.0
 13
0.0
 23
0.0
 33
0.0
 16
1.0
 26
0.0
 36
0.0
 17
0.0
 27
1.0
 37
0.0
 76
     0
330
1A
331
AF
  0
LAYOUT
  5
21
102
{ACAD_REACTORS
330
19
102
}
330
19
100
AcDbPlotSettings
  1

  2
OKI DOKI Color Laser.pc3
  4
Tabloid
  6

 40
5.027083396911621
 41
5.027085304260253
 42
5.027099609375
 43
5.027069091796875
 44
279.3999938964843
 45
431.7999877929687
 46
0.0
 47
0.0
 48
-0.0258030127938633
 49
-0.4303277029463163
140
16.46419698720613
141
10.00967229705368
142
1.0
143
1.0
 70
 11936
 72
     0
 73
     1
 74
     4
  7
Color.ctb
 75
     0
147
1.0
148
0.6553965249641269
149
10.93032365483643
100
AcDbLayout
  1
Model
 70
     1
 71
     0
 10
0.0
 20
0.0
 11
12.0
 21
9.0
 12
0.0
 22
0.0
 32
0.0
 14
0.0
 24
0.0
 34
0.0
 15
0.0
 25
0.0
 35
0.0
146
0.0
 13
0.0
 23
0.0
 33
0.0
 16
1.0
 26
0.0
 36
0.0
 17
0.0
 27
1.0
 37
0.0
 76
     0
330
1E
  0
MLINESTYLE
  5
17
102
{ACAD_REACTORS
330
16
102
}
330
16
100
AcDbMlineStyle
  2
STANDARD
 70
     0
  3

 62
   256
 51
90.0
 52
90.0
 71
     2
 49
0.5
 62
   256
  6
BYLAYER
 49
-0.5
 62
   256
  6
BYLAYER
  0
ACDBPLACEHOLDER
  5
F
102
{ACAD_REACTORS
330
E
102
}
330
E
  0
DICTIONARYVAR
  5
481
102
{ACAD_REACTORS
330
47E
102
}
330
47E
100
DictionaryVariables
280
     0
  1
1
  0
DICTIONARYVAR
  5
480
102
{ACAD_REACTORS
330
47E
102
}
330
47E
100
DictionaryVariables
280
     0
  1
1
  0
DICTIONARYVAR
  5
47F
102
{ACAD_REACTORS
330
47E
102
}
330
47E
100
DictionaryVariables
280
     0
  1
1
  0
XRECORD
  5
47C
102
{ACAD_REACTORS
330
47B
102
}
330
47B
100
AcDbXrecord
280
     1
330
49F
  0
ENDSEC
  0
EOF
