  0
SECTION
  2
HEADER
  9
$ACADVER
  1
AC1018
  9
$ACADMAINTVER
 70
   104
  9
$DWGCODEPAGE
  3
ANSI_1252
  9
$TITLE
  1
O:\RAINBIRD\SpecDraw 2006\MDC\DWG\lsp-1solo.dwg
  9
$SUBJECT
  1
 
  9
$AUTHOR
  1
dweyer
  9
$COMMENTS
  1
This drawing was opened and saved by 'dweyer' with AutoCAD version 16.1s (LMS Tech) using profile WatermarkID on 12-21-2005 @ 16:00:PM
  9
$LASTSAVEDBY
  1
dweyer
  9
$INSBASE
 10
0.0
 20
0.0
 30
0.0
  9
$EXTMIN
 10
0.0
 20
0.0
 30
0.0
  9
$EXTMAX
 10
16.48999999999999
 20
10.44
 30
0.03
  9
$LIMMIN
 10
0.0
 20
0.0
  9
$LIMMAX
 10
12.0
 20
9.0
  9
$ORTHOMODE
 70
     1
  9
$REGENMODE
 70
     1
  9
$FILLMODE
 70
     1
  9
$QTEXTMODE
 70
     0
  9
$MIRRTEXT
 70
     0
  9
$LTSCALE
 40
1.0
  9
$ATTMODE
 70
     1
  9
$TEXTSIZE
 40
0.125
  9
$TRACEWID
 40
0.05
  9
$TEXTSTYLE
  7
ROMANS
  9
$CLAYER
  8
title
  9
$CELTYPE
  6
ByLayer
  9
$CECOLOR
 62
   256
  9
$CELTSCALE
 40
1.0
  9
$DISPSILH
 70
     0
  9
$DIMSCALE
 40
1.0
  9
$DIMASZ
 40
0.18
  9
$DIMEXO
 40
0.0625
  9
$DIMDLI
 40
0.38
  9
$DIMRND
 40
0.0
  9
$DIMDLE
 40
0.0
  9
$DIMEXE
 40
0.125
  9
$DIMTP
 40
0.0
  9
$DIMTM
 40
0.0
  9
$DIMTXT
 40
0.125
  9
$DIMCEN
 40
0.09
  9
$DIMTSZ
 40
0.0
  9
$DIMTOL
 70
     0
  9
$DIMLIM
 70
     0
  9
$DIMTIH
 70
     1
  9
$DIMTOH
 70
     1
  9
$DIMSE1
 70
     0
  9
$DIMSE2
 70
     0
  9
$DIMTAD
 70
     0
  9
$DIMZIN
 70
     0
  9
$DIMBLK
  1

  9
$DIMASO
 70
     1
  9
$DIMSHO
 70
     1
  9
$DIMPOST
  1

  9
$DIMAPOST
  1

  9
$DIMALT
 70
     0
  9
$DIMALTD
 70
     2
  9
$DIMALTF
 40
25.4
  9
$DIMLFAC
 40
1.0
  9
$DIMTOFL
 70
     0
  9
$DIMTVP
 40
0.0
  9
$DIMTIX
 70
     0
  9
$DIMSOXD
 70
     0
  9
$DIMSAH
 70
     0
  9
$DIMBLK1
  1

  9
$DIMBLK2
  1

  9
$DIMSTYLE
  2
Standard
  9
$DIMCLRD
 70
   256
  9
$DIMCLRE
 70
   256
  9
$DIMCLRT
 70
   256
  9
$DIMTFAC
 40
1.0
  9
$DIMGAP
 40
0.09
  9
$DIMJUST
 70
     0
  9
$DIMSD1
 70
     0
  9
$DIMSD2
 70
     0
  9
$DIMTOLJ
 70
     1
  9
$DIMTZIN
 70
     0
  9
$DIMALTZ
 70
     0
  9
$DIMALTTZ
 70
     0
  9
$DIMUPT
 70
     0
  9
$DIMDEC
 70
     4
  9
$DIMTDEC
 70
     4
  9
$DIMALTU
 70
     2
  9
$DIMALTTD
 70
     2
  9
$DIMTXSTY
  7
Standard
  9
$DIMAUNIT
 70
     0
  9
$DIMADEC
 70
     0
  9
$DIMALTRND
 40
0.0
  9
$DIMAZIN
 70
     0
  9
$DIMDSEP
 70
    46
  9
$DIMATFIT
 70
     3
  9
$DIMFRAC
 70
     0
  9
$DIMLDRBLK
  1

  9
$DIMLUNIT
 70
     2
  9
$DIMLWD
 70
    -1
  9
$DIMLWE
 70
    -1
  9
$DIMTMOVE
 70
     0
  9
$LUNITS
 70
     2
  9
$LUPREC
 70
     3
  9
$SKETCHINC
 40
0.1
  9
$FILLETRAD
 40
0.0
  9
$AUNITS
 70
     0
  9
$AUPREC
 70
     0
  9
$MENU
  1
.
  9
$ELEVATION
 40
0.0
  9
$PELEVATION
 40
0.0
  9
$THICKNESS
 40
0.0
  9
$LIMCHECK
 70
     0
  9
$CHAMFERA
 40
0.5
  9
$CHAMFERB
 40
0.5
  9
$CHAMFERC
 40
1.0
  9
$CHAMFERD
 40
0.0
  9
$SKPOLY
 70
     0
  9
$TDCREATE
 40
2452991.493947385
  9
$TDUCREATE
 40
2452991.785614051
  9
$TDUPDATE
 40
2455575.513564016
  9
$TDUUPDATE
 40
2455575.805230683
  9
$TDINDWG
 40
0.2599023843
  9
$TDUSRTIMER
 40
0.2599022106
  9
$USRTIMER
 70
     1
  9
$ANGBASE
 50
0.0
  9
$ANGDIR
 70
     0
  9
$PDMODE
 70
     0
  9
$PDSIZE
 40
0.0
  9
$PLINEWID
 40
0.0209
  9
$SPLFRAME
 70
     0
  9
$SPLINETYPE
 70
     6
  9
$SPLINESEGS
 70
     8
  9
$HANDSEED
  5
A6D
  9
$SURFTAB1
 70
     6
  9
$SURFTAB2
 70
     6
  9
$SURFTYPE
 70
     6
  9
$SURFU
 70
     6
  9
$SURFV
 70
     6
  9
$UCSBASE
  2

  9
$UCSNAME
  2

  9
$UCSORG
 10
0.0
 20
0.0
 30
0.0
  9
$UCSXDIR
 10
1.0
 20
0.0
 30
0.0
  9
$UCSYDIR
 10
0.0
 20
1.0
 30
0.0
  9
$UCSORTHOREF
  2

  9
$UCSORTHOVIEW
 70
     0
  9
$UCSORGTOP
 10
0.0
 20
0.0
 30
0.0
  9
$UCSORGBOTTOM
 10
0.0
 20
0.0
 30
0.0
  9
$UCSORGLEFT
 10
0.0
 20
0.0
 30
0.0
  9
$UCSORGRIGHT
 10
0.0
 20
0.0
 30
0.0
  9
$UCSORGFRONT
 10
0.0
 20
0.0
 30
0.0
  9
$UCSORGBACK
 10
0.0
 20
0.0
 30
0.0
  9
$PUCSBASE
  2

  9
$PUCSNAME
  2

  9
$PUCSORG
 10
0.0
 20
0.0
 30
0.0
  9
$PUCSXDIR
 10
1.0
 20
0.0
 30
0.0
  9
$PUCSYDIR
 10
0.0
 20
1.0
 30
0.0
  9
$PUCSORTHOREF
  2

  9
$PUCSORTHOVIEW
 70
     0
  9
$PUCSORGTOP
 10
0.0
 20
0.0
 30
0.0
  9
$PUCSORGBOTTOM
 10
0.0
 20
0.0
 30
0.0
  9
$PUCSORGLEFT
 10
0.0
 20
0.0
 30
0.0
  9
$PUCSORGRIGHT
 10
0.0
 20
0.0
 30
0.0
  9
$PUCSORGFRONT
 10
0.0
 20
0.0
 30
0.0
  9
$PUCSORGBACK
 10
0.0
 20
0.0
 30
0.0
  9
$USERI1
 70
     0
  9
$USERI2
 70
     0
  9
$USERI3
 70
     0
  9
$USERI4
 70
     0
  9
$USERI5
 70
     0
  9
$USERR1
 40
0.0
  9
$USERR2
 40
0.0
  9
$USERR3
 40
0.0
  9
$USERR4
 40
0.0
  9
$USERR5
 40
0.0
  9
$WORLDVIEW
 70
     1
  9
$SHADEDGE
 70
     3
  9
$SHADEDIF
 70
    70
  9
$TILEMODE
 70
     1
  9
$MAXACTVP
 70
    64
  9
$PINSBASE
 10
0.0
 20
0.0
 30
0.0
  9
$PLIMCHECK
 70
     0
  9
$PEXTMIN
 10
1.000000000000000E+20
 20
1.000000000000000E+20
 30
1.000000000000000E+20
  9
$PEXTMAX
 10
-1.000000000000000E+20
 20
-1.000000000000000E+20
 30
-1.000000000000000E+20
  9
$PLIMMIN
 10
0.0
 20
0.0
  9
$PLIMMAX
 10
12.0
 20
9.0
  9
$UNITMODE
 70
     0
  9
$VISRETAIN
 70
     1
  9
$PLINEGEN
 70
     1
  9
$PSLTSCALE
 70
     1
  9
$TREEDEPTH
 70
  3020
  9
$CMLSTYLE
  2
Standard
  9
$CMLJUST
 70
     0
  9
$CMLSCALE
 40
1.0
  9
$PROXYGRAPHICS
 70
     1
  9
$MEASUREMENT
 70
     0
  9
$CELWEIGHT
370
    -1
  9
$ENDCAPS
280
     0
  9
$JOINSTYLE
280
     0
  9
$LWDISPLAY
290
     0
  9
$INSUNITS
 70
     0
  9
$HYPERLINKBASE
  1
www.aquaengineering.com
  9
$STYLESHEET
  1
okicolorshaded.ctb
  9
$XEDIT
290
     1
  9
$CEPSNTYPE
380
     0
  9
$PSTYLEMODE
290
     1
  9
$FINGERPRINTGUID
  2
{5F0114B1-E6BE-460E-95A7-0F3FBB52E8A3}
  9
$VERSIONGUID
  2
{C4A95F6F-2D10-49A2-B1BD-1ED0663DDE08}
  9
$EXTNAMES
290
     1
  9
$PSVPSCALE
 40
0.0
  9
$OLESTARTUP
290
     1
  9
$SORTENTS
280
    48
  9
$INDEXCTL
280
     0
  9
$HIDETEXT
280
     1
  9
$XCLIPFRAME
290
     0
  9
$HALOGAP
280
     0
  9
$OBSCOLOR
 70
   257
  9
$OBSLTYPE
280
     0
  9
$INTERSECTIONDISPLAY
280
     0
  9
$INTERSECTIONCOLOR
 70
   257
  9
$DIMASSOC
280
     1
  9
$PROJECTNAME
  1

  0
ENDSEC
  0
SECTION
  2
CLASSES
  0
CLASS
  1
ACDBDICTIONARYWDFLT
  2
AcDbDictionaryWithDefault
  3
ObjectDBX Classes
 90
        0
 91
        1
280
     0
281
     0
  0
CLASS
  1
DICTIONARYVAR
  2
AcDbDictionaryVar
  3
ObjectDBX Classes
 90
        0
 91
       12
280
     0
281
     0
  0
CLASS
  1
TABLESTYLE
  2
AcDbTableStyle
  3
ObjectDBX Classes
 90
     4095
 91
        1
280
     0
281
     0
  0
CLASS
  1
MATERIAL
  2
AcDbMaterial
  3
ObjectDBX Classes
 90
     1153
 91
        3
280
     0
281
     0
  0
CLASS
  1
VISUALSTYLE
  2
AcDbVisualStyle
  3
ObjectDBX Classes
 90
     4095
 91
       16
280
     0
281
     0
  0
CLASS
  1
SCALE
  2
AcDbScale
  3
ObjectDBX Classes
 90
     1153
 91
       33
280
     0
281
     0
  0
CLASS
  1
MLEADERSTYLE
  2
AcDbMLeaderStyle
  3
ACDB_MLEADERSTYLE_CLASS
 90
     4095
 91
        1
280
     0
281
     0
  0
CLASS
  1
EXACXREFPANELOBJECT
  2
ExAcXREFPanelObject
  3
EXAC_ESW
 90
     1025
 91
        0
280
     0
281
     0
  0
CLASS
  1
NPOCOLLECTION
  2
AcDbImpNonPersistentObjectsCollection
  3
ObjectDBX Classes
 90
     1153
 91
        0
280
     0
281
     0
  0
CLASS
  1
CELLSTYLEMAP
  2
AcDbCellStyleMap
  3
ObjectDBX Classes
 90
     1152
 91
        7
280
     0
281
     0
  0
CLASS
  1
SORTENTSTABLE
  2
AcDbSortentsTable
  3
ObjectDBX Classes
 90
        0
 91
        2
280
     0
281
     0
  0
ENDSEC
  0
SECTION
  2
TABLES
  0
TABLE
  2
VPORT
  5
8
330
0
100
AcDbSymbolTable
 70
     1
  0
VPORT
  5
8CE
330
8
100
AcDbSymbolTableRecord
100
AcDbViewportTableRecord
  2
*Active
 70
     0
 10
0.0
 20
0.0
 11
1.0
 21
1.0
 12
8.244999999999997
 22
5.219999999999999
 13
0.0
 23
0.0
 14
0.5
 24
0.5
 15
0.5
 25
0.5
 16
0.0
 26
0.0
 36
1.0
 17
0.0
 27
0.0
 37
0.0
 40
10.53157894736842
 41
2.281112737920937
 42
50.0
 43
0.0
 44
0.0
 50
0.0
 51
0.0
 71
     0
 72
  1000
 73
     1
 74
     3
 75
     0
 76
     0
 77
     0
 78
     0
281
     0
 65
     1
110
0.0
120
0.0
130
0.0
111
1.0
121
0.0
131
0.0
112
0.0
122
1.0
132
0.0
 79
     0
146
0.0
  0
ENDTAB
  0
TABLE
  2
LTYPE
  5
5
330
0
100
AcDbSymbolTable
 70
     1
  0
LTYPE
  5
14
330
5
100
AcDbSymbolTableRecord
100
AcDbLinetypeTableRecord
  2
ByBlock
 70
     0
  3

 72
    65
 73
     0
 40
0.0
  0
LTYPE
  5
15
330
5
100
AcDbSymbolTableRecord
100
AcDbLinetypeTableRecord
  2
ByLayer
 70
     0
  3

 72
    65
 73
     0
 40
0.0
  0
LTYPE
  5
16
330
5
100
AcDbSymbolTableRecord
100
AcDbLinetypeTableRecord
  2
Continuous
 70
     0
  3
Solid line
 72
    65
 73
     0
 40
0.0
  0
ENDTAB
  0
TABLE
  2
LAYER
  5
2
102
{ACAD_XDICTIONARY
360
AF
102
}
330
0
100
AcDbSymbolTable
 70
     5
  0
LAYER
  5
10
330
2
100
AcDbSymbolTableRecord
100
AcDbLayerTableRecord
  2
0
 70
     0
 62
     7
  6
Continuous
370
    -3
390
F
  0
LAYER
  5
AD
330
2
100
AcDbSymbolTableRecord
100
AcDbLayerTableRecord
  2
image
 70
     0
 62
     7
  6
Continuous
370
    -3
390
F
  0
LAYER
  5
67A
330
2
100
AcDbSymbolTableRecord
100
AcDbLayerTableRecord
  2
text_bubbles
 70
     0
 62
     6
  6
Continuous
370
    -3
390
F
  0
LAYER
  5
84D
330
2
100
AcDbSymbolTableRecord
100
AcDbLayerTableRecord
  2
title
 70
     0
 62
     4
  6
Continuous
370
    -3
390
F
  0
ENDTAB
  0
TABLE
  2
STYLE
  5
3
330
0
100
AcDbSymbolTable
 70
     5
  0
STYLE
  5
11
330
3
100
AcDbSymbolTableRecord
100
AcDbTextStyleTableRecord
  2
Standard
 70
     0
 40
0.0
 41
1.0
 50
0.0
 71
     0
 42
0.2
  3
txt
  4

  0
STYLE
  5
AE
330
3
100
AcDbSymbolTableRecord
100
AcDbTextStyleTableRecord
  2
ROMANS
 70
     0
 40
0.0
 41
1.0
 50
0.0
 71
     0
 42
0.125
  3
romans.shx
  4

  0
STYLE
  5
84E
330
3
100
AcDbSymbolTableRecord
100
AcDbTextStyleTableRecord
  2
L100
 70
     0
 40
0.1
 41
1.0
 50
0.0
 71
     0
 42
0.1
  3
romans.shx
  4

  0
STYLE
  5
84F
330
3
100
AcDbSymbolTableRecord
100
AcDbTextStyleTableRecord
  2
L200
 70
     0
 40
0.2
 41
1.0
 50
0.0
 71
     0
 42
0.081
  3
ARIAL.TTF
  4

1001
ACAD
1000
Arial
1071
       34
  0
STYLE
  5
850
330
3
100
AcDbSymbolTableRecord
100
AcDbTextStyleTableRecord
  2
L80
 70
     0
 40
0.08
 41
1.0
 50
0.0
 71
     0
 42
0.08
  3
ROMANS
  4

  0
ENDTAB
  0
TABLE
  2
VIEW
  5
6
330
0
100
AcDbSymbolTable
 70
     0
  0
ENDTAB
  0
TABLE
  2
UCS
  5
7
330
0
100
AcDbSymbolTable
 70
     0
  0
ENDTAB
  0
TABLE
  2
APPID
  5
9
330
0
100
AcDbSymbolTable
 70
    36
  0
APPID
  5
12
330
9
100
AcDbSymbolTableRecord
100
AcDbRegAppTableRecord
  2
ACAD
 70
     0
  0
APPID
  5
39
330
9
100
AcDbSymbolTableRecord
100
AcDbRegAppTableRecord
  2
WID_Sprinkler
 70
     0
  0
APPID
  5
3A
330
9
100
AcDbSymbolTableRecord
100
AcDbRegAppTableRecord
  2
WID_Valve
 70
     0
  0
APPID
  5
3B
330
9
100
AcDbSymbolTableRecord
100
AcDbRegAppTableRecord
  2
WID_Fitting
 70
     0
  0
APPID
  5
3C
330
9
100
AcDbSymbolTableRecord
100
AcDbRegAppTableRecord
  2
WID_HPNode
 70
     0
  0
APPID
  5
3D
330
9
100
AcDbSymbolTableRecord
100
AcDbRegAppTableRecord
  2
WID_Node
 70
     0
  0
APPID
  5
3E
330
9
100
AcDbSymbolTableRecord
100
AcDbRegAppTableRecord
  2
WID_Conduit
 70
     0
  0
APPID
  5
3F
330
9
100
AcDbSymbolTableRecord
100
AcDbRegAppTableRecord
  2
WID_SprinklerSection
 70
     0
  0
APPID
  5
40
330
9
100
AcDbSymbolTableRecord
100
AcDbRegAppTableRecord
  2
WID_MainLineSection
 70
     0
  0
APPID
  5
41
330
9
100
AcDbSymbolTableRecord
100
AcDbRegAppTableRecord
  2
WID_ManifoldSection
 70
     0
  0
APPID
  5
42
330
9
100
AcDbSymbolTableRecord
100
AcDbRegAppTableRecord
  2
WID_DripSection
 70
     0
  0
APPID
  5
43
330
9
100
AcDbSymbolTableRecord
100
AcDbRegAppTableRecord
  2
WID_HPSection
 70
     0
  0
APPID
  5
44
330
9
100
AcDbSymbolTableRecord
100
AcDbRegAppTableRecord
  2
WID_Sleeve
 70
     0
  0
APPID
  5
45
330
9
100
AcDbSymbolTableRecord
100
AcDbRegAppTableRecord
  2
WID_Layout
 70
     0
  0
APPID
  5
46
330
9
100
AcDbSymbolTableRecord
100
AcDbRegAppTableRecord
  2
WID_Island
 70
     0
  0
APPID
  5
47
330
9
100
AcDbSymbolTableRecord
100
AcDbRegAppTableRecord
  2
WID_Controller
 70
     0
  0
APPID
  5
48
330
9
100
AcDbSymbolTableRecord
100
AcDbRegAppTableRecord
  2
WID_SprinklerLateral
 70
     0
  0
APPID
  5
49
330
9
100
AcDbSymbolTableRecord
100
AcDbRegAppTableRecord
  2
WID_HPDripLateral
 70
     0
  0
APPID
  5
4A
330
9
100
AcDbSymbolTableRecord
100
AcDbRegAppTableRecord
  2
WID_LabelPipeSize
 70
     0
  0
APPID
  5
4B
330
9
100
AcDbSymbolTableRecord
100
AcDbRegAppTableRecord
  2
WID_LabelPipeSegment
 70
     0
  0
APPID
  5
4C
330
9
100
AcDbSymbolTableRecord
100
AcDbRegAppTableRecord
  2
WID_LabelValveDesignator
 70
     0
  0
APPID
  5
4D
330
9
100
AcDbSymbolTableRecord
100
AcDbRegAppTableRecord
  2
WID_CheckArc
 70
     0
  0
APPID
  5
4E
330
9
100
AcDbSymbolTableRecord
100
AcDbRegAppTableRecord
  2
WID_ObjectType
 70
     0
  0
APPID
  5
67
330
9
100
AcDbSymbolTableRecord
100
AcDbRegAppTableRecord
  2
WID_DripLateral
 70
     0
  0
APPID
  5
851
330
9
100
AcDbSymbolTableRecord
100
AcDbRegAppTableRecord
  2
RAK
 70
     0
  0
APPID
  5
852
330
9
100
AcDbSymbolTableRecord
100
AcDbRegAppTableRecord
  2
DCO15
 70
     0
  0
APPID
  5
8B4
330
9
100
AcDbSymbolTableRecord
100
AcDbRegAppTableRecord
  2
BBSI_PltSel
 70
     0
  0
APPID
  5
8B5
330
9
100
AcDbSymbolTableRecord
100
AcDbRegAppTableRecord
  2
BBSI_Plots
 70
     0
  0
APPID
  5
8B6
330
9
100
AcDbSymbolTableRecord
100
AcDbRegAppTableRecord
  2
BBSI_Bookmarks
 70
     0
  0
APPID
  5
8B7
330
9
100
AcDbSymbolTableRecord
100
AcDbRegAppTableRecord
  2
BBSI_StampsEx
 70
     0
  0
APPID
  5
8B8
330
9
100
AcDbSymbolTableRecord
100
AcDbRegAppTableRecord
  2
BBSI_Attachs
 70
     0
  0
APPID
  5
8B9
330
9
100
AcDbSymbolTableRecord
100
AcDbRegAppTableRecord
  2
BBSI_DigSigs
 70
     0
  0
APPID
  5
8BA
330
9
100
AcDbSymbolTableRecord
100
AcDbRegAppTableRecord
  2
ACAD_PSEXT
 70
     0
  0
APPID
  5
91D
330
9
100
AcDbSymbolTableRecord
100
AcDbRegAppTableRecord
  2
ACAD_MLEADERVER
 70
     0
  0
APPID
  5
958
330
9
100
AcDbSymbolTableRecord
100
AcDbRegAppTableRecord
  2
ACAD_EXEMPT_FROM_CAD_STANDARDS
 70
     0
  0
APPID
  5
97D
330
9
100
AcDbSymbolTableRecord
100
AcDbRegAppTableRecord
  2
BBSI_BookmarksEx
 70
     0
  0
ENDTAB
  0
TABLE
  2
DIMSTYLE
  5
A
330
0
100
AcDbSymbolTable
 70
     1
100
AcDbDimStyleTable
 71
     0
  0
DIMSTYLE
105
27
330
A
100
AcDbSymbolTableRecord
100
AcDbDimStyleTableRecord
  2
Standard
 70
     0
340
11
  0
ENDTAB
  0
TABLE
  2
BLOCK_RECORD
  5
1
330
0
100
AcDbSymbolTable
 70
     6
  0
BLOCK_RECORD
  5
1F
102
{ACAD_XDICTIONARY
360
A24
102
}
330
1
100
AcDbSymbolTableRecord
100
AcDbBlockTableRecord
  2
*Model_Space
340
22
  0
BLOCK_RECORD
  5
1B
330
1
100
AcDbSymbolTableRecord
100
AcDbBlockTableRecord
  2
*Paper_Space
340
1E
  0
BLOCK_RECORD
  5
23
330
1
100
AcDbSymbolTableRecord
100
AcDbBlockTableRecord
  2
*Paper_Space0
340
26
  0
BLOCK_RECORD
  5
4D0
330
1
100
AcDbSymbolTableRecord
100
AcDbBlockTableRecord
  2
ELLIPSE
340
0
102
{BLKREFS
331
5DB
331
5DC
331
5DD
331
5DE
331
5DF
331
5E0
331
5E1
331
5E2
331
5E3
331
5E4
331
5E5
331
5E6
331
5E7
331
610
331
611
331
612
331
613
331
614
331
615
331
616
331
617
331
618
331
619
331
61A
331
61B
331
61C
331
61D
331
61E
331
61F
331
620
331
621
331
622
331
623
331
624
331
625
331
626
331
627
331
628
331
629
331
62A
331
62B
331
62C
331
62E
331
62F
331
630
331
632
331
633
331
634
331
635
331
637
331
638
331
63C
331
63D
331
63E
102
}
  0
BLOCK_RECORD
  5
4D4
330
1
100
AcDbSymbolTableRecord
100
AcDbBlockTableRecord
  2
*X2
340
0
102
{BLKREFS
331
5EA
102
}
  0
BLOCK_RECORD
  5
516
330
1
100
AcDbSymbolTableRecord
100
AcDbBlockTableRecord
  2
*X3
340
0
102
{BLKREFS
331
5E8
102
}
  0
BLOCK_RECORD
  5
675
330
1
100
AcDbSymbolTableRecord
100
AcDbBlockTableRecord
  2
bubble
340
0
310
2800000020000000200000000100080000000000000400000000000000000000000000000000000000000000000080000080000000808000800000008000800080800000C0C0C000C0DCC000F0CAA6000020400000206000002080000020A0000020C0000020E00000400000004020000040400000406000004080000040A0
310
000040C0000040E00000600000006020000060400000606000006080000060A0000060C0000060E00000800000008020000080400000806000008080000080A0000080C0000080E00000A0000000A0200000A0400000A0600000A0800000A0A00000A0C00000A0E00000C0000000C0200000C0400000C0600000C0800000C0
310
A00000C0C00000C0E00000E0000000E0200000E0400000E0600000E0800000E0A00000E0C00000E0E00040000000400020004000400040006000400080004000A0004000C0004000E00040200000402020004020400040206000402080004020A0004020C0004020E000404000004040200040404000404060004040800040
310
40A0004040C0004040E00040600000406020004060400040606000406080004060A0004060C0004060E00040800000408020004080400040806000408080004080A0004080C0004080E00040A0000040A0200040A0400040A0600040A0800040A0A00040A0C00040A0E00040C0000040C0200040C0400040C0600040C08000
310
40C0A00040C0C00040C0E00040E0000040E0200040E0400040E0600040E0800040E0A00040E0C00040E0E00080000000800020008000400080006000800080008000A0008000C0008000E00080200000802020008020400080206000802080008020A0008020C0008020E00080400000804020008040400080406000804080
310
008040A0008040C0008040E00080600000806020008060400080606000806080008060A0008060C0008060E00080800000808020008080400080806000808080008080A0008080C0008080E00080A0000080A0200080A0400080A0600080A0800080A0A00080A0C00080A0E00080C0000080C0200080C0400080C0600080C0
310
800080C0A00080C0C00080C0E00080E0000080E0200080E0400080E0600080E0800080E0A00080E0C00080E0E000C0000000C0002000C0004000C0006000C0008000C000A000C000C000C000E000C0200000C0202000C0204000C0206000C0208000C020A000C020C000C020E000C0400000C0402000C0404000C0406000C0
310
408000C040A000C040C000C040E000C0600000C0602000C0604000C0606000C0608000C060A000C060C000C060E000C0800000C0802000C0804000C0806000C0808000C080A000C080C000C080E000C0A00000C0A02000C0A04000C0A06000C0A08000C0A0A000C0A0C000C0A0E000C0C00000C0C02000C0C04000C0C06000
310
C0C08000C0C0A000F0FBFF00A4A0A000808080000000FF0000FF000000FFFF00FF000000FF00FF00FFFF0000FFFFFF0008080808080808080808080808080808080808080808080808080808080808080808080808080808080808080808080808080808080808080808080808080808080808080808080808080808FDFDFD
310
08080808080808080808080808080808080808080808080808080808FD080808FDFDFDFDFDFD0808080808080808080808080808080808080808FDFD08080808080808080808FDFDFDFD080808080808080808080808080808FD08080808080808080808080808080808FD08080808080808080808080808FD080808080808
310
0808080808080808080808FD0808080808080808080808FDFD08080808080808080808080808080808080808FD080808080808080808FD080808080808080808080808080808080808080808FD0808080808080808FD08FD0808080808080808FD0808FD0808080808080808FDFD08080808080808FD0808FD080808080808
310
FD08080808FD080808080808FD08FD08080808080808FD0808FD080808080808FD08080808FD080808080808FD0808FD080808080808FD080808FD08080808FD080808080808FD08080808FD080808FD080808080808FD08080808FD0808FD0808080808080808FD0808FD0808080808FD0808080808FD08080808FD0808FD
310
0808080808080808FD0808FD0808080808FD0808080808FD0808080808FDFD08080808080808080808FDFD08080808080808FD08080808FD0808080808FDFD08080808080808080808FDFD08080808080808FD08080808FD08080808FD0808FD0808080808080808FD0808FD0808080808FD0808080808FD08080808FD0808
310
FD0808080808080808FD0808FD0808080808FD0808080808FD080808FD08080808FD080808080808FD08080808FD080808FD080808080808FD0808FD080808080808FD08080808FD080808080808FD0808FD080808080808FD0808FD080808080808FD08080808FD080808080808FD08FD08080808080808FD08FD08080808
310
08080808FD0808FD0808080808080808FDFD0808080808080808FD080808080808080808080808080808080808080808FD08080808080808080808FDFD08080808080808080808080808080808080808FD080808080808080808080808FD0808080808080808080808080808080808FD0808080808080808080808080808FD
310
08080808080808080808080808080808FD080808080808080808080808080808FDFD0808080808080808080808FDFDFD080808080808080808080808080808080808FD08080808FDFDFDFDFDFD08080808080808080808080808080808080808080808FDFDFDFD080808080808080808080808080808080808080808080808
310
0808080808080808080808080808080808080808080808080808080808080808080808080808080808080808080808080808080808080808
102
{BLKREFS
331
6DA
331
6DD
331
6E0
331
6E3
331
6E6
331
6E9
331
6EC
331
6EF
331
6F2
331
6F5
331
6F8
331
71F
331
728
331
739
331
73D
331
740
331
743
331
746
331
749
331
74C
331
74F
331
752
331
81E
331
825
102
}
  0
BLOCK_RECORD
  5
853
102
{ACAD_XDICTIONARY
360
A32
102
}
330
1
100
AcDbSymbolTableRecord
100
AcDbBlockTableRecord
  2
titleblock
340
0
102
{BLKREFS
331
862
102
}
  0
ENDTAB
  0
ENDSEC
  0
SECTION
  2
BLOCKS
  0
BLOCK
  5
20
330
1F
100
AcDbEntity
  8
0
100
AcDbBlockBegin
  2
*Model_Space
 70
     0
 10
0.0
 20
0.0
 30
0.0
  3
*Model_Space
  1

  0
ENDBLK
  5
21
330
1F
100
AcDbEntity
  8
0
100
AcDbBlockEnd
  0
BLOCK
  5
1C
330
1B
100
AcDbEntity
 67
     1
  8
0
100
AcDbBlockBegin
  2
*Paper_Space
 70
     0
 10
0.0
 20
0.0
 30
0.0
  3
*Paper_Space
  1

  0
ENDBLK
  5
1D
330
1B
100
AcDbEntity
 67
     1
  8
0
100
AcDbBlockEnd
  0
BLOCK
  5
24
330
23
100
AcDbEntity
 67
     1
  8
0
100
AcDbBlockBegin
  2
*Paper_Space0
 70
     0
 10
0.0
 20
0.0
 30
0.0
  3
*Paper_Space0
  1

  0
ENDBLK
  5
25
330
23
100
AcDbEntity
 67
     1
  8
0
100
AcDbBlockEnd
  0
BLOCK
  5
4D2
330
4D0
100
AcDbEntity
  8
0
100
AcDbBlockBegin
  2
ELLIPSE
 70
     0
 10
0.0
 20
0.0
 30
0.0
  3
ELLIPSE
  1

  0
CIRCLE
  5
4D1
330
4D0
100
AcDbEntity
  8
0
100
AcDbCircle
 10
0.5
 20
0.5
 30
0.0
 40
0.5
  0
ENDBLK
  5
4D3
330
4D0
100
AcDbEntity
  8
0
100
AcDbBlockEnd
  0
BLOCK
  5
514
330
4D4
100
AcDbEntity
  8
0
100
AcDbBlockBegin
  2
*X2
 70
     1
 10
0.0
 20
0.0
 30
0.0
  3
*X2
  1

  0
LINE
  5
4D5
330
4D4
100
AcDbEntity
  8
0
 62
     0
100
AcDbLine
 10
3.712310601229374
 20
8.485281374238569
 30
0.0
 11
3.800698948877692
 21
8.573669721886888
 31
0.0
  0
LINE
  5
4D6
330
4D4
100
AcDbEntity
  8
0
 62
     0
100
AcDbLine
 10
3.889087296526011
 20
8.662058069535207
 30
0.0
 11
3.977475644174329
 21
8.750446417183527
 31
0.0
  0
LINE
  5
4D7
330
4D4
100
AcDbEntity
  8
0
 62
     0
100
AcDbLine
 10
3.535533905932737
 20
8.485281374238569
 30
0.0
 11
3.623922253581055
 21
8.573669721886888
 31
0.0
  0
LINE
  5
4D8
330
4D4
100
AcDbEntity
  8
0
 62
     0
100
AcDbLine
 10
3.712310601229373
 20
8.662058069535207
 30
0.0
 11
3.800698948877692
 21
8.750446417183527
 31
0.0
  0
LINE
  5
4D9
330
4D4
100
AcDbEntity
  8
0
 62
     0
100
AcDbLine
 10
3.88908729652601
 20
8.838834764831846
 30
0.0
 11
3.94829707583411
 21
8.898044544139946
 31
0.0
  0
LINE
  5
4DA
330
4D4
100
AcDbEntity
  8
0
 62
     0
100
AcDbLine
 10
3.535533905932738
 20
8.662058069535207
 30
0.0
 11
3.623922253581056
 21
8.750446417183527
 31
0.0
  0
LINE
  5
4DB
330
4D4
100
AcDbEntity
  8
0
 62
     0
100
AcDbLine
 10
3.712310601229374
 20
8.838834764831846
 30
0.0
 11
3.771520380537474
 21
8.898044544139946
 31
0.0
  0
LINE
  5
4DC
330
4D4
100
AcDbEntity
  8
0
 62
     0
100
AcDbLine
 10
3.445666420590246
 20
8.748967279489352
 30
0.0
 11
3.447145558284419
 21
8.750446417183525
 31
0.0
  0
LINE
  5
4DD
330
4D4
100
AcDbEntity
  8
0
 62
     0
100
AcDbLine
 10
3.535533905932737
 20
8.838834764831844
 30
0.0
 11
3.594743685240837
 21
8.898044544139944
 31
0.0
  0
LINE
  5
4DE
330
4D4
100
AcDbEntity
  8
0
 62
     0
100
AcDbLine
 10
3.889087296526011
 20
8.485281374238571
 30
0.0
 11
3.977475644174329
 21
8.57366972188689
 31
0.0
  0
LINE
  5
4DF
330
4D4
100
AcDbEntity
  8
0
 62
     0
100
AcDbLine
 10
3.679164970861255
 20
8.518427004606689
 30
0.0
 11
3.767553318509573
 21
8.606815352255008
 31
0.0
  0
LINE
  5
4E0
330
4D4
100
AcDbEntity
  8
0
 62
     0
100
AcDbLine
 10
3.855941666157892
 20
8.695203699903327
 30
0.0
 11
3.94433001380621
 21
8.783592047551646
 31
0.0
  0
LINE
  5
4E1
330
4D4
100
AcDbEntity
  8
0
 62
     0
100
AcDbLine
 10
3.502388275564618
 20
8.518427004606689
 30
0.0
 11
3.590776623212936
 21
8.606815352255008
 31
0.0
  0
LINE
  5
4E2
330
4D4
100
AcDbEntity
  8
0
 62
     0
100
AcDbLine
 10
3.679164970861254
 20
8.695203699903327
 30
0.0
 11
3.767553318509572
 21
8.783592047551646
 31
0.0
  0
LINE
  5
4E3
330
4D4
100
AcDbEntity
  8
0
 62
     0
100
AcDbLine
 10
3.855941666157891
 20
8.871980395199965
 30
0.0
 11
3.882005815097871
 21
8.898044544139946
 31
0.0
  0
LINE
  5
4E4
330
4D4
100
AcDbEntity
  8
0
 62
     0
100
AcDbLine
 10
3.502388275564618
 20
8.695203699903327
 30
0.0
 11
3.590776623212936
 21
8.783592047551646
 31
0.0
  0
LINE
  5
4E5
330
4D4
100
AcDbEntity
  8
0
 62
     0
100
AcDbLine
 10
3.679164970861255
 20
8.871980395199965
 30
0.0
 11
3.705229119801235
 21
8.898044544139946
 31
0.0
  0
LINE
  5
4E6
330
4D4
100
AcDbEntity
  8
0
 62
     0
100
AcDbLine
 10
3.502388275564618
 20
8.871980395199964
 30
0.0
 11
3.528452424504599
 21
8.898044544139944
 31
0.0
  0
LINE
  5
4E7
330
4D4
100
AcDbEntity
  8
0
 62
     0
100
AcDbLine
 10
3.855941666157892
 20
8.518427004606689
 30
0.0
 11
3.94433001380621
 21
8.606815352255008
 31
0.0
  0
LINE
  5
4E8
330
4D4
100
AcDbEntity
  8
0
 62
     0
100
AcDbLine
 10
3.532364955075066
 20
8.437918249556739
 30
0.0
 11
3.557630992844817
 21
8.463184287326489
 31
0.0
  0
LINE
  5
4E9
330
4D4
100
AcDbEntity
  8
0
 62
     0
100
AcDbLine
 10
3.646019340493135
 20
8.551572634974808
 30
0.0
 11
3.734407688141454
 21
8.639960982623128
 31
0.0
  0
LINE
  5
4EA
330
4D4
100
AcDbEntity
  8
0
 62
     0
100
AcDbLine
 10
3.822796035789772
 20
8.728349330271447
 30
0.0
 11
3.91118438343809
 21
8.816737677919766
 31
0.0
  0
LINE
  5
4EB
330
4D4
100
AcDbEntity
  8
0
 62
     0
100
AcDbLine
 10
3.469242645196499
 20
8.551572634974808
 30
0.0
 11
3.557630992844817
 21
8.639960982623128
 31
0.0
  0
LINE
  5
4EC
330
4D4
100
AcDbEntity
  8
0
 62
     0
100
AcDbLine
 10
3.646019340493135
 20
8.728349330271447
 30
0.0
 11
3.734407688141454
 21
8.816737677919766
 31
0.0
  0
LINE
  5
4ED
330
4D4
100
AcDbEntity
  8
0
 62
     0
100
AcDbLine
 10
3.469242645196498
 20
8.728349330271445
 30
0.0
 11
3.557630992844817
 21
8.816737677919764
 31
0.0
  0
LINE
  5
4EE
330
4D4
100
AcDbEntity
  8
0
 62
     0
100
AcDbLine
 10
3.69168324892849
 20
8.420459848113527
 30
0.0
 11
3.734407688141454
 21
8.463184287326491
 31
0.0
  0
LINE
  5
4EF
330
4D4
100
AcDbEntity
  8
0
 62
     0
100
AcDbLine
 10
3.822796035789772
 20
8.55157263497481
 30
0.0
 11
3.91118438343809
 21
8.639960982623129
 31
0.0
  0
LINE
  5
4F0
330
4D4
100
AcDbEntity
  8
0
 62
     0
100
AcDbLine
 10
3.999572731086408
 20
8.728349330271448
 30
0.0
 11
4.006818659779136
 21
8.735595258964176
 31
0.0
  0
LINE
  5
4F1
330
4D4
100
AcDbEntity
  8
0
 62
     0
100
AcDbLine
 10
3.888785312402934
 20
8.440785216291333
 30
0.0
 11
3.911184383438091
 21
8.463184287326489
 31
0.0
  0
LINE
  5
4F2
330
4D4
100
AcDbEntity
  8
0
 62
     0
100
AcDbLine
 10
3.770433825427904
 20
8.449255236952119
 30
0.0
 11
3.734407688141452
 21
8.485281374238571
 31
0.0
  0
LINE
  5
4F3
330
4D4
100
AcDbEntity
  8
0
 62
     0
100
AcDbLine
 10
3.646019340493134
 20
8.57366972188689
 30
0.0
 11
3.557630992844816
 21
8.662058069535209
 31
0.0
  0
LINE
  5
4F4
330
4D4
100
AcDbEntity
  8
0
 62
     0
100
AcDbLine
 10
3.469242645196497
 20
8.750446417183528
 30
0.0
 11
3.444577965998586
 21
8.77511109638144
 31
0.0
  0
LINE
  5
4F5
330
4D4
100
AcDbEntity
  8
0
 62
     0
100
AcDbLine
 10
3.615226699844925
 20
8.427685667238462
 30
0.0
 11
3.557630992844815
 21
8.485281374238571
 31
0.0
  0
LINE
  5
4F6
330
4D4
100
AcDbEntity
  8
0
 62
     0
100
AcDbLine
 10
3.469242645196497
 20
8.57366972188689
 30
0.0
 11
3.452257495968546
 21
8.590654871114841
 31
0.0
  0
LINE
  5
4F7
330
4D4
100
AcDbEntity
  8
0
 62
     0
100
AcDbLine
 10
3.929442384574172
 20
8.467023373102486
 30
0.0
 11
3.911184383438088
 21
8.485281374238571
 31
0.0
  0
LINE
  5
4F8
330
4D4
100
AcDbEntity
  8
0
 62
     0
100
AcDbLine
 10
3.82279603578977
 20
8.57366972188689
 30
0.0
 11
3.734407688141452
 21
8.662058069535209
 31
0.0
  0
LINE
  5
4F9
330
4D4
100
AcDbEntity
  8
0
 62
     0
100
AcDbLine
 10
3.646019340493134
 20
8.750446417183528
 30
0.0
 11
3.557630992844815
 21
8.838834764831847
 31
0.0
  0
LINE
  5
4FA
330
4D4
100
AcDbEntity
  8
0
 62
     0
100
AcDbLine
 10
3.995147133285459
 20
8.578095319687836
 30
0.0
 11
3.911184383438088
 21
8.662058069535207
 31
0.0
  0
LINE
  5
4FB
330
4D4
100
AcDbEntity
  8
0
 62
     0
100
AcDbLine
 10
3.82279603578977
 20
8.750446417183527
 30
0.0
 11
3.734407688141451
 21
8.838834764831846
 31
0.0
  0
LINE
  5
4FC
330
4D4
100
AcDbEntity
  8
0
 62
     0
100
AcDbLine
 10
3.999572731086407
 20
8.750446417183527
 30
0.0
 11
3.911184383438089
 21
8.838834764831846
 31
0.0
  0
LINE
  5
4FD
330
4D4
100
AcDbEntity
  8
0
 62
     0
100
AcDbLine
 10
3.818975627841825
 20
8.467004695274436
 30
0.0
 11
3.767553318509571
 21
8.51842700460669
 31
0.0
  0
LINE
  5
4FE
330
4D4
100
AcDbEntity
  8
0
 62
     0
100
AcDbLine
 10
3.679164970861253
 20
8.60681535225501
 30
0.0
 11
3.590776623212935
 21
8.695203699903329
 31
0.0
  0
LINE
  5
4FF
330
4D4
100
AcDbEntity
  8
0
 62
     0
100
AcDbLine
 10
3.502388275564617
 20
8.783592047551648
 30
0.0
 11
3.441698142259851
 21
8.844282180856414
 31
0.0
  0
LINE
  5
500
330
4D4
100
AcDbEntity
  8
0
 62
     0
100
AcDbLine
 10
3.679164970861252
 20
8.430038656958371
 30
0.0
 11
3.590776623212934
 21
8.51842700460669
 31
0.0
  0
LINE
  5
501
330
4D4
100
AcDbEntity
  8
0
 62
     0
100
AcDbLine
 10
3.502388275564616
 20
8.60681535225501
 30
0.0
 11
3.44937767222981
 21
8.659825955589814
 31
0.0
  0
LINE
  5
502
330
4D4
100
AcDbEntity
  8
0
 62
     0
100
AcDbLine
 10
3.463526645447383
 20
8.468900287075603
 30
0.0
 11
3.457057202199768
 21
8.475369730323219
 31
0.0
  0
LINE
  5
503
330
4D4
100
AcDbEntity
  8
0
 62
     0
100
AcDbLine
 10
3.954081665340905
 20
8.508675353071993
 30
0.0
 11
3.944330013806208
 21
8.51842700460669
 31
0.0
  0
LINE
  5
504
330
4D4
100
AcDbEntity
  8
0
 62
     0
100
AcDbLine
 10
3.855941666157889
 20
8.60681535225501
 30
0.0
 11
3.767553318509571
 21
8.695203699903329
 31
0.0
  0
LINE
  5
505
330
4D4
100
AcDbEntity
  8
0
 62
     0
100
AcDbLine
 10
3.679164970861253
 20
8.783592047551648
 30
0.0
 11
3.590776623212935
 21
8.871980395199967
 31
0.0
  0
LINE
  5
506
330
4D4
100
AcDbEntity
  8
0
 62
     0
100
AcDbLine
 10
4.002342181286541
 20
8.637191532422992
 30
0.0
 11
3.944330013806207
 21
8.695203699903327
 31
0.0
  0
LINE
  5
507
330
4D4
100
AcDbEntity
  8
0
 62
     0
100
AcDbLine
 10
3.855941666157888
 20
8.783592047551646
 30
0.0
 11
3.76755331850957
 21
8.871980395199965
 31
0.0
  0
LINE
  5
508
330
4D4
100
AcDbEntity
  8
0
 62
     0
100
AcDbLine
 10
3.97297269715678
 20
8.843337711849391
 30
0.0
 11
3.944330013806208
 21
8.871980395199964
 31
0.0
  0
LINE
  5
509
330
4D4
100
AcDbEntity
  8
0
 62
     0
100
AcDbLine
 10
3.889087296526008
 20
8.463184287326491
 30
0.0
 11
3.800698948877689
 21
8.55157263497481
 31
0.0
  0
LINE
  5
50A
330
4D4
100
AcDbEntity
  8
0
 62
     0
100
AcDbLine
 10
3.712310601229371
 20
8.639960982623129
 30
0.0
 11
3.623922253581053
 21
8.728349330271448
 31
0.0
  0
LINE
  5
50B
330
4D4
100
AcDbEntity
  8
0
 62
     0
100
AcDbLine
 10
3.535533905932735
 20
8.816737677919768
 30
0.0
 11
3.454227039712556
 21
8.898044544139946
 31
0.0
  0
LINE
  5
50C
330
4D4
100
AcDbEntity
  8
0
 62
     0
100
AcDbLine
 10
3.712310601229372
 20
8.463184287326491
 30
0.0
 11
3.623922253581054
 21
8.55157263497481
 31
0.0
  0
LINE
  5
50D
330
4D4
100
AcDbEntity
  8
0
 62
     0
100
AcDbLine
 10
3.535533905932736
 20
8.639960982623129
 30
0.0
 11
3.447145558284418
 21
8.728349330271448
 31
0.0
  0
LINE
  5
50E
330
4D4
100
AcDbEntity
  8
0
 62
     0
100
AcDbLine
 10
3.535533905932735
 20
8.463184287326491
 30
0.0
 11
3.454177378461033
 21
8.544540814798192
 31
0.0
  0
LINE
  5
50F
330
4D4
100
AcDbEntity
  8
0
 62
     0
100
AcDbLine
 10
3.978720946107638
 20
8.550327333041497
 30
0.0
 11
3.977475644174327
 21
8.551572634974808
 31
0.0
  0
LINE
  5
510
330
4D4
100
AcDbEntity
  8
0
 62
     0
100
AcDbLine
 10
3.889087296526009
 20
8.639960982623128
 30
0.0
 11
3.80069894887769
 21
8.728349330271447
 31
0.0
  0
LINE
  5
511
330
4D4
100
AcDbEntity
  8
0
 62
     0
100
AcDbLine
 10
3.712310601229372
 20
8.816737677919766
 30
0.0
 11
3.631003735009194
 21
8.898044544139944
 31
0.0
  0
LINE
  5
512
330
4D4
100
AcDbEntity
  8
0
 62
     0
100
AcDbLine
 10
4.005226617634966
 20
8.700598356810807
 30
0.0
 11
3.977475644174327
 21
8.728349330271447
 31
0.0
  0
LINE
  5
513
330
4D4
100
AcDbEntity
  8
0
 62
     0
100
AcDbLine
 10
3.889087296526009
 20
8.816737677919766
 30
0.0
 11
3.80778043030583
 21
8.898044544139944
 31
0.0
  0
ENDBLK
  5
515
330
4D4
100
AcDbEntity
  8
0
100
AcDbBlockEnd
  0
BLOCK
  5
553
330
516
100
AcDbEntity
  8
0
100
AcDbBlockBegin
  2
*X3
 70
     1
 10
0.0
 20
0.0
 30
0.0
  3
*X3
  1

  0
LINE
  5
517
330
516
100
AcDbEntity
  8
0
 62
     0
100
AcDbLine
 10
1.590990257669731
 20
8.485281374238569
 30
0.0
 11
1.67937860531805
 21
8.573669721886888
 31
0.0
  0
LINE
  5
518
330
516
100
AcDbEntity
  8
0
 62
     0
100
AcDbLine
 10
1.767766952966368
 20
8.662058069535207
 30
0.0
 11
1.856155300614687
 21
8.750446417183527
 31
0.0
  0
LINE
  5
519
330
516
100
AcDbEntity
  8
0
 62
     0
100
AcDbLine
 10
1.944543648263005
 20
8.838834764831846
 30
0.0
 11
1.955250882199919
 21
8.849541998768758
 31
0.0
  0
LINE
  5
51A
330
516
100
AcDbEntity
  8
0
 62
     0
100
AcDbLine
 10
1.440774787057745
 20
8.51184259892322
 30
0.0
 11
1.502601910021413
 21
8.573669721886888
 31
0.0
  0
LINE
  5
51B
330
516
100
AcDbEntity
  8
0
 62
     0
100
AcDbLine
 10
1.590990257669732
 20
8.662058069535207
 30
0.0
 11
1.67937860531805
 21
8.750446417183527
 31
0.0
  0
LINE
  5
51C
330
516
100
AcDbEntity
  8
0
 62
     0
100
AcDbLine
 10
1.767766952966369
 20
8.838834764831846
 30
0.0
 11
1.826976732274469
 21
8.898044544139946
 31
0.0
  0
LINE
  5
51D
330
516
100
AcDbEntity
  8
0
 62
     0
100
AcDbLine
 10
1.414213562373095
 20
8.662058069535206
 30
0.0
 11
1.502601910021413
 21
8.750446417183525
 31
0.0
  0
LINE
  5
51E
330
516
100
AcDbEntity
  8
0
 62
     0
100
AcDbLine
 10
1.590990257669732
 20
8.838834764831844
 30
0.0
 11
1.650200036977832
 21
8.898044544139944
 31
0.0
  0
LINE
  5
51F
330
516
100
AcDbEntity
  8
0
 62
     0
100
AcDbLine
 10
1.426719169572225
 20
8.851340372030973
 30
0.0
 11
1.473423341681195
 21
8.898044544139944
 31
0.0
  0
LINE
  5
520
330
516
100
AcDbEntity
  8
0
 62
     0
100
AcDbLine
 10
1.767766952966368
 20
8.485281374238569
 30
0.0
 11
1.856155300614687
 21
8.573669721886888
 31
0.0
  0
LINE
  5
521
330
516
100
AcDbEntity
  8
0
 62
     0
100
AcDbLine
 10
1.944543648263005
 20
8.662058069535207
 30
0.0
 11
1.947571352229958
 21
8.665085773502161
 31
0.0
  0
LINE
  5
522
330
516
100
AcDbEntity
  8
0
 62
     0
100
AcDbLine
 10
1.557844627301613
 20
8.518427004606689
 30
0.0
 11
1.646232974949931
 21
8.606815352255008
 31
0.0
  0
LINE
  5
523
330
516
100
AcDbEntity
  8
0
 62
     0
100
AcDbLine
 10
1.73462132259825
 20
8.695203699903327
 30
0.0
 11
1.823009670246568
 21
8.783592047551646
 31
0.0
  0
LINE
  5
524
330
516
100
AcDbEntity
  8
0
 62
     0
100
AcDbLine
 10
1.911398017894887
 20
8.871980395199965
 30
0.0
 11
1.937462166834868
 21
8.898044544139947
 31
0.0
  0
LINE
  5
525
330
516
100
AcDbEntity
  8
0
 62
     0
100
AcDbLine
 10
1.416135506291012
 20
8.553494578892726
 30
0.0
 11
1.469456279653294
 21
8.606815352255008
 31
0.0
  0
LINE
  5
526
330
516
100
AcDbEntity
  8
0
 62
     0
100
AcDbLine
 10
1.557844627301612
 20
8.695203699903327
 30
0.0
 11
1.646232974949931
 21
8.783592047551646
 31
0.0
  0
LINE
  5
527
330
516
100
AcDbEntity
  8
0
 62
     0
100
AcDbLine
 10
1.734621322598249
 20
8.871980395199965
 30
0.0
 11
1.76068547153823
 21
8.898044544139946
 31
0.0
  0
LINE
  5
528
330
516
100
AcDbEntity
  8
0
 62
     0
100
AcDbLine
 10
1.391284088433699
 20
8.705419856332049
 30
0.0
 11
1.469456279653294
 21
8.783592047551644
 31
0.0
  0
LINE
  5
529
330
516
100
AcDbEntity
  8
0
 62
     0
100
AcDbLine
 10
1.557844627301613
 20
8.871980395199964
 30
0.0
 11
1.583908776241593
 21
8.898044544139944
 31
0.0
  0
LINE
  5
52A
330
516
100
AcDbEntity
  8
0
 62
     0
100
AcDbLine
 10
1.734621322598249
 20
8.518427004606689
 30
0.0
 11
1.823009670246567
 21
8.606815352255008
 31
0.0
  0
LINE
  5
52B
330
516
100
AcDbEntity
  8
0
 62
     0
100
AcDbLine
 10
1.911398017894886
 20
8.695203699903327
 30
0.0
 11
1.950451175968694
 21
8.734256857977136
 31
0.0
  0
LINE
  5
52C
330
516
100
AcDbEntity
  8
0
 62
     0
100
AcDbLine
 10
1.911398017894885
 20
8.518427004606689
 30
0.0
 11
1.942771645998734
 21
8.549800632710537
 31
0.0
  0
LINE
  5
52D
330
516
100
AcDbEntity
  8
0
 62
     0
100
AcDbLine
 10
1.606424461609119
 20
8.456521404353797
 30
0.0
 11
1.613087344581812
 21
8.463184287326489
 31
0.0
  0
LINE
  5
52E
330
516
100
AcDbEntity
  8
0
 62
     0
100
AcDbLine
 10
1.70147569223013
 20
8.551572634974808
 30
0.0
 11
1.789864039878449
 21
8.639960982623128
 31
0.0
  0
LINE
  5
52F
330
516
100
AcDbEntity
  8
0
 62
     0
100
AcDbLine
 10
1.878252387526767
 20
8.728349330271447
 30
0.0
 11
1.953330999707429
 21
8.80342794245211
 31
0.0
  0
LINE
  5
530
330
516
100
AcDbEntity
  8
0
 62
     0
100
AcDbLine
 10
1.524698996933493
 20
8.551572634974807
 30
0.0
 11
1.613087344581812
 21
8.639960982623126
 31
0.0
  0
LINE
  5
531
330
516
100
AcDbEntity
  8
0
 62
     0
100
AcDbLine
 10
1.70147569223013
 20
8.728349330271445
 30
0.0
 11
1.789864039878449
 21
8.816737677919764
 31
0.0
  0
LINE
  5
532
330
516
100
AcDbEntity
  8
0
 62
     0
100
AcDbLine
 10
1.39609148234774
 20
8.599741815685693
 30
0.0
 11
1.436310649285174
 21
8.639960982623128
 31
0.0
  0
LINE
  5
533
330
516
100
AcDbEntity
  8
0
 62
     0
100
AcDbLine
 10
1.524698996933493
 20
8.728349330271447
 30
0.0
 11
1.613087344581811
 21
8.816737677919766
 31
0.0
  0
LINE
  5
534
330
516
100
AcDbEntity
  8
0
 62
     0
100
AcDbLine
 10
1.400752146098985
 20
8.781179174733575
 30
0.0
 11
1.436310649285174
 21
8.816737677919764
 31
0.0
  0
LINE
  5
535
330
516
100
AcDbEntity
  8
0
 62
     0
100
AcDbLine
 10
1.750542010553336
 20
8.423862258001378
 30
0.0
 11
1.789864039878448
 21
8.463184287326489
 31
0.0
  0
LINE
  5
536
330
516
100
AcDbEntity
  8
0
 62
     0
100
AcDbLine
 10
1.878252387526766
 20
8.551572634974808
 30
0.0
 11
1.945651469737469
 21
8.618971717185511
 31
0.0
  0
LINE
  5
537
330
516
100
AcDbEntity
  8
0
 62
     0
100
AcDbLine
 10
1.840210063940775
 20
8.434935350176242
 30
0.0
 11
1.789864039878446
 21
8.485281374238571
 31
0.0
  0
LINE
  5
538
330
516
100
AcDbEntity
  8
0
 62
     0
100
AcDbLine
 10
1.701475692230128
 20
8.57366972188689
 30
0.0
 11
1.613087344581809
 21
8.662058069535209
 31
0.0
  0
LINE
  5
539
330
516
100
AcDbEntity
  8
0
 62
     0
100
AcDbLine
 10
1.524698996933491
 20
8.750446417183528
 30
0.0
 11
1.436310649285172
 21
8.838834764831847
 31
0.0
  0
LINE
  5
53A
330
516
100
AcDbEntity
  8
0
 62
     0
100
AcDbLine
 10
1.662265911004113
 20
8.436102807816267
 30
0.0
 11
1.613087344581809
 21
8.485281374238571
 31
0.0
  0
LINE
  5
53B
330
516
100
AcDbEntity
  8
0
 62
     0
100
AcDbLine
 10
1.524698996933491
 20
8.57366972188689
 30
0.0
 11
1.436310649285172
 21
8.662058069535209
 31
0.0
  0
LINE
  5
53C
330
516
100
AcDbEntity
  8
0
 62
     0
100
AcDbLine
 10
1.878252387526765
 20
8.57366972188689
 30
0.0
 11
1.789864039878446
 21
8.662058069535209
 31
0.0
  0
LINE
  5
53D
330
516
100
AcDbEntity
  8
0
 62
     0
100
AcDbLine
 10
1.701475692230128
 20
8.750446417183528
 30
0.0
 11
1.613087344581809
 21
8.838834764831847
 31
0.0
  0
LINE
  5
53E
330
516
100
AcDbEntity
  8
0
 62
     0
100
AcDbLine
 10
1.878252387526765
 20
8.750446417183527
 30
0.0
 11
1.789864039878446
 21
8.838834764831846
 31
0.0
  0
LINE
  5
53F
330
516
100
AcDbEntity
  8
0
 62
     0
100
AcDbLine
 10
1.734621322598248
 20
8.430038656958371
 30
0.0
 11
1.646232974949929
 21
8.51842700460669
 31
0.0
  0
LINE
  5
540
330
516
100
AcDbEntity
  8
0
 62
     0
100
AcDbLine
 10
1.557844627301611
 20
8.60681535225501
 30
0.0
 11
1.469456279653292
 21
8.695203699903329
 31
0.0
  0
LINE
  5
541
330
516
100
AcDbEntity
  8
0
 62
     0
100
AcDbLine
 10
1.544410241701851
 20
8.443473042558132
 30
0.0
 11
1.469456279653292
 21
8.51842700460669
 31
0.0
  0
LINE
  5
542
330
516
100
AcDbEntity
  8
0
 62
     0
100
AcDbLine
 10
1.891649318099129
 20
8.449787356754127
 30
0.0
 11
1.823009670246567
 21
8.518427004606689
 31
0.0
  0
LINE
  5
543
330
516
100
AcDbEntity
  8
0
 62
     0
100
AcDbLine
 10
1.734621322598248
 20
8.606815352255008
 30
0.0
 11
1.64623297494993
 21
8.695203699903327
 31
0.0
  0
LINE
  5
544
330
516
100
AcDbEntity
  8
0
 62
     0
100
AcDbLine
 10
1.557844627301611
 20
8.783592047551646
 30
0.0
 11
1.469456279653293
 21
8.871980395199965
 31
0.0
  0
LINE
  5
545
330
516
100
AcDbEntity
  8
0
 62
     0
100
AcDbLine
 10
1.911398017894884
 20
8.60681535225501
 30
0.0
 11
1.823009670246565
 21
8.695203699903329
 31
0.0
  0
LINE
  5
546
330
516
100
AcDbEntity
  8
0
 62
     0
100
AcDbLine
 10
1.734621322598247
 20
8.783592047551648
 30
0.0
 11
1.646232974949928
 21
8.871980395199967
 31
0.0
  0
LINE
  5
547
330
516
100
AcDbEntity
  8
0
 62
     0
100
AcDbLine
 10
1.911398017894885
 20
8.783592047551646
 30
0.0
 11
1.823009670246566
 21
8.871980395199965
 31
0.0
  0
LINE
  5
548
330
516
100
AcDbEntity
  8
0
 62
     0
100
AcDbLine
 10
1.767766952966367
 20
8.463184287326491
 30
0.0
 11
1.679378605318049
 21
8.55157263497481
 31
0.0
  0
LINE
  5
549
330
516
100
AcDbEntity
  8
0
 62
     0
100
AcDbLine
 10
1.59099025766973
 20
8.639960982623129
 30
0.0
 11
1.502601910021412
 21
8.728349330271448
 31
0.0
  0
LINE
  5
54A
330
516
100
AcDbEntity
  8
0
 62
     0
100
AcDbLine
 10
1.414213562373093
 20
8.816737677919768
 30
0.0
 11
1.413993849618277
 21
8.816957390674584
 31
0.0
  0
LINE
  5
54B
330
516
100
AcDbEntity
  8
0
 62
     0
100
AcDbLine
 10
1.590990257669729
 20
8.463184287326491
 30
0.0
 11
1.502601910021411
 21
8.55157263497481
 31
0.0
  0
LINE
  5
54C
330
516
100
AcDbEntity
  8
0
 62
     0
100
AcDbLine
 10
1.414213562373092
 20
8.639960982623129
 30
0.0
 11
1.393310996996726
 21
8.660863547999495
 31
0.0
  0
LINE
  5
54D
330
516
100
AcDbEntity
  8
0
 62
     0
100
AcDbLine
 10
1.937055747006341
 20
8.470672188583153
 30
0.0
 11
1.856155300614686
 21
8.551572634974808
 31
0.0
  0
LINE
  5
54E
330
516
100
AcDbEntity
  8
0
 62
     0
100
AcDbLine
 10
1.767766952966367
 20
8.639960982623128
 30
0.0
 11
1.679378605318049
 21
8.728349330271447
 31
0.0
  0
LINE
  5
54F
330
516
100
AcDbEntity
  8
0
 62
     0
100
AcDbLine
 10
1.59099025766973
 20
8.816737677919766
 30
0.0
 11
1.509683391449552
 21
8.898044544139944
 31
0.0
  0
LINE
  5
550
330
516
100
AcDbEntity
  8
0
 62
     0
100
AcDbLine
 10
1.944543648263004
 20
8.639960982623128
 30
0.0
 11
1.856155300614685
 21
8.728349330271447
 31
0.0
  0
LINE
  5
551
330
516
100
AcDbEntity
  8
0
 62
     0
100
AcDbLine
 10
1.767766952966367
 20
8.816737677919766
 30
0.0
 11
1.686460086746188
 21
8.898044544139944
 31
0.0
  0
LINE
  5
552
330
516
100
AcDbEntity
  8
0
 62
     0
100
AcDbLine
 10
1.944543648263003
 20
8.816737677919764
 30
0.0
 11
1.863236782042825
 21
8.898044544139942
 31
0.0
  0
ENDBLK
  5
554
330
516
100
AcDbEntity
  8
0
100
AcDbBlockEnd
  0
BLOCK
  5
678
330
675
100
AcDbEntity
  8
0
100
AcDbBlockBegin
  2
bubble
 70
     2
 10
0.0
 20
0.0
 30
0.0
  3
bubble
  1

  0
CIRCLE
  5
676
330
675
100
AcDbEntity
  8
text_bubbles
100
AcDbCircle
 10
0.0
 20
0.0
 30
0.0
 40
0.1398891854377198
  0
ATTDEF
  5
677
330
675
100
AcDbEntity
  8
text_bubbles
100
AcDbText
 10
0.0
 20
0.0
 30
0.0
 40
0.125
  1

  7
ROMANS
 72
     4
 11
0.0
 21
0.0
 31
0.0
100
AcDbAttributeDefinition
  3
Number
  2
XX
 70
     0
  0
ENDBLK
  5
679
330
675
100
AcDbEntity
  8
0
100
AcDbBlockEnd
  0
BLOCK
  5
85F
330
853
100
AcDbEntity
  8
0
100
AcDbBlockBegin
  2
titleblock
 70
     2
 10
0.0
 20
0.0
 30
0.0
  3
titleblock
  1

  0
LWPOLYLINE
  5
854
330
853
100
AcDbEntity
  8
title
100
AcDbPolyline
 90
        4
 70
     1
 43
0.0
 10
0.0
 20
0.0
 10
16.48999999999999
 20
0.0000000000000001
 10
16.48999999999999
 20
10.44
 10
0.0
 20
10.44
  0
ATTDEF
  5
855
330
853
100
AcDbEntity
  8
title
100
AcDbText
 10
0.5055556038023421
 20
0.7842270964783673
 30
0.0
 40
0.2
  1
D
  7
L200
 72
     4
 11
0.6064423705144839
 21
0.8842270964783672
 31
0.0
100
AcDbAttributeDefinition
  3
#
  2
D
 70
     0
  0
ATTDEF
  5
856
330
853
100
AcDbEntity
  8
title
100
AcDbText
 10
1.231442370514484
 20
1.34371230274675
 30
0.0
 40
0.2
  1

  7
L200
100
AcDbAttributeDefinition
  3
DETAIL TITLE TOP LINE
  2
TITLE1
 70
     0
  0
ATTDEF
  5
857
330
853
100
AcDbEntity
  8
title
100
AcDbText
 10
1.231442370514484
 20
0.9842270964783674
 30
0.0
 40
0.2
  1
TITLE
  7
L200
100
AcDbAttributeDefinition
  3
DETAIL TITLE TOP 2ND LINE
  2
TITLE2
 70
     0
  0
ATTDEF
  5
858
330
853
100
AcDbEntity
  8
title
100
AcDbText
 10
2.713645751168312
 20
0.5927927664583189
 30
0.0
 40
0.2
  1
TITLE2
  7
L200
100
AcDbAttributeDefinition
  3
DETAIL TITLE BOTTOM 1
  2
TITLE3
 70
     0
  0
ATTDEF
  5
859
330
853
100
AcDbEntity
  8
title
100
AcDbText
 10
2.713645751168312
 20
0.2692560808167741
 30
0.0
 40
0.2
  1

  7
L200
100
AcDbAttributeDefinition
  3
DETAIL TITLE BOTTOM 2
  2
TITLE4
 70
     0
  0
ATTDEF
  5
85A
330
853
100
AcDbEntity
  8
title
 62
     7
100
AcDbText
 10
8.177214829966379
 20
0.9696027915446398
 30
0.0
 40
0.08
  1
-
  7
L80
 72
     2
 11
8.261024353775903
 21
0.9696027915446398
 31
0.0
100
AcDbAttributeDefinition
  3
REVISION DATE
  2
REVISED
 70
     0
  0
ATTDEF
  5
85B
330
853
100
AcDbEntity
  8
title
 62
     7
100
AcDbText
 10
0.2639423705144838
 20
0.0847116480207214
 30
0.0
 40
0.08
  1
-
  7
L80
100
AcDbAttributeDefinition
  3
DWG-NAME
  2
DWG-NAME
 70
     0
  0
LWPOLYLINE
  5
85C
330
853
100
AcDbEntity
  8
title
 62
     3
100
AcDbPolyline
 90
        2
 70
     1
 43
0.03
 10
0.6064423705144839
 20
0.5417270964783675
 42
0.9999999999999998
 10
0.6064423705144839
 20
1.226727096478367
 42
0.9999999999999998
  0
ATTDEF
  5
85D
330
853
100
AcDbEntity
  8
title
 62
     7
100
AcDbText
 10
1.231442370514484
 20
0.7005637793954894
 30
0.0
 40
0.1
  1
N.T.S.
  7
L100
100
AcDbAttributeDefinition
  3
SCALE
  2
SCALE
 70
     0
  0
LWPOLYLINE
  5
85E
330
853
100
AcDbEntity
  8
title
 62
     3
100
AcDbPolyline
 90
        2
 70
     0
 43
0.04
 39
0.03
 10
0.9489423705144833
 20
0.8842270964783672
 10
8.261024353775903
 20
0.8842270964783672
  0
ENDBLK
  5
860
330
853
100
AcDbEntity
  8
0
100
AcDbBlockEnd
  0
ENDSEC
  0
SECTION
  2
ENTITIES
  0
POLYLINE
  5
2C2
330
1F
100
AcDbEntity
  8
image
 62
     3
100
AcDb2dPolyline
 66
     1
 10
0.0
 20
0.0
 30
0.0
 70
     4
 40
0.0209283582775397
 41
0.0209283582775397
 75
     6
  0
VERTEX
  5
2C3
330
2C2
100
AcDbEntity
  8
image
 62
     3
100
AcDbVertex
100
AcDb2dVertex
 10
5.14867903681437
 20
7.512765384359829
 30
0.0
 70
    16
  0
VERTEX
  5
2C4
330
2C2
100
AcDbEntity
  8
image
 62
     3
100
AcDbVertex
100
AcDb2dVertex
 10
5.14867903681437
 20
7.512765384359829
 30
0.0
 70
     8
  0
VERTEX
  5
2C5
330
2C2
100
AcDbEntity
  8
image
 62
     3
100
AcDbVertex
100
AcDb2dVertex
 10
5.049740006948664
 20
7.567500598148104
 30
0.0
 70
     8
  0
VERTEX
  5
2C6
330
2C2
100
AcDbEntity
  8
image
 62
     3
100
AcDbVertex
100
AcDb2dVertex
 10
4.954958600027755
 20
7.610854479886956
 30
0.0
 70
     8
  0
VERTEX
  5
2C7
330
2C2
100
AcDbEntity
  8
image
 62
     3
100
AcDbVertex
100
AcDb2dVertex
 10
4.864205297002757
 20
7.644282127119953
 30
0.0
 70
     8
  0
VERTEX
  5
2C8
330
2C2
100
AcDbEntity
  8
image
 62
     3
100
AcDbVertex
100
AcDb2dVertex
 10
4.77735057882477
 20
7.669238637390662
 30
0.0
 70
     8
  0
VERTEX
  5
2C9
330
2C2
100
AcDbEntity
  8
image
 62
     3
100
AcDbVertex
100
AcDb2dVertex
 10
4.694264926444904
 20
7.687179108242656
 30
0.0
 70
     8
  0
VERTEX
  5
2CA
330
2C2
100
AcDbEntity
  8
image
 62
     3
100
AcDbVertex
100
AcDb2dVertex
 10
4.614818820814265
 20
7.699558637219499
 30
0.0
 70
     8
  0
VERTEX
  5
2CB
330
2C2
100
AcDbEntity
  8
image
 62
     3
100
AcDbVertex
100
AcDb2dVertex
 10
4.538882742883962
 20
7.707832321864763
 30
0.0
 70
     8
  0
VERTEX
  5
2CC
330
2C2
100
AcDbEntity
  8
image
 62
     3
100
AcDbVertex
100
AcDb2dVertex
 10
4.466327173605102
 20
7.713455259722018
 30
0.0
 70
     8
  0
VERTEX
  5
2CD
330
2C2
100
AcDbEntity
  8
image
 62
     3
100
AcDbVertex
100
AcDb2dVertex
 10
4.397048014365172
 20
7.717610013098791
 30
0.0
 70
     8
  0
VERTEX
  5
2CE
330
2C2
100
AcDbEntity
  8
image
 62
     3
100
AcDbVertex
100
AcDb2dVertex
 10
4.331042848297179
 20
7.720389003358453
 30
0.0
 70
     8
  0
VERTEX
  5
2CF
330
2C2
100
AcDbEntity
  8
image
 62
     3
100
AcDbVertex
100
AcDb2dVertex
 10
4.268334678970518
 20
7.721612116628347
 30
0.0
 70
     8
  0
VERTEX
  5
2D0
330
2C2
100
AcDbEntity
  8
image
 62
     3
100
AcDbVertex
100
AcDb2dVertex
 10
4.208946509954579
 20
7.721099239035802
 30
0.0
 70
     8
  0
VERTEX
  5
2D1
330
2C2
100
AcDbEntity
  8
image
 62
     3
100
AcDbVertex
100
AcDb2dVertex
 10
4.152901344818754
 20
7.718670256708151
 30
0.0
 70
     8
  0
VERTEX
  5
2D2
330
2C2
100
AcDbEntity
  8
image
 62
     3
100
AcDbVertex
100
AcDb2dVertex
 10
4.100222187132437
 20
7.71414505577274
 30
0.0
 70
     8
  0
VERTEX
  5
2D3
330
2C2
100
AcDbEntity
  8
image
 62
     3
100
AcDbVertex
100
AcDb2dVertex
 10
4.050932040465015
 20
7.707343522356894
 30
0.0
 70
     8
  0
VERTEX
  5
2D4
330
2C2
100
AcDbEntity
  8
image
 62
     3
100
AcDbVertex
100
AcDb2dVertex
 10
4.005053908385878
 20
7.698085542587953
 30
0.0
 70
     8
  0
VERTEX
  5
2D5
330
2C2
100
AcDbEntity
  8
image
 62
     3
100
AcDbVertex
100
AcDb2dVertex
 10
3.962598015034579
 20
7.686215912000365
 30
0.0
 70
     8
  0
VERTEX
  5
2D6
330
2C2
100
AcDbEntity
  8
image
 62
     3
100
AcDbVertex
100
AcDb2dVertex
 10
3.923523466831283
 20
7.671679063757046
 30
0.0
 70
     8
  0
VERTEX
  5
2D7
330
2C2
100
AcDbEntity
  8
image
 62
     3
100
AcDbVertex
100
AcDb2dVertex
 10
3.887776590766318
 20
7.654444340428021
 30
0.0
 70
     8
  0
VERTEX
  5
2D8
330
2C2
100
AcDbEntity
  8
image
 62
     3
100
AcDbVertex
100
AcDb2dVertex
 10
3.855303713830013
 20
7.634481084583319
 30
0.0
 70
     8
  0
VERTEX
  5
2D9
330
2C2
100
AcDbEntity
  8
image
 62
     3
100
AcDbVertex
100
AcDb2dVertex
 10
3.826051163012694
 20
7.611758638792974
 30
0.0
 70
     8
  0
VERTEX
  5
2DA
330
2C2
100
AcDbEntity
  8
image
 62
     3
100
AcDbVertex
100
AcDb2dVertex
 10
3.799965265304684
 20
7.586246345627007
 30
0.0
 70
     8
  0
VERTEX
  5
2DB
330
2C2
100
AcDbEntity
  8
image
 62
     3
100
AcDbVertex
100
AcDb2dVertex
 10
3.776992347696313
 20
7.557913547655449
 30
0.0
 70
     8
  0
VERTEX
  5
2DC
330
2C2
100
AcDbEntity
  8
image
 62
     3
100
AcDbVertex
100
AcDb2dVertex
 10
3.757078737177906
 20
7.526729587448329
 30
0.0
 70
     8
  0
VERTEX
  5
2DD
330
2C2
100
AcDbEntity
  8
image
 62
     3
100
AcDbVertex
100
AcDb2dVertex
 10
3.740164371379435
 20
7.492741729057977
 30
0.0
 70
     8
  0
VERTEX
  5
2DE
330
2C2
100
AcDbEntity
  8
image
 62
     3
100
AcDbVertex
100
AcDb2dVertex
 10
3.726163630489447
 20
7.456308922465916
 30
0.0
 70
     8
  0
VERTEX
  5
2DF
330
2C2
100
AcDbEntity
  8
image
 62
     3
100
AcDbVertex
100
AcDb2dVertex
 10
3.714984505336139
 20
7.417868039135979
 30
0.0
 70
     8
  0
VERTEX
  5
2E0
330
2C2
100
AcDbEntity
  8
image
 62
     3
100
AcDbVertex
100
AcDb2dVertex
 10
3.706534986747699
 20
7.377855950531988
 30
0.0
 70
     8
  0
VERTEX
  5
2E1
330
2C2
100
AcDbEntity
  8
image
 62
     3
100
AcDbVertex
100
AcDb2dVertex
 10
3.700723065552327
 20
7.336709528117773
 30
0.0
 70
     8
  0
VERTEX
  5
2E2
330
2C2
100
AcDbEntity
  8
image
 62
     3
100
AcDbVertex
100
AcDb2dVertex
 10
3.697456732578214
 20
7.294865643357165
 30
0.0
 70
     8
  0
VERTEX
  5
2E3
330
2C2
100
AcDbEntity
  8
image
 62
     3
100
AcDbVertex
100
AcDb2dVertex
 10
3.696643978653551
 20
7.252761167713988
 30
0.0
 70
     8
  0
VERTEX
  5
2E4
330
2C2
100
AcDbEntity
  8
image
 62
     3
100
AcDbVertex
100
AcDb2dVertex
 10
3.698192794606535
 20
7.210832972652069
 30
0.0
 70
     8
  0
VERTEX
  5
2E5
330
2C2
100
AcDbEntity
  8
image
 62
     3
100
AcDbVertex
100
AcDb2dVertex
 10
3.702007976620636
 20
7.169457891749466
 30
0.0
 70
     8
  0
VERTEX
  5
2E6
330
2C2
100
AcDbEntity
  8
image
 62
     3
100
AcDbVertex
100
AcDb2dVertex
 10
3.707981542300445
 20
7.128772607041153
 30
0.0
 70
     8
  0
VERTEX
  5
2E7
330
2C2
100
AcDbEntity
  8
image
 62
     3
100
AcDbVertex
100
AcDb2dVertex
 10
3.716002314605827
 20
7.088853762676339
 30
0.0
 70
     8
  0
VERTEX
  5
2E8
330
2C2
100
AcDbEntity
  8
image
 62
     3
100
AcDbVertex
100
AcDb2dVertex
 10
3.725959116496647
 20
7.049778002804224
 30
0.0
 70
     8
  0
VERTEX
  5
2E9
330
2C2
100
AcDbEntity
  8
image
 62
     3
100
AcDbVertex
100
AcDb2dVertex
 10
3.737740770932776
 20
7.011621971574013
 30
0.0
 70
     8
  0
VERTEX
  5
2EA
330
2C2
100
AcDbEntity
  8
image
 62
     3
100
AcDbVertex
100
AcDb2dVertex
 10
3.751236100874078
 20
6.974462313134912
 30
0.0
 70
     8
  0
VERTEX
  5
2EB
330
2C2
100
AcDbEntity
  8
image
 62
     3
100
AcDbVertex
100
AcDb2dVertex
 10
3.766333929280422
 20
6.938375671636128
 30
0.0
 70
     8
  0
VERTEX
  5
2EC
330
2C2
100
AcDbEntity
  8
image
 62
     3
100
AcDbVertex
100
AcDb2dVertex
 10
3.782923079111673
 20
6.903438691226865
 30
0.0
 70
     8
  0
VERTEX
  5
2ED
330
2C2
100
AcDbEntity
  8
image
 62
     3
100
AcDbVertex
100
AcDb2dVertex
 10
3.800875336254462
 20
6.869523071350267
 30
0.0
 70
     8
  0
VERTEX
  5
2EE
330
2C2
100
AcDbEntity
  8
image
 62
     3
100
AcDbVertex
100
AcDb2dVertex
 10
3.819994338302461
 20
6.83568073262525
 30
0.0
 70
     8
  0
VERTEX
  5
2EF
330
2C2
100
AcDbEntity
  8
image
 62
     3
100
AcDbVertex
100
AcDb2dVertex
 10
3.840066685776111
 20
6.80075865096467
 30
0.0
 70
     8
  0
VERTEX
  5
2F0
330
2C2
100
AcDbEntity
  8
image
 62
     3
100
AcDbVertex
100
AcDb2dVertex
 10
3.860878979195849
 20
6.763603802281386
 30
0.0
 70
     8
  0
VERTEX
  5
2F1
330
2C2
100
AcDbEntity
  8
image
 62
     3
100
AcDbVertex
100
AcDb2dVertex
 10
3.882217819082113
 20
6.72306316248825
 30
0.0
 70
     8
  0
VERTEX
  5
2F2
330
2C2
100
AcDbEntity
  8
image
 62
     3
100
AcDbVertex
100
AcDb2dVertex
 10
3.903869805955338
 20
6.677983707498124
 30
0.0
 70
     8
  0
VERTEX
  5
2F3
330
2C2
100
AcDbEntity
  8
image
 62
     3
100
AcDbVertex
100
AcDb2dVertex
 10
3.925621540335964
 20
6.627212413223864
 30
0.0
 70
     8
  0
VERTEX
  5
2F4
330
2C2
100
AcDbEntity
  8
image
 62
     3
100
AcDbVertex
100
AcDb2dVertex
 10
3.947259622744427
 20
6.569596255578323
 30
0.0
 70
     8
  0
VERTEX
  5
2F5
330
2C2
100
AcDbEntity
  8
image
 62
     3
100
AcDbVertex
100
AcDb2dVertex
 10
4.879182998535958
 20
7.675194483899853
 30
0.0
 70
    16
  0
VERTEX
  5
2F6
330
2C2
100
AcDbEntity
  8
image
 62
     3
100
AcDbVertex
100
AcDb2dVertex
 10
4.431649951177914
 20
7.726208851662737
 30
0.0
 70
    16
  0
VERTEX
  5
2F7
330
2C2
100
AcDbEntity
  8
image
 62
     3
100
AcDbVertex
100
AcDb2dVertex
 10
3.968413714703971
 20
7.726208851662737
 30
0.0
 70
    16
  0
VERTEX
  5
2F8
330
2C2
100
AcDbEntity
  8
image
 62
     3
100
AcDbVertex
100
AcDb2dVertex
 10
3.725018640321469
 20
7.557468997214022
 30
0.0
 70
    16
  0
VERTEX
  5
2F9
330
2C2
100
AcDbEntity
  8
image
 62
     3
100
AcDbVertex
100
AcDb2dVertex
 10
3.673984147077584
 20
7.204292684171148
 30
0.0
 70
    16
  0
VERTEX
  5
2FA
330
2C2
100
AcDbEntity
  8
image
 62
     3
100
AcDbVertex
100
AcDb2dVertex
 10
3.768201539007406
 20
6.8903581020138
 30
0.0
 70
    16
  0
VERTEX
  5
2FB
330
2C2
100
AcDbEntity
  8
image
 62
     3
100
AcDbVertex
100
AcDb2dVertex
 10
3.889899294044353
 20
6.73339073742782
 30
0.0
 70
    16
  0
VERTEX
  5
2FC
330
2C2
100
AcDbEntity
  8
image
 62
     3
100
AcDbVertex
100
AcDb2dVertex
 10
3.947259622744427
 20
6.569596255578323
 30
0.0
 70
    16
  0
SEQEND
  5
2FD
330
2C2
100
AcDbEntity
  8
image
 62
     3
  0
POLYLINE
  5
2FE
330
1F
100
AcDbEntity
  8
image
 62
     3
100
AcDb2dPolyline
 66
     1
 10
0.0
 20
0.0
 30
0.0
 70
     4
 40
0.0209283582775397
 41
0.0209283582775397
 75
     6
  0
VERTEX
  5
2FF
330
2FE
100
AcDbEntity
  8
image
 62
     3
100
AcDbVertex
100
AcDb2dVertex
 10
5.14867903681437
 20
7.512765384359829
 30
0.0
 70
    16
  0
VERTEX
  5
300
330
2FE
100
AcDbEntity
  8
image
 62
     3
100
AcDbVertex
100
AcDb2dVertex
 10
5.14867903681437
 20
7.512765384359829
 30
0.0
 70
     8
  0
VERTEX
  5
301
330
2FE
100
AcDbEntity
  8
image
 62
     3
100
AcDbVertex
100
AcDb2dVertex
 10
5.039791688346484
 20
7.54278431864241
 30
0.0
 70
     8
  0
VERTEX
  5
302
330
2FE
100
AcDbEntity
  8
image
 62
     3
100
AcDbVertex
100
AcDb2dVertex
 10
4.940716528655119
 20
7.568269624061078
 30
0.0
 70
     8
  0
VERTEX
  5
303
330
2FE
100
AcDbEntity
  8
image
 62
     3
100
AcDbVertex
100
AcDb2dVertex
 10
4.85052611032928
 20
7.589589577493665
 30
0.0
 70
     8
  0
VERTEX
  5
304
330
2FE
100
AcDbEntity
  8
image
 62
     3
100
AcDbVertex
100
AcDb2dVertex
 10
4.768292985957967
 20
7.607112455818
 30
0.0
 70
     8
  0
VERTEX
  5
305
330
2FE
100
AcDbEntity
  8
image
 62
     3
100
AcDbVertex
100
AcDb2dVertex
 10
4.693089708130187
 20
7.621206535911911
 30
0.0
 70
     8
  0
VERTEX
  5
306
330
2FE
100
AcDbEntity
  8
image
 62
     3
100
AcDbVertex
100
AcDb2dVertex
 10
4.623988829434942
 20
7.632240094653231
 30
0.0
 70
     8
  0
VERTEX
  5
307
330
2FE
100
AcDbEntity
  8
image
 62
     3
100
AcDbVertex
100
AcDb2dVertex
 10
4.560062902461234
 20
7.640581408919792
 30
0.0
 70
     8
  0
VERTEX
  5
308
330
2FE
100
AcDbEntity
  8
image
 62
     3
100
AcDbVertex
100
AcDb2dVertex
 10
4.50038447979807
 20
7.64659875558942
 30
0.0
 70
     8
  0
VERTEX
  5
309
330
2FE
100
AcDbEntity
  8
image
 62
     3
100
AcDbVertex
100
AcDb2dVertex
 10
4.444148574871235
 20
7.650632367697564
 30
0.0
 70
     8
  0
VERTEX
  5
30A
330
2FE
100
AcDbEntity
  8
image
 62
     3
100
AcDbVertex
100
AcDb2dVertex
 10
4.391040044453659
 20
7.652910302910155
 30
0.0
 70
     8
  0
VERTEX
  5
30B
330
2FE
100
AcDbEntity
  8
image
 62
     3
100
AcDbVertex
100
AcDb2dVertex
 10
4.340866206155053
 20
7.65363257505073
 30
0.0
 70
     8
  0
VERTEX
  5
30C
330
2FE
100
AcDbEntity
  8
image
 62
     3
100
AcDbVertex
100
AcDb2dVertex
 10
4.293434377585122
 20
7.652999197942842
 30
0.0
 70
     8
  0
VERTEX
  5
30D
330
2FE
100
AcDbEntity
  8
image
 62
     3
100
AcDbVertex
100
AcDb2dVertex
 10
4.248551876353587
 20
7.651210185410026
 30
0.0
 70
     8
  0
VERTEX
  5
30E
330
2FE
100
AcDbEntity
  8
image
 62
     3
100
AcDbVertex
100
AcDb2dVertex
 10
4.206026020070155
 20
7.648465551275835
 30
0.0
 70
     8
  0
VERTEX
  5
30F
330
2FE
100
AcDbEntity
  8
image
 62
     3
100
AcDbVertex
100
AcDb2dVertex
 10
4.165664126344536
 20
7.644965309363808
 30
0.0
 70
     8
  0
VERTEX
  5
310
330
2FE
100
AcDbEntity
  8
image
 62
     3
100
AcDbVertex
100
AcDb2dVertex
 10
4.127273512786445
 20
7.640909473497488
 30
0.0
 70
     8
  0
VERTEX
  5
311
330
2FE
100
AcDbEntity
  8
image
 62
     3
100
AcDbVertex
100
AcDb2dVertex
 10
4.090730665070406
 20
7.636437559476117
 30
0.0
 70
     8
  0
VERTEX
  5
312
330
2FE
100
AcDbEntity
  8
image
 62
     3
100
AcDbVertex
100
AcDb2dVertex
 10
4.056188741130199
 20
7.631447091001695
 30
0.0
 70
     8
  0
VERTEX
  5
313
330
2FE
100
AcDbEntity
  8
image
 62
     3
100
AcDbVertex
100
AcDb2dVertex
 10
4.023870066964418
 20
7.62577509375192
 30
0.0
 70
     8
  0
VERTEX
  5
314
330
2FE
100
AcDbEntity
  8
image
 62
     3
100
AcDbVertex
100
AcDb2dVertex
 10
3.993996968571657
 20
7.619258593404486
 30
0.0
 70
     8
  0
VERTEX
  5
315
330
2FE
100
AcDbEntity
  8
image
 62
     3
100
AcDbVertex
100
AcDb2dVertex
 10
3.966791771950513
 20
7.611734615637087
 30
0.0
 70
     8
  0
VERTEX
  5
316
330
2FE
100
AcDbEntity
  8
image
 62
     3
100
AcDbVertex
100
AcDb2dVertex
 10
3.94247680309958
 20
7.603040186127424
 30
0.0
 70
     8
  0
VERTEX
  5
317
330
2FE
100
AcDbEntity
  8
image
 62
     3
100
AcDbVertex
100
AcDb2dVertex
 10
3.921274388017447
 20
7.593012330553186
 30
0.0
 70
     8
  0
VERTEX
  5
318
330
2FE
100
AcDbEntity
  8
image
 62
     3
100
AcDbVertex
100
AcDb2dVertex
 10
3.903406852702715
 20
7.581488074592072
 30
0.0
 70
     8
  0
VERTEX
  5
319
330
2FE
100
AcDbEntity
  8
image
 62
     3
100
AcDbVertex
100
AcDb2dVertex
 10
3.889008827993526
 20
7.568315555920503
 30
0.0
 70
     8
  0
VERTEX
  5
31A
330
2FE
100
AcDbEntity
  8
image
 62
     3
100
AcDbVertex
100
AcDb2dVertex
 10
3.877864164086224
 20
7.553387360209809
 30
0.0
 70
     8
  0
VERTEX
  5
31B
330
2FE
100
AcDbEntity
  8
image
 62
     3
100
AcDbVertex
100
AcDb2dVertex
 10
3.869669016016702
 20
7.536607185130045
 30
0.0
 70
     8
  0
VERTEX
  5
31C
330
2FE
100
AcDbEntity
  8
image
 62
     3
100
AcDbVertex
100
AcDb2dVertex
 10
3.864119538820856
 20
7.517878728351266
 30
0.0
 70
     8
  0
VERTEX
  5
31D
330
2FE
100
AcDbEntity
  8
image
 62
     3
100
AcDbVertex
100
AcDb2dVertex
 10
3.86091188753458
 20
7.497105687543528
 30
0.0
 70
     8
  0
VERTEX
  5
31E
330
2FE
100
AcDbEntity
  8
image
 62
     3
100
AcDbVertex
100
AcDb2dVertex
 10
3.859742217193767
 20
7.474191760376885
 30
0.0
 70
     8
  0
VERTEX
  5
31F
330
2FE
100
AcDbEntity
  8
image
 62
     3
100
AcDbVertex
100
AcDb2dVertex
 10
3.860306682834313
 20
7.449040644521391
 30
0.0
 70
     8
  0
VERTEX
  5
320
330
2FE
100
AcDbEntity
  8
image
 62
     3
100
AcDbVertex
100
AcDb2dVertex
 10
3.86230143949211
 20
7.421556037647103
 30
0.0
 70
     8
  0
VERTEX
  5
321
330
2FE
100
AcDbEntity
  8
image
 62
     3
100
AcDbVertex
100
AcDb2dVertex
 10
3.865547026458516
 20
7.391713405655679
 30
0.0
 70
     8
  0
VERTEX
  5
322
330
2FE
100
AcDbEntity
  8
image
 62
     3
100
AcDbVertex
100
AcDb2dVertex
 10
3.870361520046728
 20
7.359775287375178
 30
0.0
 70
     8
  0
VERTEX
  5
323
330
2FE
100
AcDbEntity
  8
image
 62
     3
100
AcDbVertex
100
AcDb2dVertex
 10
3.877187380825407
 20
7.326075989865264
 30
0.0
 70
     8
  0
VERTEX
  5
324
330
2FE
100
AcDbEntity
  8
image
 62
     3
100
AcDbVertex
100
AcDb2dVertex
 10
3.886467069363215
 20
7.290949820185602
 30
0.0
 70
     8
  0
VERTEX
  5
325
330
2FE
100
AcDbEntity
  8
image
 62
     3
100
AcDbVertex
100
AcDb2dVertex
 10
3.89864304622881
 20
7.254731085395849
 30
0.0
 70
     8
  0
VERTEX
  5
326
330
2FE
100
AcDbEntity
  8
image
 62
     3
100
AcDbVertex
100
AcDb2dVertex
 10
3.914157771990855
 20
7.217754092555672
 30
0.0
 70
     8
  0
VERTEX
  5
327
330
2FE
100
AcDbEntity
  8
image
 62
     3
100
AcDbVertex
100
AcDb2dVertex
 10
3.933453707218009
 20
7.180353148724736
 30
0.0
 70
     8
  0
VERTEX
  5
328
330
2FE
100
AcDbEntity
  8
image
 62
     3
100
AcDbVertex
100
AcDb2dVertex
 10
3.956973312478933
 20
7.142862560962699
 30
0.0
 70
     8
  0
VERTEX
  5
329
330
2FE
100
AcDbEntity
  8
image
 62
     3
100
AcDbVertex
100
AcDb2dVertex
 10
4.844405458165983
 20
7.59918807149
 30
0.0
 70
    16
  0
VERTEX
  5
32A
330
2FE
100
AcDbEntity
  8
image
 62
     3
100
AcDbVertex
100
AcDb2dVertex
 10
4.464970539536249
 20
7.667459456593163
 30
0.0
 70
    16
  0
VERTEX
  5
32B
330
2FE
100
AcDbEntity
  8
image
 62
     3
100
AcDbVertex
100
AcDb2dVertex
 10
4.108301803162575
 20
7.644702328225442
 30
0.0
 70
    16
  0
VERTEX
  5
32C
330
2FE
100
AcDbEntity
  8
image
 62
     3
100
AcDbVertex
100
AcDb2dVertex
 10
3.865463324532126
 20
7.59918807149
 30
0.0
 70
    16
  0
VERTEX
  5
32D
330
2FE
100
AcDbEntity
  8
image
 62
     3
100
AcDbVertex
100
AcDb2dVertex
 10
3.850286014925216
 20
7.447473833366986
 30
0.0
 70
    16
  0
VERTEX
  5
32E
330
2FE
100
AcDbEntity
  8
image
 62
     3
100
AcDbVertex
100
AcDb2dVertex
 10
3.88822950678819
 20
7.242659825072117
 30
0.0
 70
    16
  0
VERTEX
  5
32F
330
2FE
100
AcDbEntity
  8
image
 62
     3
100
AcDbVertex
100
AcDb2dVertex
 10
3.956973312478933
 20
7.142862560962699
 30
0.0
 70
    16
  0
SEQEND
  5
330
330
2FE
100
AcDbEntity
  8
image
 62
     3
  0
LWPOLYLINE
  5
331
330
1F
100
AcDbEntity
  8
image
 62
     2
100
AcDbPolyline
 90
        4
 70
     1
 43
0.0
 10
5.14867903681437
 20
7.763167273545707
 10
6.096527995879563
 20
7.763167273545707
 10
6.096527995879561
 20
7.26236349517395
 10
5.14867903681437
 20
7.26236349517395
  0
POLYLINE
  5
332
330
1F
100
AcDbEntity
  8
image
 62
     5
100
AcDb2dPolyline
 66
     1
 10
0.0
 20
0.0
 30
0.0
 70
     4
 40
0.0209283582775397
 41
0.0209283582775397
 75
     6
  0
VERTEX
  5
333
330
332
100
AcDbEntity
  8
image
 62
     5
100
AcDbVertex
100
AcDb2dVertex
 10
5.14867903681437
 20
7.512765384359829
 30
0.0
 70
    16
  0
VERTEX
  5
334
330
332
100
AcDbEntity
  8
image
 62
     5
100
AcDbVertex
100
AcDb2dVertex
 10
5.14867903681437
 20
7.512765384359829
 30
0.0
 70
     8
  0
VERTEX
  5
335
330
332
100
AcDbEntity
  8
image
 62
     5
100
AcDbVertex
100
AcDb2dVertex
 10
5.127640483586858
 20
7.484173564103865
 30
0.0
 70
     8
  0
VERTEX
  5
336
330
332
100
AcDbEntity
  8
image
 62
     5
100
AcDbVertex
100
AcDb2dVertex
 10
5.109584552551473
 20
7.457293799179922
 30
0.0
 70
     8
  0
VERTEX
  5
337
330
332
100
AcDbEntity
  8
image
 62
     5
100
AcDbVertex
100
AcDb2dVertex
 10
5.094342601997637
 20
7.43194881587859
 30
0.0
 70
     8
  0
VERTEX
  5
338
330
332
100
AcDbEntity
  8
image
 62
     5
100
AcDbVertex
100
AcDb2dVertex
 10
5.081745990214782
 20
7.407961340490464
 30
0.0
 70
     8
  0
VERTEX
  5
339
330
332
100
AcDbEntity
  8
image
 62
     5
100
AcDbVertex
100
AcDb2dVertex
 10
5.071626075492331
 20
7.385154099306138
 30
0.0
 70
     8
  0
VERTEX
  5
33A
330
332
100
AcDbEntity
  8
image
 62
     5
100
AcDbVertex
100
AcDb2dVertex
 10
5.063814216119714
 20
7.363349818616201
 30
0.0
 70
     8
  0
VERTEX
  5
33B
330
332
100
AcDbEntity
  8
image
 62
     5
100
AcDbVertex
100
AcDb2dVertex
 10
5.058141770386353
 20
7.34237122471125
 30
0.0
 70
     8
  0
VERTEX
  5
33C
330
332
100
AcDbEntity
  8
image
 62
     5
100
AcDbVertex
100
AcDb2dVertex
 10
5.05444009658168
 20
7.322041043881874
 30
0.0
 70
     8
  0
VERTEX
  5
33D
330
332
100
AcDbEntity
  8
image
 62
     5
100
AcDbVertex
100
AcDb2dVertex
 10
5.052588876162162
 20
7.302223673034328
 30
0.0
 70
     8
  0
VERTEX
  5
33E
330
332
100
AcDbEntity
  8
image
 62
     5
100
AcDbVertex
100
AcDb2dVertex
 10
5.052661083252433
 20
7.282950191537508
 30
0.0
 70
     8
  0
VERTEX
  5
33F
330
332
100
AcDbEntity
  8
image
 62
     5
100
AcDbVertex
100
AcDb2dVertex
 10
5.054778015144171
 20
7.264293349375971
 30
0.0
 70
     8
  0
VERTEX
  5
340
330
332
100
AcDbEntity
  8
image
 62
     5
100
AcDbVertex
100
AcDb2dVertex
 10
5.059060969129055
 20
7.246325896534274
 30
0.0
 70
     8
  0
VERTEX
  5
341
330
332
100
AcDbEntity
  8
image
 62
     5
100
AcDbVertex
100
AcDb2dVertex
 10
5.065631242498761
 20
7.229120582996974
 30
0.0
 70
     8
  0
VERTEX
  5
342
330
332
100
AcDbEntity
  8
image
 62
     5
100
AcDbVertex
100
AcDb2dVertex
 10
5.074610132544968
 20
7.212750158748627
 30
0.0
 70
     8
  0
VERTEX
  5
343
330
332
100
AcDbEntity
  8
image
 62
     5
100
AcDbVertex
100
AcDb2dVertex
 10
5.086118936559355
 20
7.197287373773793
 30
0.0
 70
     8
  0
VERTEX
  5
344
330
332
100
AcDbEntity
  8
image
 62
     5
100
AcDbVertex
100
AcDb2dVertex
 10
5.100278951833594
 20
7.182804978057024
 30
0.0
 70
     8
  0
VERTEX
  5
345
330
332
100
AcDbEntity
  8
image
 62
     5
100
AcDbVertex
100
AcDb2dVertex
 10
5.117185483412971
 20
7.169342810957623
 30
0.0
 70
     8
  0
VERTEX
  5
346
330
332
100
AcDbEntity
  8
image
 62
     5
100
AcDbVertex
100
AcDb2dVertex
 10
5.136829867357179
 20
7.156809069333842
 30
0.0
 70
     8
  0
VERTEX
  5
347
330
332
100
AcDbEntity
  8
image
 62
     5
100
AcDbVertex
100
AcDb2dVertex
 10
5.159177447479517
 20
7.145079039418679
 30
0.0
 70
     8
  0
VERTEX
  5
348
330
332
100
AcDbEntity
  8
image
 62
     5
100
AcDbVertex
100
AcDb2dVertex
 10
5.184193567593279
 20
7.134028007445127
 30
0.0
 70
     8
  0
VERTEX
  5
349
330
332
100
AcDbEntity
  8
image
 62
     5
100
AcDbVertex
100
AcDb2dVertex
 10
5.211843571511765
 20
7.123531259646185
 30
0.0
 70
     8
  0
VERTEX
  5
34A
330
332
100
AcDbEntity
  8
image
 62
     5
100
AcDbVertex
100
AcDb2dVertex
 10
5.242092803048275
 20
7.113464082254846
 30
0.0
 70
     8
  0
VERTEX
  5
34B
330
332
100
AcDbEntity
  8
image
 62
     5
100
AcDbVertex
100
AcDb2dVertex
 10
5.274906606016105
 20
7.103701761504108
 30
0.0
 70
     8
  0
VERTEX
  5
34C
330
332
100
AcDbEntity
  8
image
 62
     5
100
AcDbVertex
100
AcDb2dVertex
 10
5.310250324228551
 20
7.094119583626969
 30
0.0
 70
     8
  0
VERTEX
  5
34D
330
332
100
AcDbEntity
  8
image
 62
     5
100
AcDbVertex
100
AcDb2dVertex
 10
5.348035006508577
 20
7.084617084755556
 30
0.0
 70
     8
  0
VERTEX
  5
34E
330
332
100
AcDbEntity
  8
image
 62
     5
100
AcDbVertex
100
AcDb2dVertex
 10
5.3879545217178
 20
7.075190800618573
 30
0.0
 70
     8
  0
VERTEX
  5
34F
330
332
100
AcDbEntity
  8
image
 62
     5
100
AcDbVertex
100
AcDb2dVertex
 10
5.4296484437275
 20
7.065861516843847
 30
0.0
 70
     8
  0
VERTEX
  5
350
330
332
100
AcDbEntity
  8
image
 62
     5
100
AcDbVertex
100
AcDb2dVertex
 10
5.472756346408962
 20
7.05665001905922
 30
0.0
 70
     8
  0
VERTEX
  5
351
330
332
100
AcDbEntity
  8
image
 62
     5
100
AcDbVertex
100
AcDb2dVertex
 10
5.516917803633464
 20
7.047577092892517
 30
0.0
 70
     8
  0
VERTEX
  5
352
330
332
100
AcDbEntity
  8
image
 62
     5
100
AcDbVertex
100
AcDb2dVertex
 10
5.561772389272289
 20
7.038663523971576
 30
0.0
 70
     8
  0
VERTEX
  5
353
330
332
100
AcDbEntity
  8
image
 62
     5
100
AcDbVertex
100
AcDb2dVertex
 10
5.606959677196719
 20
7.029930097924232
 30
0.0
 70
     8
  0
VERTEX
  5
354
330
332
100
AcDbEntity
  8
image
 62
     5
100
AcDbVertex
100
AcDb2dVertex
 10
5.652119241278035
 20
7.021397600378318
 30
0.0
 70
     8
  0
VERTEX
  5
355
330
332
100
AcDbEntity
  8
image
 62
     5
100
AcDbVertex
100
AcDb2dVertex
 10
5.696889500138746
 20
7.013063721787727
 30
0.0
 70
     8
  0
VERTEX
  5
356
330
332
100
AcDbEntity
  8
image
 62
     5
100
AcDbVertex
100
AcDb2dVertex
 10
5.740904251406277
 20
7.004833771910582
 30
0.0
 70
     8
  0
VERTEX
  5
357
330
332
100
AcDbEntity
  8
image
 62
     5
100
AcDbVertex
100
AcDb2dVertex
 10
5.783796137459283
 20
6.996589965331064
 30
0.0
 70
     8
  0
VERTEX
  5
358
330
332
100
AcDbEntity
  8
image
 62
     5
100
AcDbVertex
100
AcDb2dVertex
 10
5.825197800676416
 20
6.988214516633354
 30
0.0
 70
     8
  0
VERTEX
  5
359
330
332
100
AcDbEntity
  8
image
 62
     5
100
AcDbVertex
100
AcDb2dVertex
 10
5.864741883436328
 20
6.979589640401637
 30
0.0
 70
     8
  0
VERTEX
  5
35A
330
332
100
AcDbEntity
  8
image
 62
     5
100
AcDbVertex
100
AcDb2dVertex
 10
5.902061028117675
 20
6.970597551220095
 30
0.0
 70
     8
  0
VERTEX
  5
35B
330
332
100
AcDbEntity
  8
image
 62
     5
100
AcDbVertex
100
AcDb2dVertex
 10
5.936787877099107
 20
6.961120463672907
 30
0.0
 70
     8
  0
VERTEX
  5
35C
330
332
100
AcDbEntity
  8
image
 62
     5
100
AcDbVertex
100
AcDb2dVertex
 10
5.968555072759278
 20
6.951040592344256
 30
0.0
 70
     8
  0
VERTEX
  5
35D
330
332
100
AcDbEntity
  8
image
 62
     5
100
AcDbVertex
100
AcDb2dVertex
 10
5.997083053546935
 20
6.940266711263572
 30
0.0
 70
     8
  0
VERTEX
  5
35E
330
332
100
AcDbEntity
  8
image
 62
     5
100
AcDbVertex
100
AcDb2dVertex
 10
6.022443442191199
 20
6.928813832241278
 30
0.0
 70
     8
  0
VERTEX
  5
35F
330
332
100
AcDbEntity
  8
image
 62
     5
100
AcDbVertex
100
AcDb2dVertex
 10
6.044795657491284
 20
6.916723526533035
 30
0.0
 70
     8
  0
VERTEX
  5
360
330
332
100
AcDbEntity
  8
image
 62
     5
100
AcDbVertex
100
AcDb2dVertex
 10
6.064299118246403
 20
6.904037365394518
 30
0.0
 70
     8
  0
VERTEX
  5
361
330
332
100
AcDbEntity
  8
image
 62
     5
100
AcDbVertex
100
AcDb2dVertex
 10
6.081113243255771
 20
6.890796920081392
 30
0.0
 70
     8
  0
VERTEX
  5
362
330
332
100
AcDbEntity
  8
image
 62
     5
100
AcDbVertex
100
AcDb2dVertex
 10
6.095397451318602
 20
6.877043761849326
 30
0.0
 70
     8
  0
VERTEX
  5
363
330
332
100
AcDbEntity
  8
image
 62
     5
100
AcDbVertex
100
AcDb2dVertex
 10
6.107311161234111
 20
6.862819461953986
 30
0.0
 70
     8
  0
VERTEX
  5
364
330
332
100
AcDbEntity
  8
image
 62
     5
100
AcDbVertex
100
AcDb2dVertex
 10
6.11701379180151
 20
6.84816559165104
 30
0.0
 70
     8
  0
VERTEX
  5
365
330
332
100
AcDbEntity
  8
image
 62
     5
100
AcDbVertex
100
AcDb2dVertex
 10
6.124593138878152
 20
6.833139888803565
 30
0.0
 70
     8
  0
VERTEX
  5
366
330
332
100
AcDbEntity
  8
image
 62
     5
100
AcDbVertex
100
AcDb2dVertex
 10
6.129850506553952
 20
6.817864757704236
 30
0.0
 70
     8
  0
VERTEX
  5
367
330
332
100
AcDbEntity
  8
image
 62
     5
100
AcDbVertex
100
AcDb2dVertex
 10
6.13251557597696
 20
6.802478769253132
 30
0.0
 70
     8
  0
VERTEX
  5
368
330
332
100
AcDbEntity
  8
image
 62
     5
100
AcDbVertex
100
AcDb2dVertex
 10
6.132318028295224
 20
6.787120494350347
 30
0.0
 70
     8
  0
VERTEX
  5
369
330
332
100
AcDbEntity
  8
image
 62
     5
100
AcDbVertex
100
AcDb2dVertex
 10
6.1289875446568
 20
6.771928503895956
 30
0.0
 70
     8
  0
VERTEX
  5
36A
330
332
100
AcDbEntity
  8
image
 62
     5
100
AcDbVertex
100
AcDb2dVertex
 10
6.122253806209733
 20
6.757041368790043
 30
0.0
 70
     8
  0
VERTEX
  5
36B
330
332
100
AcDbEntity
  8
image
 62
     5
100
AcDbVertex
100
AcDb2dVertex
 10
6.111846494102076
 20
6.742597659932695
 30
0.0
 70
     8
  0
VERTEX
  5
36C
330
332
100
AcDbEntity
  8
image
 62
     5
100
AcDbVertex
100
AcDb2dVertex
 10
6.097495289481883
 20
6.728735948223993
 30
0.0
 70
     8
  0
VERTEX
  5
36D
330
332
100
AcDbEntity
  8
image
 62
     5
100
AcDbVertex
100
AcDb2dVertex
 10
6.079026262460931
 20
6.715505770833083
 30
0.0
 70
     8
  0
VERTEX
  5
36E
330
332
100
AcDbEntity
  8
image
 62
     5
100
AcDbVertex
100
AcDb2dVertex
 10
6.056651039005916
 20
6.702600530005359
 30
0.0
 70
     8
  0
VERTEX
  5
36F
330
332
100
AcDbEntity
  8
image
 62
     5
100
AcDbVertex
100
AcDb2dVertex
 10
6.030677634047272
 20
6.689624594255281
 30
0.0
 70
     8
  0
VERTEX
  5
370
330
332
100
AcDbEntity
  8
image
 62
     5
100
AcDbVertex
100
AcDb2dVertex
 10
6.001414062515423
 20
6.676182332097309
 30
0.0
 70
     8
  0
VERTEX
  5
371
330
332
100
AcDbEntity
  8
image
 62
     5
100
AcDbVertex
100
AcDb2dVertex
 10
5.969168339340793
 20
6.661878112045899
 30
0.0
 70
     8
  0
VERTEX
  5
372
330
332
100
AcDbEntity
  8
image
 62
     5
100
AcDbVertex
100
AcDb2dVertex
 10
5.934248479453813
 20
6.646316302615513
 30
0.0
 70
     8
  0
VERTEX
  5
373
330
332
100
AcDbEntity
  8
image
 62
     5
100
AcDbVertex
100
AcDb2dVertex
 10
5.896962497784913
 20
6.629101272320607
 30
0.0
 70
     8
  0
VERTEX
  5
374
330
332
100
AcDbEntity
  8
image
 62
     5
100
AcDbVertex
100
AcDb2dVertex
 10
5.857618409264514
 20
6.609837389675639
 30
0.0
 70
     8
  0
VERTEX
  5
375
330
332
100
AcDbEntity
  8
image
 62
     5
100
AcDbVertex
100
AcDb2dVertex
 10
5.088449494875442
 20
7.434080213270646
 30
0.0
 70
    16
  0
VERTEX
  5
376
330
332
100
AcDbEntity
  8
image
 62
     5
100
AcDbVertex
100
AcDb2dVertex
 10
5.035217374255146
 20
7.317015557309405
 30
0.0
 70
    16
  0
VERTEX
  5
377
330
332
100
AcDbEntity
  8
image
 62
     5
100
AcDbVertex
100
AcDb2dVertex
 10
5.070705527283909
 20
7.171571492802357
 30
0.0
 70
    16
  0
VERTEX
  5
378
330
332
100
AcDbEntity
  8
image
 62
     5
100
AcDbVertex
100
AcDb2dVertex
 10
5.283634227610788
 20
7.093528339823318
 30
0.0
 70
    16
  0
VERTEX
  5
379
330
332
100
AcDbEntity
  8
image
 62
     5
100
AcDbVertex
100
AcDb2dVertex
 10
5.656259507644248
 20
7.019032649666169
 30
0.0
 70
    16
  0
VERTEX
  5
37A
330
332
100
AcDbEntity
  8
image
 62
     5
100
AcDbVertex
100
AcDb2dVertex
 10
6.004043189480424
 20
6.958726663781916
 30
0.0
 70
    16
  0
VERTEX
  5
37B
330
332
100
AcDbEntity
  8
image
 62
     5
100
AcDbVertex
100
AcDb2dVertex
 10
6.138898170989721
 20
6.852304249271696
 30
0.0
 70
    16
  0
VERTEX
  5
37C
330
332
100
AcDbEntity
  8
image
 62
     5
100
AcDbVertex
100
AcDb2dVertex
 10
6.142446877369748
 20
6.721049889037551
 30
0.0
 70
    16
  0
VERTEX
  5
37D
330
332
100
AcDbEntity
  8
image
 62
     5
100
AcDbVertex
100
AcDb2dVertex
 10
5.965006330071633
 20
6.66429121896056
 30
0.0
 70
    16
  0
VERTEX
  5
37E
330
332
100
AcDbEntity
  8
image
 62
     5
100
AcDbVertex
100
AcDb2dVertex
 10
5.857618409264514
 20
6.609837389675639
 30
0.0
 70
    16
  0
SEQEND
  5
37F
330
332
100
AcDbEntity
  8
image
 62
     5
  0
POLYLINE
  5
380
330
1F
100
AcDbEntity
  8
image
 62
     5
100
AcDb2dPolyline
 66
     1
 10
0.0
 20
0.0
 30
0.0
 70
     4
 40
0.0209283582775397
 41
0.0209283582775397
 75
     6
  0
VERTEX
  5
381
330
380
100
AcDbEntity
  8
image
 62
     5
100
AcDbVertex
100
AcDb2dVertex
 10
5.14867903681437
 20
7.512765384359829
 30
0.0
 70
    16
  0
VERTEX
  5
382
330
380
100
AcDbEntity
  8
image
 62
     5
100
AcDbVertex
100
AcDb2dVertex
 10
5.14867903681437
 20
7.512765384359829
 30
0.0
 70
     8
  0
VERTEX
  5
383
330
380
100
AcDbEntity
  8
image
 62
     5
100
AcDbVertex
100
AcDb2dVertex
 10
5.092727662741886
 20
7.498053742346957
 30
0.0
 70
     8
  0
VERTEX
  5
384
330
380
100
AcDbEntity
  8
image
 62
     5
100
AcDbVertex
100
AcDb2dVertex
 10
5.046537693657333
 20
7.481201882432833
 30
0.0
 70
     8
  0
VERTEX
  5
385
330
380
100
AcDbEntity
  8
image
 62
     5
100
AcDbVertex
100
AcDb2dVertex
 10
5.009067147860637
 20
7.462503672858455
 30
0.0
 70
     8
  0
VERTEX
  5
386
330
380
100
AcDbEntity
  8
image
 62
     5
100
AcDbVertex
100
AcDb2dVertex
 10
4.979274043651725
 20
7.442252981864831
 30
0.0
 70
     8
  0
VERTEX
  5
387
330
380
100
AcDbEntity
  8
image
 62
     5
100
AcDbVertex
100
AcDb2dVertex
 10
4.956116399330514
 20
7.420743677692961
 30
0.0
 70
     8
  0
VERTEX
  5
388
330
380
100
AcDbEntity
  8
image
 62
     5
100
AcDbVertex
100
AcDb2dVertex
 10
4.938552233196933
 20
7.39826962858385
 30
0.0
 70
     8
  0
VERTEX
  5
389
330
380
100
AcDbEntity
  8
image
 62
     5
100
AcDbVertex
100
AcDb2dVertex
 10
4.925539563550906
 20
7.375124702778499
 30
0.0
 70
     8
  0
VERTEX
  5
38A
330
380
100
AcDbEntity
  8
image
 62
     5
100
AcDbVertex
100
AcDb2dVertex
 10
4.916036408692356
 20
7.351602768517914
 30
0.0
 70
     8
  0
VERTEX
  5
38B
330
380
100
AcDbEntity
  8
image
 62
     5
100
AcDbVertex
100
AcDb2dVertex
 10
4.909170407309014
 20
7.327981626532477
 30
0.0
 70
     8
  0
VERTEX
  5
38C
330
380
100
AcDbEntity
  8
image
 62
     5
100
AcDbVertex
100
AcDb2dVertex
 10
4.904747679639835
 20
7.304474807510093
 30
0.0
 70
     8
  0
VERTEX
  5
38D
330
380
100
AcDbEntity
  8
image
 62
     5
100
AcDbVertex
100
AcDb2dVertex
 10
4.902743966311577
 20
7.281279774628043
 30
0.0
 70
     8
  0
VERTEX
  5
38E
330
380
100
AcDbEntity
  8
image
 62
     5
100
AcDbVertex
100
AcDb2dVertex
 10
4.903135007951004
 20
7.25859399106362
 30
0.0
 70
     8
  0
VERTEX
  5
38F
330
380
100
AcDbEntity
  8
image
 62
     5
100
AcDbVertex
100
AcDb2dVertex
 10
4.905896545184876
 20
7.236614919994106
 30
0.0
 70
     8
  0
VERTEX
  5
390
330
380
100
AcDbEntity
  8
image
 62
     5
100
AcDbVertex
100
AcDb2dVertex
 10
4.91100431863995
 20
7.215540024596785
 30
0.0
 70
     8
  0
VERTEX
  5
391
330
380
100
AcDbEntity
  8
image
 62
     5
100
AcDbVertex
100
AcDb2dVertex
 10
4.91843406894299
 20
7.195566768048942
 30
0.0
 70
     8
  0
VERTEX
  5
392
330
380
100
AcDbEntity
  8
image
 62
     5
100
AcDbVertex
100
AcDb2dVertex
 10
4.928161536720752
 20
7.176892613527868
 30
0.0
 70
     8
  0
VERTEX
  5
393
330
380
100
AcDbEntity
  8
image
 62
     5
100
AcDbVertex
100
AcDb2dVertex
 10
4.940151488020329
 20
7.159653244737794
 30
0.0
 70
     8
  0
VERTEX
  5
394
330
380
100
AcDbEntity
  8
image
 62
     5
100
AcDbVertex
100
AcDb2dVertex
 10
4.954324790570098
 20
7.143737227490774
 30
0.0
 70
     8
  0
VERTEX
  5
395
330
380
100
AcDbEntity
  8
image
 62
     5
100
AcDbVertex
100
AcDb2dVertex
 10
4.970591337518778
 20
7.128971348125812
 30
0.0
 70
     8
  0
VERTEX
  5
396
330
380
100
AcDbEntity
  8
image
 62
     5
100
AcDbVertex
100
AcDb2dVertex
 10
4.988861022015072
 20
7.115182392981909
 30
0.0
 70
     8
  0
VERTEX
  5
397
330
380
100
AcDbEntity
  8
image
 62
     5
100
AcDbVertex
100
AcDb2dVertex
 10
5.009043737207694
 20
7.102197148398072
 30
0.0
 70
     8
  0
VERTEX
  5
398
330
380
100
AcDbEntity
  8
image
 62
     5
100
AcDbVertex
100
AcDb2dVertex
 10
5.031049376245354
 20
7.089842400713306
 30
0.0
 70
     8
  0
VERTEX
  5
399
330
380
100
AcDbEntity
  8
image
 62
     5
100
AcDbVertex
100
AcDb2dVertex
 10
5.054787832276762
 20
7.077944936266611
 30
0.0
 70
     8
  0
VERTEX
  5
39A
330
380
100
AcDbEntity
  8
image
 62
     5
100
AcDbVertex
100
AcDb2dVertex
 10
5.080168998450631
 20
7.066331541396992
 30
0.0
 70
     8
  0
VERTEX
  5
39B
330
380
100
AcDbEntity
  8
image
 62
     5
100
AcDbVertex
100
AcDb2dVertex
 10
5.107016127165257
 20
7.054842859576534
 30
0.0
 70
     8
  0
VERTEX
  5
39C
330
380
100
AcDbEntity
  8
image
 62
     5
100
AcDbVertex
100
AcDb2dVertex
 10
5.134805907817311
 20
7.043374962809634
 30
0.0
 70
     8
  0
VERTEX
  5
39D
330
380
100
AcDbEntity
  8
image
 62
     5
100
AcDbVertex
100
AcDb2dVertex
 10
5.162928389053053
 20
7.031837780233766
 30
0.0
 70
     8
  0
VERTEX
  5
39E
330
380
100
AcDbEntity
  8
image
 62
     5
100
AcDbVertex
100
AcDb2dVertex
 10
5.190773619518735
 20
7.020141240986417
 30
0.0
 70
     8
  0
VERTEX
  5
39F
330
380
100
AcDbEntity
  8
image
 62
     5
100
AcDbVertex
100
AcDb2dVertex
 10
5.217731647860619
 20
7.008195274205057
 30
0.0
 70
     8
  0
VERTEX
  5
3A0
330
380
100
AcDbEntity
  8
image
 62
     5
100
AcDbVertex
100
AcDb2dVertex
 10
5.243192522724958
 20
6.995909809027168
 30
0.0
 70
     8
  0
VERTEX
  5
3A1
330
380
100
AcDbEntity
  8
image
 62
     5
100
AcDbVertex
100
AcDb2dVertex
 10
5.266546292758017
 20
6.983194774590227
 30
0.0
 70
     8
  0
VERTEX
  5
3A2
330
380
100
AcDbEntity
  8
image
 62
     5
100
AcDbVertex
100
AcDb2dVertex
 10
5.287183006606048
 20
6.969960100031711
 30
0.0
 70
     8
  0
VERTEX
  5
3A3
330
380
100
AcDbEntity
  8
image
 62
     5
100
AcDbVertex
100
AcDb2dVertex
 10
5.304634803763
 20
6.956162482151723
 30
0.0
 70
     8
  0
VERTEX
  5
3A4
330
380
100
AcDbEntity
  8
image
 62
     5
100
AcDbVertex
100
AcDb2dVertex
 10
5.319002187113579
 20
6.941945688400875
 30
0.0
 70
     8
  0
VERTEX
  5
3A5
330
380
100
AcDbEntity
  8
image
 62
     5
100
AcDbVertex
100
AcDb2dVertex
 10
5.33052775039018
 20
6.927500253892407
 30
0.0
 70
     8
  0
VERTEX
  5
3A6
330
380
100
AcDbEntity
  8
image
 62
     5
100
AcDbVertex
100
AcDb2dVertex
 10
5.339454087325199
 20
6.913016713739549
 30
0.0
 70
     8
  0
VERTEX
  5
3A7
330
380
100
AcDbEntity
  8
image
 62
     5
100
AcDbVertex
100
AcDb2dVertex
 10
5.34602379165103
 20
6.898685603055549
 30
0.0
 70
     8
  0
VERTEX
  5
3A8
330
380
100
AcDbEntity
  8
image
 62
     5
100
AcDbVertex
100
AcDb2dVertex
 10
5.350479457100071
 20
6.884697456953632
 30
0.0
 70
     8
  0
VERTEX
  5
3A9
330
380
100
AcDbEntity
  8
image
 62
     5
100
AcDbVertex
100
AcDb2dVertex
 10
5.353063677404714
 20
6.871242810547045
 30
0.0
 70
     8
  0
VERTEX
  5
3AA
330
380
100
AcDbEntity
  8
image
 62
     5
100
AcDbVertex
100
AcDb2dVertex
 10
5.354019046297359
 20
6.858512198949021
 30
0.0
 70
     8
  0
VERTEX
  5
3AB
330
380
100
AcDbEntity
  8
image
 62
     5
100
AcDbVertex
100
AcDb2dVertex
 10
5.35348250617183
 20
6.846607721226961
 30
0.0
 70
     8
  0
VERTEX
  5
3AC
330
380
100
AcDbEntity
  8
image
 62
     5
100
AcDbVertex
100
AcDb2dVertex
 10
5.351168394067712
 20
6.835277732264906
 30
0.0
 70
     8
  0
VERTEX
  5
3AD
330
380
100
AcDbEntity
  8
image
 62
     5
100
AcDbVertex
100
AcDb2dVertex
 10
5.346685395686012
 20
6.824182150901071
 30
0.0
 70
     8
  0
VERTEX
  5
3AE
330
380
100
AcDbEntity
  8
image
 62
     5
100
AcDbVertex
100
AcDb2dVertex
 10
5.33964219672774
 20
6.812980895973661
 30
0.0
 70
     8
  0
VERTEX
  5
3AF
330
380
100
AcDbEntity
  8
image
 62
     5
100
AcDbVertex
100
AcDb2dVertex
 10
5.329647482893916
 20
6.801333886320884
 30
0.0
 70
     8
  0
VERTEX
  5
3B0
330
380
100
AcDbEntity
  8
image
 62
     5
100
AcDbVertex
100
AcDb2dVertex
 10
5.316309939885544
 20
6.78890104078095
 30
0.0
 70
     8
  0
VERTEX
  5
3B1
330
380
100
AcDbEntity
  8
image
 62
     5
100
AcDbVertex
100
AcDb2dVertex
 10
5.299238253403642
 20
6.775342278192066
 30
0.0
 70
     8
  0
VERTEX
  5
3B2
330
380
100
AcDbEntity
  8
image
 62
     5
100
AcDbVertex
100
AcDb2dVertex
 10
5.278041109149219
 20
6.760317517392439
 30
0.0
 70
     8
  0
VERTEX
  5
3B3
330
380
100
AcDbEntity
  8
image
 62
     5
100
AcDbVertex
100
AcDb2dVertex
 10
4.985533960014878
 20
7.476649179074734
 30
0.0
 70
    16
  0
VERTEX
  5
3B4
330
380
100
AcDbEntity
  8
image
 62
     5
100
AcDbVertex
100
AcDb2dVertex
 10
4.88971605576007
 20
7.352489597469729
 30
0.0
 70
    16
  0
VERTEX
  5
3B5
330
380
100
AcDbEntity
  8
image
 62
     5
100
AcDbVertex
100
AcDb2dVertex
 10
4.903911316971573
 20
7.160929251351335
 30
0.0
 70
    16
  0
VERTEX
  5
3B6
330
380
100
AcDbEntity
  8
image
 62
     5
100
AcDbVertex
100
AcDb2dVertex
 10
5.063607896678157
 20
7.065149078292135
 30
0.0
 70
    16
  0
VERTEX
  5
3B7
330
380
100
AcDbEntity
  8
image
 62
     5
100
AcDbVertex
100
AcDb2dVertex
 10
5.32267108701958
 20
6.97646368386208
 30
0.0
 70
    16
  0
VERTEX
  5
3B8
330
380
100
AcDbEntity
  8
image
 62
     5
100
AcDbVertex
100
AcDb2dVertex
 10
5.368805794879817
 20
6.848756786449815
 30
0.0
 70
    16
  0
VERTEX
  5
3B9
330
380
100
AcDbEntity
  8
image
 62
     5
100
AcDbVertex
100
AcDb2dVertex
 10
5.340415272456807
 20
6.802640504838468
 30
0.0
 70
    16
  0
VERTEX
  5
3BA
330
380
100
AcDbEntity
  8
image
 62
     5
100
AcDbVertex
100
AcDb2dVertex
 10
5.278041109149219
 20
6.760317517392439
 30
0.0
 70
    16
  0
SEQEND
  5
3BB
330
380
100
AcDbEntity
  8
image
 62
     5
  0
LWPOLYLINE
  5
3BC
330
1F
100
AcDbEntity
  8
image
 62
     2
100
AcDbPolyline
 90
        2
 70
     0
 43
0.0
 10
5.160494098229285
 20
7.763167273545707
 10
5.160494098229285
 20
7.26236349517395
  0
LINE
  5
3BD
330
1F
100
AcDbEntity
  8
image
100
AcDbLine
 10
4.176633889750217
 20
6.027808106682228
 30
0.0
 11
4.176633889750217
 21
6.396586589529579
 31
0.0
  0
LINE
  5
3BE
330
1F
100
AcDbEntity
  8
image
100
AcDbLine
 10
4.176633889750217
 20
7.142862560962699
 30
0.0
 11
4.176633889750217
 21
7.520243204382878
 31
0.0
  0
LINE
  5
3BF
330
1F
100
AcDbEntity
  8
image
100
AcDbLine
 10
3.956973312478933
 20
7.520243204382878
 30
0.0
 11
3.956973312478933
 21
7.142862560962699
 31
0.0
  0
LINE
  5
3C0
330
1F
100
AcDbEntity
  8
image
100
AcDbLine
 10
4.324674265711569
 20
6.969852894913956
 30
0.0
 11
3.811349876438315
 21
6.969852894913956
 31
0.0
  0
LINE
  5
3C1
330
1F
100
AcDbEntity
  8
image
100
AcDbLine
 10
3.811349876438315
 20
7.142862560962699
 30
0.0
 11
4.324674265711569
 21
7.142862560962699
 31
0.0
  0
LINE
  5
3C2
330
1F
100
AcDbEntity
  8
image
100
AcDbLine
 10
4.176633889750217
 20
7.520243204382878
 30
0.0
 11
3.956973312478933
 21
7.520243204382878
 31
0.0
  0
LINE
  5
3C3
330
1F
100
AcDbEntity
  8
image
100
AcDbLine
 10
3.956973312478933
 20
6.396586589529579
 30
0.0
 11
3.956973312478932
 21
6.027808106682227
 31
0.0
  0
LINE
  5
3C4
330
1F
100
AcDbEntity
  8
image
100
AcDbLine
 10
3.811349876438315
 20
6.569596255578322
 30
0.0
 11
4.324674265711569
 21
6.569596255578322
 31
0.0
  0
LINE
  5
3C5
330
1F
100
AcDbEntity
  8
image
100
AcDbLine
 10
4.324674265711569
 20
6.396586589529579
 30
0.0
 11
3.811349876438315
 21
6.396586589529579
 31
0.0
  0
LINE
  5
3C6
330
1F
100
AcDbEntity
  8
image
100
AcDbLine
 10
4.176633889750217
 20
6.569596255578322
 30
0.0
 11
4.176633889750217
 21
6.969852894913956
 31
0.0
  0
LINE
  5
3C7
330
1F
100
AcDbEntity
  8
image
100
AcDbLine
 10
3.956973312478933
 20
6.969852894913956
 30
0.0
 11
3.956973312478933
 21
6.569596255578322
 31
0.0
  0
LINE
  5
3C8
330
1F
100
AcDbEntity
  8
image
100
AcDbLine
 10
4.324674265711569
 20
7.142862560962699
 30
0.0
 11
4.408238694766208
 21
7.101101620361547
 31
0.0
  0
LINE
  5
3C9
330
1F
100
AcDbEntity
  8
image
100
AcDbLine
 10
4.439239964782105
 20
7.038139723505833
 30
0.0
 11
4.408291419208488
 21
7.038139723505833
 31
0.0
  0
LINE
  5
3CA
330
1F
100
AcDbEntity
  8
image
100
AcDbLine
 10
4.408291419208488
 20
7.074954531857441
 30
0.0
 11
4.439239964782105
 21
7.074954531857441
 31
0.0
  0
LINE
  5
3CB
330
1F
100
AcDbEntity
  8
image
100
AcDbLine
 10
4.324674265711569
 20
6.970913868178932
 30
0.0
 11
4.408238694766208
 21
7.01267480878008
 31
0.0
  0
LINE
  5
3CC
330
1F
100
AcDbEntity
  8
image
100
AcDbLine
 10
4.408238694766208
 20
7.101101620361547
 30
0.0
 11
4.408238694766208
 21
7.01267480878008
 31
0.0
  0
LINE
  5
3CD
330
1F
100
AcDbEntity
  8
image
100
AcDbLine
 10
4.324674265711569
 20
7.142862560962699
 30
0.0
 11
4.324674265711569
 21
6.969852894913956
 31
0.0
  0
LWPOLYLINE
  5
3CE
330
1F
100
AcDbEntity
  8
image
100
AcDbPolyline
 90
        5
 70
     0
 43
0.0
 10
4.439239964782105
 20
7.133975491566951
 10
4.439239964782105
 20
6.986683574467231
 10
4.478537792566671
 20
6.986683574467231
 10
4.478537792566671
 20
7.133975491566951
 10
4.439239964782105
 20
7.133975491566951
  0
LINE
  5
3CF
330
1F
100
AcDbEntity
  8
image
100
AcDbLine
 10
4.43889796569151
 20
7.096908591422931
 30
0.0
 11
4.478897939169807
 21
7.096908591422931
 31
0.0
  0
LINE
  5
3D0
330
1F
100
AcDbEntity
  8
image
100
AcDbLine
 10
4.43889796569151
 20
7.023457669309749
 30
0.0
 11
4.478897939169807
 21
7.023457669309749
 31
0.0
  0
LINE
  5
3D1
330
1F
100
AcDbEntity
  8
image
100
AcDbLine
 10
3.811349876438315
 20
6.969852894913956
 30
0.0
 11
3.811349876438315
 21
7.142862560962699
 31
0.0
  0
LINE
  5
3D2
330
1F
100
AcDbEntity
  8
image
100
AcDbLine
 10
4.408238694766208
 20
6.527835314977171
 30
0.0
 11
4.408238694766208
 21
6.439408503395707
 31
0.0
  0
LINE
  5
3D3
330
1F
100
AcDbEntity
  8
image
100
AcDbLine
 10
4.439239964782105
 20
6.464873418121457
 30
0.0
 11
4.408291419208488
 21
6.464873418121457
 31
0.0
  0
LINE
  5
3D4
330
1F
100
AcDbEntity
  8
image
100
AcDbLine
 10
4.408291419208488
 20
6.501688226473068
 30
0.0
 11
4.439239964782105
 21
6.501688226473068
 31
0.0
  0
LINE
  5
3D5
330
1F
100
AcDbEntity
  8
image
100
AcDbLine
 10
4.324674265711569
 20
6.569596255578322
 30
0.0
 11
4.408238694766208
 21
6.527835314977171
 31
0.0
  0
LINE
  5
3D6
330
1F
100
AcDbEntity
  8
image
100
AcDbLine
 10
4.43889796569151
 20
6.450191363925373
 30
0.0
 11
4.478897939169807
 21
6.450191363925373
 31
0.0
  0
LINE
  5
3D7
330
1F
100
AcDbEntity
  8
image
100
AcDbLine
 10
4.43889796569151
 20
6.523642286038555
 30
0.0
 11
4.478897939169807
 21
6.523642286038555
 31
0.0
  0
LINE
  5
3D8
330
1F
100
AcDbEntity
  8
image
100
AcDbLine
 10
4.324674265711569
 20
6.397647562794555
 30
0.0
 11
4.408238694766208
 21
6.439408503395707
 31
0.0
  0
LINE
  5
3D9
330
1F
100
AcDbEntity
  8
image
100
AcDbLine
 10
4.324674265711569
 20
6.569596255578322
 30
0.0
 11
4.324674265711569
 21
6.396586589529579
 31
0.0
  0
LWPOLYLINE
  5
3DA
330
1F
100
AcDbEntity
  8
image
100
AcDbPolyline
 90
        5
 70
     0
 43
0.0
 10
4.439239964782105
 20
6.560709186182572
 10
4.439239964782105
 20
6.413417269082856
 10
4.478537792566671
 20
6.413417269082856
 10
4.478537792566671
 20
6.560709186182572
 10
4.439239964782105
 20
6.560709186182572
  0
LINE
  5
3DB
330
1F
100
AcDbEntity
  8
image
100
AcDbLine
 10
3.811349876438315
 20
6.396586589529579
 30
0.0
 11
3.811349876438315
 21
6.569596255578322
 31
0.0
  0
LINE
  5
3DC
330
1F
100
AcDbEntity
  8
image
100
AcDbLine
 10
3.956973312478932
 20
6.027808106682227
 30
0.0
 11
3.956973312478936
 21
4.008790421564309
 31
0.0
  0
LINE
  5
3DD
330
1F
100
AcDbEntity
  8
image
100
AcDbLine
 10
4.176633889750217
 20
2.723714456609618
 30
0.0
 11
4.176633889750217
 21
6.027808106682228
 31
0.0
  0
LINE
  5
3DE
330
1F
100
AcDbEntity
  8
image
100
AcDbLine
 10
3.956973312478933
 20
3.99760542246567
 30
0.0
 11
3.956973312478936
 21
2.723714456609619
 31
0.0
  0
LINE
  5
3DF
330
1F
100
AcDbEntity
  8
image
100
AcDbLine
 10
3.956973312478933
 20
2.723714456609619
 30
0.0
 11
4.067295857350303
 21
2.508399190200271
 31
0.0
  0
LINE
  5
3E0
330
1F
100
AcDbEntity
  8
image
100
AcDbLine
 10
4.176633889750217
 20
2.723714456609619
 30
0.0
 11
4.067295857350303
 21
2.508399190200271
 31
0.0
  0
LINE
  5
3E1
330
1F
100
AcDbEntity
  8
image
100
AcDbLine
 10
3.956973312478933
 20
2.723714456609619
 30
0.0
 11
4.176633889750215
 21
2.723714456609618
 31
0.0
  0
ARC
  5
3E2
330
1F
100
AcDbEntity
  8
image
100
AcDbCircle
 10
5.036089115880456
 20
5.873227982407909
 30
0.0
 40
0.1193494286124026
100
AcDbArc
 50
180.0
 51
0.0
  0
LINE
  5
3E3
330
1F
100
AcDbEntity
  8
image
100
AcDbLine
 10
5.265435206978902
 20
6.693221586485972
 30
0.0
 11
5.330904569863397
 21
6.693221586485972
 31
0.0
  0
LINE
  5
3E4
330
1F
100
AcDbEntity
  8
image
100
AcDbLine
 10
5.320850962012817
 20
6.542741458769171
 30
0.0
 11
5.320850962012817
 21
6.579339239263606
 31
0.0
  0
LINE
  5
3E5
330
1F
100
AcDbEntity
  8
image
100
AcDbLine
 10
5.265435206978902
 20
6.693221586485972
 30
0.0
 11
5.265435206978902
 21
6.711520476733189
 31
0.0
  0
LINE
  5
3E6
330
1F
100
AcDbEntity
  8
image
100
AcDbLine
 10
5.278041109149219
 20
6.79081566780447
 30
0.0
 11
5.278041109149219
 21
6.729819366980406
 31
0.0
  0
LINE
  5
3E7
330
1F
100
AcDbEntity
  8
image
100
AcDbLine
 10
5.330904569863397
 20
6.729819366980406
 30
0.0
 11
5.330904569863397
 21
6.693221586485972
 31
0.0
  0
LINE
  5
3E8
330
1F
100
AcDbEntity
  8
image
100
AcDbLine
 10
5.127583567116542
 20
6.79081566780447
 30
0.0
 11
5.278041109149219
 21
6.79081566780447
 31
0.0
  0
LINE
  5
3E9
330
1F
100
AcDbEntity
  8
image
100
AcDbLine
 10
5.143849247336293
 20
6.79081566780447
 30
0.0
 11
5.143849247336293
 21
6.729819366980406
 31
0.0
  0
LINE
  5
3EA
330
1F
100
AcDbEntity
  8
image
100
AcDbLine
 10
5.127583567116542
 20
6.79081566780447
 30
0.0
 11
5.127583567116542
 21
6.729819366980406
 31
0.0
  0
LINE
  5
3EB
330
1F
100
AcDbEntity
  8
image
100
AcDbLine
 10
5.155438544492856
 20
6.591561085112551
 30
0.0
 11
5.265435206978902
 21
6.693221586485972
 31
0.0
  0
LINE
  5
3EC
330
1F
100
AcDbEntity
  8
image
100
AcDbLine
 10
5.155438544492856
 20
6.591561085112548
 30
0.0
 11
5.155438544492856
 21
5.873227982407909
 31
0.0
  0
LINE
  5
3ED
330
1F
100
AcDbEntity
  8
image
100
AcDbLine
 10
4.810402802831446
 20
6.79081566780447
 30
0.0
 11
4.944594664644371
 21
6.79081566780447
 31
0.0
  0
LINE
  5
3EE
330
1F
100
AcDbEntity
  8
image
100
AcDbLine
 10
4.916739687268052
 20
6.591561085112551
 30
0.0
 11
4.806743024782011
 21
6.693221586485972
 31
0.0
  0
LINE
  5
3EF
330
1F
100
AcDbEntity
  8
image
100
AcDbLine
 10
4.741273661897521
 20
6.693221586485972
 30
0.0
 11
4.806743024782011
 21
6.693221586485972
 31
0.0
  0
LINE
  5
3F0
330
1F
100
AcDbEntity
  8
image
100
AcDbLine
 10
4.741273661897521
 20
6.693221586485972
 30
0.0
 11
4.741273661897521
 21
6.729819366980406
 31
0.0
  0
LINE
  5
3F1
330
1F
100
AcDbEntity
  8
image
100
AcDbLine
 10
4.810402802831446
 20
6.79081566780447
 30
0.0
 11
4.810402802831446
 21
6.729819366980406
 31
0.0
  0
LINE
  5
3F2
330
1F
100
AcDbEntity
  8
image
100
AcDbLine
 10
4.806743024782011
 20
6.693221586485972
 30
0.0
 11
4.806743024782011
 21
6.711520476733189
 31
0.0
  0
LINE
  5
3F3
330
1F
100
AcDbEntity
  8
image
100
AcDbLine
 10
4.928328984424625
 20
6.79081566780447
 30
0.0
 11
4.928328984424625
 21
6.729819366980406
 31
0.0
  0
LINE
  5
3F4
330
1F
100
AcDbEntity
  8
image
100
AcDbLine
 10
4.944594664644371
 20
6.79081566780447
 30
0.0
 11
4.944594664644371
 21
6.729819366980406
 31
0.0
  0
LINE
  5
3F5
330
1F
100
AcDbEntity
  8
image
100
AcDbLine
 10
4.916739687268052
 20
6.591561085112551
 30
0.0
 11
4.916739687268052
 21
5.87322798240789
 31
0.0
  0
LINE
  5
3F6
330
1F
100
AcDbEntity
  8
image
100
AcDbLine
 10
4.741273661897521
 20
6.711520476733189
 30
0.0
 11
5.330904569863397
 21
6.711520476733189
 31
0.0
  0
LINE
  5
3F7
330
1F
100
AcDbEntity
  8
image
100
AcDbLine
 10
4.741273661897521
 20
6.729819366980406
 30
0.0
 11
5.330904569863397
 21
6.729819366980406
 31
0.0
  0
LINE
  5
3F8
330
1F
100
AcDbEntity
  8
image
100
AcDbLine
 10
4.916739687268052
 20
6.591561085112551
 30
0.0
 11
5.155438544492856
 21
6.591561085112551
 31
0.0
  0
LINE
  5
3F9
330
1F
100
AcDbEntity
  8
image
100
AcDbLine
 10
5.857618409264514
 20
6.640335540087669
 30
0.0
 11
5.857618409264514
 21
6.579339239263606
 31
0.0
  0
LINE
  5
3FA
330
1F
100
AcDbEntity
  8
image
100
AcDbLine
 10
5.845012507094202
 20
6.542741458769171
 30
0.0
 11
5.845012507094202
 21
6.561040349016387
 31
0.0
  0
LINE
  5
3FB
330
1F
100
AcDbEntity
  8
image
100
AcDbLine
 10
5.845012507094202
 20
6.542741458769171
 30
0.0
 11
5.910481869978693
 21
6.542741458769171
 31
0.0
  0
LINE
  5
3FC
330
1F
100
AcDbEntity
  8
image
100
AcDbLine
 10
5.910481869978693
 20
6.579339239263606
 30
0.0
 11
5.910481869978693
 21
6.542741458769171
 31
0.0
  0
ARC
  5
3FD
330
1F
100
AcDbEntity
  8
image
100
AcDbCircle
 10
5.615666415995752
 20
5.72274785469111
 30
0.0
 40
0.1193494286124026
100
AcDbArc
 50
180.0
 51
0.0
  0
LINE
  5
3FE
330
1F
100
AcDbEntity
  8
image
100
AcDbLine
 10
5.707160867231842
 20
6.640335540087669
 30
0.0
 11
5.857618409264514
 21
6.640335540087669
 31
0.0
  0
LINE
  5
3FF
330
1F
100
AcDbEntity
  8
image
100
AcDbLine
 10
5.707160867231842
 20
6.640335540087669
 30
0.0
 11
5.707160867231842
 21
6.579339239263606
 31
0.0
  0
LINE
  5
400
330
1F
100
AcDbEntity
  8
image
100
AcDbLine
 10
5.723426547451588
 20
6.640335540087669
 30
0.0
 11
5.723426547451588
 21
6.579339239263606
 31
0.0
  0
LINE
  5
401
330
1F
100
AcDbEntity
  8
image
100
AcDbLine
 10
5.735015844608152
 20
6.441080957395751
 30
0.0
 11
5.845012507094202
 21
6.542741458769171
 31
0.0
  0
LINE
  5
402
330
1F
100
AcDbEntity
  8
image
100
AcDbLine
 10
5.524171964759667
 20
6.640335540087669
 30
0.0
 11
5.524171964759667
 21
6.579339239263606
 31
0.0
  0
LINE
  5
403
330
1F
100
AcDbEntity
  8
image
100
AcDbLine
 10
5.507906284539921
 20
6.640335540087669
 30
0.0
 11
5.507906284539921
 21
6.579339239263606
 31
0.0
  0
LINE
  5
404
330
1F
100
AcDbEntity
  8
image
100
AcDbLine
 10
5.386320324897307
 20
6.542741458769171
 30
0.0
 11
5.386320324897307
 21
6.561040349016387
 31
0.0
  0
LINE
  5
405
330
1F
100
AcDbEntity
  8
image
100
AcDbLine
 10
5.389980102946742
 20
6.640335540087669
 30
0.0
 11
5.389980102946742
 21
6.579339239263606
 31
0.0
  0
LINE
  5
406
330
1F
100
AcDbEntity
  8
image
100
AcDbLine
 10
5.496316987383348
 20
6.441080957395751
 30
0.0
 11
5.386320324897307
 21
6.542741458769171
 31
0.0
  0
LINE
  5
407
330
1F
100
AcDbEntity
  8
image
100
AcDbLine
 10
5.389980102946742
 20
6.640335540087669
 30
0.0
 11
5.524171964759667
 21
6.640335540087669
 31
0.0
  0
LINE
  5
408
330
1F
100
AcDbEntity
  8
image
100
AcDbLine
 10
5.320850962012817
 20
6.542741458769171
 30
0.0
 11
5.386320324897307
 21
6.542741458769171
 31
0.0
  0
LINE
  5
409
330
1F
100
AcDbEntity
  8
image
100
AcDbLine
 10
5.496316987383348
 20
6.441080957395751
 30
0.0
 11
5.735015844608152
 21
6.441080957395751
 31
0.0
  0
LINE
  5
40A
330
1F
100
AcDbEntity
  8
image
100
AcDbLine
 10
5.320850962012817
 20
6.579339239263606
 30
0.0
 11
5.910481869978693
 21
6.579339239263606
 31
0.0
  0
LINE
  5
40B
330
1F
100
AcDbEntity
  8
image
100
AcDbLine
 10
5.320850962012817
 20
6.561040349016387
 30
0.0
 11
5.910481869978693
 21
6.561040349016387
 31
0.0
  0
LINE
  5
40C
330
1F
100
AcDbEntity
  8
image
100
AcDbLine
 10
5.735015844608152
 20
6.441080957395749
 30
0.0
 11
5.735015844608152
 21
5.722747854691111
 31
0.0
  0
LINE
  5
40D
330
1F
100
AcDbEntity
  8
image
100
AcDbLine
 10
5.496316987383348
 20
6.441080957395751
 30
0.0
 11
5.496316987383348
 21
5.72274785469109
 31
0.0
  0
POLYLINE
  5
40E
330
1F
100
AcDbEntity
  8
image
 62
     5
100
AcDb2dPolyline
 66
     1
 10
0.0
 20
0.0
 30
0.0
 70
     4
 40
0.0209283582775397
 41
0.0209283582775397
  0
VERTEX
  5
40F
330
40E
100
AcDbEntity
  8
image
 62
     5
100
AcDbVertex
100
AcDb2dVertex
 10
4.810402802831446
 20
6.768645304831972
 30
0.0
 70
    16
  0
VERTEX
  5
410
330
40E
100
AcDbEntity
  8
image
 62
     5
100
AcDbVertex
100
AcDb2dVertex
 10
4.810402802831446
 20
6.768645304831972
 30
0.0
 70
     8
  0
VERTEX
  5
411
330
40E
100
AcDbEntity
  8
image
 62
     5
100
AcDbVertex
100
AcDb2dVertex
 10
4.770331765706799
 20
6.766134259107396
 30
0.0
 70
     8
  0
VERTEX
  5
412
330
40E
100
AcDbEntity
  8
image
 62
     5
100
AcDbVertex
100
AcDb2dVertex
 10
4.73806123088571
 20
6.758848193543472
 30
0.0
 70
     8
  0
VERTEX
  5
413
330
40E
100
AcDbEntity
  8
image
 62
     5
100
AcDbVertex
100
AcDb2dVertex
 10
4.712515360520456
 20
6.747157715554922
 30
0.0
 70
     8
  0
VERTEX
  5
414
330
40E
100
AcDbEntity
  8
image
 62
     5
100
AcDbVertex
100
AcDb2dVertex
 10
4.692618316763321
 20
6.731433432556463
 30
0.0
 70
     8
  0
VERTEX
  5
415
330
40E
100
AcDbEntity
  8
image
 62
     5
100
AcDbVertex
100
AcDb2dVertex
 10
4.677294261766597
 20
6.712045951962807
 30
0.0
 70
     8
  0
VERTEX
  5
416
330
40E
100
AcDbEntity
  8
image
 62
     5
100
AcDbVertex
100
AcDb2dVertex
 10
4.665467357682566
 20
6.689365881188676
 30
0.0
 70
     8
  0
VERTEX
  5
417
330
40E
100
AcDbEntity
  8
image
 62
     5
100
AcDbVertex
100
AcDb2dVertex
 10
4.656061766663512
 20
6.663763827648788
 30
0.0
 70
     8
  0
VERTEX
  5
418
330
40E
100
AcDbEntity
  8
image
 62
     5
100
AcDbVertex
100
AcDb2dVertex
 10
4.648001650861721
 20
6.635610398757854
 30
0.0
 70
     8
  0
VERTEX
  5
419
330
40E
100
AcDbEntity
  8
image
 62
     5
100
AcDbVertex
100
AcDb2dVertex
 10
4.640435929304616
 20
6.605177169124919
 30
0.0
 70
     8
  0
VERTEX
  5
41A
330
40E
100
AcDbEntity
  8
image
 62
     5
100
AcDbVertex
100
AcDb2dVertex
 10
4.633412548520181
 20
6.572339582136314
 30
0.0
 70
     8
  0
VERTEX
  5
41B
330
40E
100
AcDbEntity
  8
image
 62
     5
100
AcDbVertex
100
AcDb2dVertex
 10
4.627204211911537
 20
6.536874048372704
 30
0.0
 70
     8
  0
VERTEX
  5
41C
330
40E
100
AcDbEntity
  8
image
 62
     5
100
AcDbVertex
100
AcDb2dVertex
 10
4.622083622881814
 20
6.498556978414744
 30
0.0
 70
     8
  0
VERTEX
  5
41D
330
40E
100
AcDbEntity
  8
image
 62
     5
100
AcDbVertex
100
AcDb2dVertex
 10
4.618323484834133
 20
6.45716478284309
 30
0.0
 70
     8
  0
VERTEX
  5
41E
330
40E
100
AcDbEntity
  8
image
 62
     5
100
AcDbVertex
100
AcDb2dVertex
 10
4.616196501171613
 20
6.412473872238406
 30
0.0
 70
     8
  0
VERTEX
  5
41F
330
40E
100
AcDbEntity
  8
image
 62
     5
100
AcDbVertex
100
AcDb2dVertex
 10
4.615975375297386
 20
6.364260657181346
 30
0.0
 70
     8
  0
VERTEX
  5
420
330
40E
100
AcDbEntity
  8
image
 62
     5
100
AcDbVertex
100
AcDb2dVertex
 10
4.617932810614565
 20
6.31230154825257
 30
0.0
 70
     8
  0
VERTEX
  5
421
330
40E
100
AcDbEntity
  8
image
 62
     5
100
AcDbVertex
100
AcDb2dVertex
 10
4.62224601331972
 20
6.256525589170165
 30
0.0
 70
     8
  0
VERTEX
  5
422
330
40E
100
AcDbEntity
  8
image
 62
     5
100
AcDbVertex
100
AcDb2dVertex
 10
4.628710200783164
 20
6.19747235620192
 30
0.0
 70
     8
  0
VERTEX
  5
423
330
40E
100
AcDbEntity
  8
image
 62
     5
100
AcDbVertex
100
AcDb2dVertex
 10
4.637025093168642
 20
6.135834058753049
 30
0.0
 70
     8
  0
VERTEX
  5
424
330
40E
100
AcDbEntity
  8
image
 62
     5
100
AcDbVertex
100
AcDb2dVertex
 10
4.646890410639906
 20
6.07230290622877
 30
0.0
 70
     8
  0
VERTEX
  5
425
330
40E
100
AcDbEntity
  8
image
 62
     5
100
AcDbVertex
100
AcDb2dVertex
 10
4.658005873360716
 20
6.0075711080343
 30
0.0
 70
     8
  0
VERTEX
  5
426
330
40E
100
AcDbEntity
  8
image
 62
     5
100
AcDbVertex
100
AcDb2dVertex
 10
4.670071201494812
 20
5.942330873574854
 30
0.0
 70
     8
  0
VERTEX
  5
427
330
40E
100
AcDbEntity
  8
image
 62
     5
100
AcDbVertex
100
AcDb2dVertex
 10
4.682786115205951
 20
5.877274412255648
 30
0.0
 70
     8
  0
VERTEX
  5
428
330
40E
100
AcDbEntity
  8
image
 62
     5
100
AcDbVertex
100
AcDb2dVertex
 10
4.695850334657885
 20
5.813093933481897
 30
0.0
 70
     8
  0
VERTEX
  5
429
330
40E
100
AcDbEntity
  8
image
 62
     5
100
AcDbVertex
100
AcDb2dVertex
 10
4.709005455740556
 20
5.750368320329258
 30
0.0
 70
     8
  0
VERTEX
  5
42A
330
40E
100
AcDbEntity
  8
image
 62
     5
100
AcDbVertex
100
AcDb2dVertex
 10
4.722160577248682
 20
5.689223150555125
 30
0.0
 70
     8
  0
VERTEX
  5
42B
330
40E
100
AcDbEntity
  8
image
 62
     5
100
AcDbVertex
100
AcDb2dVertex
 10
4.735266673703166
 20
5.629670675587334
 30
0.0
 70
     8
  0
VERTEX
  5
42C
330
40E
100
AcDbEntity
  8
image
 62
     5
100
AcDbVertex
100
AcDb2dVertex
 10
4.748274719624928
 20
5.571723146853718
 30
0.0
 70
     8
  0
VERTEX
  5
42D
330
40E
100
AcDbEntity
  8
image
 62
     5
100
AcDbVertex
100
AcDb2dVertex
 10
4.761135689534874
 20
5.515392815782114
 30
0.0
 70
     8
  0
VERTEX
  5
42E
330
40E
100
AcDbEntity
  8
image
 62
     5
100
AcDbVertex
100
AcDb2dVertex
 10
4.773800557953905
 20
5.460691933800356
 30
0.0
 70
     8
  0
VERTEX
  5
42F
330
40E
100
AcDbEntity
  8
image
 62
     5
100
AcDbVertex
100
AcDb2dVertex
 10
4.786220299402947
 20
5.407632752336277
 30
0.0
 70
     8
  0
VERTEX
  5
430
330
40E
100
AcDbEntity
  8
image
 62
     5
100
AcDbVertex
100
AcDb2dVertex
 10
4.798345888402895
 20
5.356227522817713
 30
0.0
 70
     8
  0
VERTEX
  5
431
330
40E
100
AcDbEntity
  8
image
 62
     5
100
AcDbVertex
100
AcDb2dVertex
 10
4.810102652120458
 20
5.306475476719036
 30
0.0
 70
     8
  0
VERTEX
  5
432
330
40E
100
AcDbEntity
  8
image
 62
     5
100
AcDbVertex
100
AcDb2dVertex
 10
4.821313328305529
 20
5.258323765700773
 30
0.0
 70
     8
  0
VERTEX
  5
433
330
40E
100
AcDbEntity
  8
image
 62
     5
100
AcDbVertex
100
AcDb2dVertex
 10
4.831775007353778
 20
5.211706521469992
 30
0.0
 70
     8
  0
VERTEX
  5
434
330
40E
100
AcDbEntity
  8
image
 62
     5
100
AcDbVertex
100
AcDb2dVertex
 10
4.841284779660895
 20
5.166557875733754
 30
0.0
 70
     8
  0
VERTEX
  5
435
330
40E
100
AcDbEntity
  8
image
 62
     5
100
AcDbVertex
100
AcDb2dVertex
 10
4.849639735622562
 20
5.12281196019913
 30
0.0
 70
     8
  0
VERTEX
  5
436
330
40E
100
AcDbEntity
  8
image
 62
     5
100
AcDbVertex
100
AcDb2dVertex
 10
4.856636965634458
 20
5.080402906573178
 30
0.0
 70
     8
  0
VERTEX
  5
437
330
40E
100
AcDbEntity
  8
image
 62
     5
100
AcDbVertex
100
AcDb2dVertex
 10
4.862073560092264
 20
5.039264846562969
 30
0.0
 70
     8
  0
VERTEX
  5
438
330
40E
100
AcDbEntity
  8
image
 62
     5
100
AcDbVertex
100
AcDb2dVertex
 10
4.865746609391665
 20
4.999331911875568
 30
0.0
 70
     8
  0
VERTEX
  5
439
330
40E
100
AcDbEntity
  8
image
 62
     5
100
AcDbVertex
100
AcDb2dVertex
 10
4.867530178467272
 20
4.960422922068022
 30
0.0
 70
     8
  0
VERTEX
  5
43A
330
40E
100
AcDbEntity
  8
image
 62
     5
100
AcDbVertex
100
AcDb2dVertex
 10
4.8676062304094
 20
4.921895448097317
 30
0.0
 70
     8
  0
VERTEX
  5
43B
330
40E
100
AcDbEntity
  8
image
 62
     5
100
AcDbVertex
100
AcDb2dVertex
 10
4.86623370284732
 20
4.882991748770418
 30
0.0
 70
     8
  0
VERTEX
  5
43C
330
40E
100
AcDbEntity
  8
image
 62
     5
100
AcDbVertex
100
AcDb2dVertex
 10
4.863671533410273
 20
4.842954082894299
 30
0.0
 70
     8
  0
VERTEX
  5
43D
330
40E
100
AcDbEntity
  8
image
 62
     5
100
AcDbVertex
100
AcDb2dVertex
 10
4.860178659727519
 20
4.801024709275924
 30
0.0
 70
     8
  0
VERTEX
  5
43E
330
40E
100
AcDbEntity
  8
image
 62
     5
100
AcDbVertex
100
AcDb2dVertex
 10
4.856014019428314
 20
4.756445886722259
 30
0.0
 70
     8
  0
VERTEX
  5
43F
330
40E
100
AcDbEntity
  8
image
 62
     5
100
AcDbVertex
100
AcDb2dVertex
 10
4.851436550141908
 20
4.708459874040276
 30
0.0
 70
     8
  0
VERTEX
  5
440
330
40E
100
AcDbEntity
  8
image
 62
     5
100
AcDbVertex
100
AcDb2dVertex
 10
4.846705189497558
 20
4.656308930036939
 30
0.0
 70
     8
  0
VERTEX
  5
441
330
40E
100
AcDbEntity
  8
image
 62
     5
100
AcDbVertex
100
AcDb2dVertex
 10
4.842027929146497
 20
4.599489355311926
 30
0.0
 70
     8
  0
VERTEX
  5
442
330
40E
100
AcDbEntity
  8
image
 62
     5
100
AcDbVertex
100
AcDb2dVertex
 10
4.837408976827854
 20
4.53851361763572
 30
0.0
 70
     8
  0
VERTEX
  5
443
330
40E
100
AcDbEntity
  8
image
 62
     5
100
AcDbVertex
100
AcDb2dVertex
 10
4.83280159430274
 20
4.474148226571509
 30
0.0
 70
     8
  0
VERTEX
  5
444
330
40E
100
AcDbEntity
  8
image
 62
     5
100
AcDbVertex
100
AcDb2dVertex
 10
4.828159043332272
 20
4.407159691682483
 30
0.0
 70
     8
  0
VERTEX
  5
445
330
40E
100
AcDbEntity
  8
image
 62
     5
100
AcDbVertex
100
AcDb2dVertex
 10
4.823434585677556
 20
4.338314522531833
 30
0.0
 70
     8
  0
VERTEX
  5
446
330
40E
100
AcDbEntity
  8
image
 62
     5
100
AcDbVertex
100
AcDb2dVertex
 10
4.818581483099699
 20
4.268379228682751
 30
0.0
 70
     8
  0
VERTEX
  5
447
330
40E
100
AcDbEntity
  8
image
 62
     5
100
AcDbVertex
100
AcDb2dVertex
 10
4.81355299735982
 20
4.198120319698425
 30
0.0
 70
     8
  0
VERTEX
  5
448
330
40E
100
AcDbEntity
  8
image
 62
     5
100
AcDbVertex
100
AcDb2dVertex
 10
4.808302390219018
 20
4.128304305142044
 30
0.0
 70
     8
  0
VERTEX
  5
449
330
40E
100
AcDbEntity
  8
image
 62
     5
100
AcDbVertex
100
AcDb2dVertex
 10
4.802745902779474
 20
4.059681924584065
 30
0.0
 70
     8
  0
VERTEX
  5
44A
330
40E
100
AcDbEntity
  8
image
 62
     5
100
AcDbVertex
100
AcDb2dVertex
 10
4.796651693507593
 20
3.992940837624001
 30
0.0
 70
     8
  0
VERTEX
  5
44B
330
40E
100
AcDbEntity
  8
image
 62
     5
100
AcDbVertex
100
AcDb2dVertex
 10
4.78975090021085
 20
3.928752933868631
 30
0.0
 70
     8
  0
VERTEX
  5
44C
330
40E
100
AcDbEntity
  8
image
 62
     5
100
AcDbVertex
100
AcDb2dVertex
 10
4.781774660696712
 20
3.867790102924737
 30
0.0
 70
     8
  0
VERTEX
  5
44D
330
40E
100
AcDbEntity
  8
image
 62
     5
100
AcDbVertex
100
AcDb2dVertex
 10
4.772454112772646
 20
3.810724234399101
 30
0.0
 70
     8
  0
VERTEX
  5
44E
330
40E
100
AcDbEntity
  8
image
 62
     5
100
AcDbVertex
100
AcDb2dVertex
 10
4.761520394246129
 20
3.758227217898496
 30
0.0
 70
     8
  0
VERTEX
  5
44F
330
40E
100
AcDbEntity
  8
image
 62
     5
100
AcDbVertex
100
AcDb2dVertex
 10
4.748704642924634
 20
3.710970943029707
 30
0.0
 70
     8
  0
VERTEX
  5
450
330
40E
100
AcDbEntity
  8
image
 62
     5
100
AcDbVertex
100
AcDb2dVertex
 10
4.733737996615621
 20
3.669627299399515
 30
0.0
 70
     8
  0
VERTEX
  5
451
330
40E
100
AcDbEntity
  8
image
 62
     5
100
AcDbVertex
100
AcDb2dVertex
 10
4.716190555951175
 20
3.634662410481838
 30
0.0
 70
     8
  0
VERTEX
  5
452
330
40E
100
AcDbEntity
  8
image
 62
     5
100
AcDbVertex
100
AcDb2dVertex
 10
4.694988272861805
 20
3.605719335219168
 30
0.0
 70
     8
  0
VERTEX
  5
453
330
40E
100
AcDbEntity
  8
image
 62
     5
100
AcDbVertex
100
AcDb2dVertex
 10
4.668896062102614
 20
3.582235366421145
 30
0.0
 70
     8
  0
VERTEX
  5
454
330
40E
100
AcDbEntity
  8
image
 62
     5
100
AcDbVertex
100
AcDb2dVertex
 10
4.636678838428719
 20
3.563647796897392
 30
0.0
 70
     8
  0
VERTEX
  5
455
330
40E
100
AcDbEntity
  8
image
 62
     5
100
AcDbVertex
100
AcDb2dVertex
 10
4.597101516595236
 20
3.549393919457547
 30
0.0
 70
     8
  0
VERTEX
  5
456
330
40E
100
AcDbEntity
  8
image
 62
     5
100
AcDbVertex
100
AcDb2dVertex
 10
4.54892901135727
 20
3.538911026911246
 30
0.0
 70
     8
  0
VERTEX
  5
457
330
40E
100
AcDbEntity
  8
image
 62
     5
100
AcDbVertex
100
AcDb2dVertex
 10
4.490926237469942
 20
3.531636412068119
 30
0.0
 70
     8
  0
VERTEX
  5
458
330
40E
100
AcDbEntity
  8
image
 62
     5
100
AcDbVertex
100
AcDb2dVertex
 10
4.421858109688364
 20
3.5270073677378
 30
0.0
 70
     8
  0
VERTEX
  5
459
330
40E
100
AcDbEntity
  8
image
 62
     5
100
AcDbVertex
100
AcDb2dVertex
 10
4.341210492422948
 20
3.524457834503445
 30
0.0
 70
     8
  0
VERTEX
  5
45A
330
40E
100
AcDbEntity
  8
image
 62
     5
100
AcDbVertex
100
AcDb2dVertex
 10
4.251353048705352
 20
3.523408344042303
 30
0.0
 70
     8
  0
VERTEX
  5
45B
330
40E
100
AcDbEntity
  8
image
 62
     5
100
AcDbVertex
100
AcDb2dVertex
 10
4.155376391222516
 20
3.523276075805144
 30
0.0
 70
     8
  0
VERTEX
  5
45C
330
40E
100
AcDbEntity
  8
image
 62
     5
100
AcDbVertex
100
AcDb2dVertex
 10
4.056371132661408
 20
3.523478209242736
 30
0.0
 70
     8
  0
VERTEX
  5
45D
330
40E
100
AcDbEntity
  8
image
 62
     5
100
AcDbVertex
100
AcDb2dVertex
 10
3.957427885708974
 20
3.523431923805856
 30
0.0
 70
     8
  0
VERTEX
  5
45E
330
40E
100
AcDbEntity
  8
image
 62
     5
100
AcDbVertex
100
AcDb2dVertex
 10
3.861637263052172
 20
3.522554398945273
 30
0.0
 70
     8
  0
VERTEX
  5
45F
330
40E
100
AcDbEntity
  8
image
 62
     5
100
AcDbVertex
100
AcDb2dVertex
 10
3.77208987737795
 20
3.520262814111755
 30
0.0
 70
     8
  0
VERTEX
  5
460
330
40E
100
AcDbEntity
  8
image
 62
     5
100
AcDbVertex
100
AcDb2dVertex
 10
3.691876341373268
 20
3.515974348756073
 30
0.0
 70
     8
  0
VERTEX
  5
461
330
40E
100
AcDbEntity
  8
image
 62
     5
100
AcDbVertex
100
AcDb2dVertex
 10
4.692189733785239
 20
6.768645304831972
 30
0.0
 70
    16
  0
VERTEX
  5
462
330
40E
100
AcDbEntity
  8
image
 62
     5
100
AcDbVertex
100
AcDb2dVertex
 10
4.645125518919887
 20
6.658871923411994
 30
0.0
 70
    16
  0
VERTEX
  5
463
330
40E
100
AcDbEntity
  8
image
 62
     5
100
AcDbVertex
100
AcDb2dVertex
 10
4.591785988272856
 20
6.354642703357177
 30
0.0
 70
    16
  0
VERTEX
  5
464
330
40E
100
AcDbEntity
  8
image
 62
     5
100
AcDbVertex
100
AcDb2dVertex
 10
4.695327391676077
 20
5.796366552674721
 30
0.0
 70
    16
  0
VERTEX
  5
465
330
40E
100
AcDbEntity
  8
image
 62
     5
100
AcDbVertex
100
AcDb2dVertex
 10
4.802006452970139
 20
5.338454686835323
 30
0.0
 70
    16
  0
VERTEX
  5
466
330
40E
100
AcDbEntity
  8
image
 62
     5
100
AcDbVertex
100
AcDb2dVertex
 10
4.886722126860735
 20
4.987179836890264
 30
0.0
 70
    16
  0
VERTEX
  5
467
330
40E
100
AcDbEntity
  8
image
 62
     5
100
AcDbVertex
100
AcDb2dVertex
 10
4.845584695936919
 20
4.708817436857029
 30
0.0
 70
    16
  0
VERTEX
  5
468
330
40E
100
AcDbEntity
  8
image
 62
     5
100
AcDbVertex
100
AcDb2dVertex
 10
4.811170226376951
 20
4.115403995903266
 30
0.0
 70
    16
  0
VERTEX
  5
469
330
40E
100
AcDbEntity
  8
image
 62
     5
100
AcDbVertex
100
AcDb2dVertex
 10
4.759548739869399
 20
3.599392410382183
 30
0.0
 70
    16
  0
VERTEX
  5
46A
330
40E
100
AcDbEntity
  8
image
 62
     5
100
AcDbVertex
100
AcDb2dVertex
 10
4.553062793839191
 20
3.504790158965089
 30
0.0
 70
    16
  0
VERTEX
  5
46B
330
40E
100
AcDbEntity
  8
image
 62
     5
100
AcDbVertex
100
AcDb2dVertex
 10
3.890586759882409
 20
3.530590826444531
 30
0.0
 70
    16
  0
VERTEX
  5
46C
330
40E
100
AcDbEntity
  8
image
 62
     5
100
AcDbVertex
100
AcDb2dVertex
 10
3.691876341373268
 20
3.515974348756073
 30
0.0
 70
    16
  0
SEQEND
  5
46D
330
40E
100
AcDbEntity
  8
image
 62
     5
  0
POLYLINE
  5
46E
330
1F
100
AcDbEntity
  8
image
 62
     5
100
AcDb2dPolyline
 66
     1
 10
0.0
 20
0.0
 30
0.0
 70
     4
 40
0.0209283582775397
 41
0.0209283582775397
  0
VERTEX
  5
46F
330
46E
100
AcDbEntity
  8
image
 62
     5
100
AcDbVertex
100
AcDb2dVertex
 10
5.389980102946742
 20
6.614560451591186
 30
0.0
 70
    16
  0
VERTEX
  5
470
330
46E
100
AcDbEntity
  8
image
 62
     5
100
AcDbVertex
100
AcDb2dVertex
 10
5.389980102946742
 20
6.614560451591186
 30
0.0
 70
     8
  0
VERTEX
  5
471
330
46E
100
AcDbEntity
  8
image
 62
     5
100
AcDbVertex
100
AcDb2dVertex
 10
5.35423327959344
 20
6.613289880329565
 30
0.0
 70
     8
  0
VERTEX
  5
472
330
46E
100
AcDbEntity
  8
image
 62
     5
100
AcDbVertex
100
AcDb2dVertex
 10
5.325243153971499
 20
6.609545719085957
 30
0.0
 70
     8
  0
VERTEX
  5
473
330
46E
100
AcDbEntity
  8
image
 62
     5
100
AcDbVertex
100
AcDb2dVertex
 10
5.302208034350522
 20
6.603429296672235
 30
0.0
 70
     8
  0
VERTEX
  5
474
330
46E
100
AcDbEntity
  8
image
 62
     5
100
AcDbVertex
100
AcDb2dVertex
 10
5.284326229000115
 20
6.595041941900278
 30
0.0
 70
     8
  0
VERTEX
  5
475
330
46E
100
AcDbEntity
  8
image
 62
     5
100
AcDbVertex
100
AcDb2dVertex
 10
5.270796046189883
 20
6.584484983581962
 30
0.0
 70
     8
  0
VERTEX
  5
476
330
46E
100
AcDbEntity
  8
image
 62
     5
100
AcDbVertex
100
AcDb2dVertex
 10
5.260815794189432
 20
6.571859750529166
 30
0.0
 70
     8
  0
VERTEX
  5
477
330
46E
100
AcDbEntity
  8
image
 62
     5
100
AcDbVertex
100
AcDb2dVertex
 10
5.253583781268364
 20
6.557267571553764
 30
0.0
 70
     8
  0
VERTEX
  5
478
330
46E
100
AcDbEntity
  8
image
 62
     5
100
AcDbVertex
100
AcDb2dVertex
 10
5.248298315696285
 20
6.540809775467636
 30
0.0
 70
     8
  0
VERTEX
  5
479
330
46E
100
AcDbEntity
  8
image
 62
     5
100
AcDbVertex
100
AcDb2dVertex
 10
5.2442515691
 20
6.522615506159361
 30
0.0
 70
     8
  0
VERTEX
  5
47A
330
46E
100
AcDbEntity
  8
image
 62
     5
100
AcDbVertex
100
AcDb2dVertex
 10
5.241111166535104
 20
6.502925167824328
 30
0.0
 70
     8
  0
VERTEX
  5
47B
330
46E
100
AcDbEntity
  8
image
 62
     5
100
AcDbVertex
100
AcDb2dVertex
 10
5.238638596414388
 20
6.482006979734631
 30
0.0
 70
     8
  0
VERTEX
  5
47C
330
46E
100
AcDbEntity
  8
image
 62
     5
100
AcDbVertex
100
AcDb2dVertex
 10
5.236595347150645
 20
6.46012916116236
 30
0.0
 70
     8
  0
VERTEX
  5
47D
330
46E
100
AcDbEntity
  8
image
 62
     5
100
AcDbVertex
100
AcDb2dVertex
 10
5.234742907156668
 20
6.43755993137961
 30
0.0
 70
     8
  0
VERTEX
  5
47E
330
46E
100
AcDbEntity
  8
image
 62
     5
100
AcDbVertex
100
AcDb2dVertex
 10
5.23284276484525
 20
6.414567509658471
 30
0.0
 70
     8
  0
VERTEX
  5
47F
330
46E
100
AcDbEntity
  8
image
 62
     5
100
AcDbVertex
100
AcDb2dVertex
 10
5.230656408629184
 20
6.391420115271037
 30
0.0
 70
     8
  0
VERTEX
  5
480
330
46E
100
AcDbEntity
  8
image
 62
     5
100
AcDbVertex
100
AcDb2dVertex
 10
5.22794532692126
 20
6.3683859674894
 30
0.0
 70
     8
  0
VERTEX
  5
481
330
46E
100
AcDbEntity
  8
image
 62
     5
100
AcDbVertex
100
AcDb2dVertex
 10
5.224502809608326
 20
6.34557533394941
 30
0.0
 70
     8
  0
VERTEX
  5
482
330
46E
100
AcDbEntity
  8
image
 62
     5
100
AcDbVertex
100
AcDb2dVertex
 10
5.220249352473432
 20
6.322466675741953
 30
0.0
 70
     8
  0
VERTEX
  5
483
330
46E
100
AcDbEntity
  8
image
 62
     5
100
AcDbVertex
100
AcDb2dVertex
 10
5.215137252773685
 20
6.298380502321672
 30
0.0
 70
     8
  0
VERTEX
  5
484
330
46E
100
AcDbEntity
  8
image
 62
     5
100
AcDbVertex
100
AcDb2dVertex
 10
5.209118807766188
 20
6.272637323143211
 30
0.0
 70
     8
  0
VERTEX
  5
485
330
46E
100
AcDbEntity
  8
image
 62
     5
100
AcDbVertex
100
AcDb2dVertex
 10
5.202146314708047
 20
6.244557647661213
 30
0.0
 70
     8
  0
VERTEX
  5
486
330
46E
100
AcDbEntity
  8
image
 62
     5
100
AcDbVertex
100
AcDb2dVertex
 10
5.194172070856365
 20
6.213461985330323
 30
0.0
 70
     8
  0
VERTEX
  5
487
330
46E
100
AcDbEntity
  8
image
 62
     5
100
AcDbVertex
100
AcDb2dVertex
 10
5.185148373468247
 20
6.178670845605182
 30
0.0
 70
     8
  0
VERTEX
  5
488
330
46E
100
AcDbEntity
  8
image
 62
     5
100
AcDbVertex
100
AcDb2dVertex
 10
5.175027519800799
 20
6.139504737940434
 30
0.0
 70
     8
  0
VERTEX
  5
489
330
46E
100
AcDbEntity
  8
image
 62
     5
100
AcDbVertex
100
AcDb2dVertex
 10
5.16381547237779
 20
6.095570273161133
 30
0.0
 70
     8
  0
VERTEX
  5
48A
330
46E
100
AcDbEntity
  8
image
 62
     5
100
AcDbVertex
100
AcDb2dVertex
 10
5.151732854789662
 20
6.047618467573947
 30
0.0
 70
     8
  0
VERTEX
  5
48B
330
46E
100
AcDbEntity
  8
image
 62
     5
100
AcDbVertex
100
AcDb2dVertex
 10
5.139053955893519
 20
5.996686438855963
 30
0.0
 70
     8
  0
VERTEX
  5
48C
330
46E
100
AcDbEntity
  8
image
 62
     5
100
AcDbVertex
100
AcDb2dVertex
 10
5.126053064546466
 20
5.943811304684262
 30
0.0
 70
     8
  0
VERTEX
  5
48D
330
46E
100
AcDbEntity
  8
image
 62
     5
100
AcDbVertex
100
AcDb2dVertex
 10
5.11300446960561
 20
5.890030182735926
 30
0.0
 70
     8
  0
VERTEX
  5
48E
330
46E
100
AcDbEntity
  8
image
 62
     5
100
AcDbVertex
100
AcDb2dVertex
 10
5.100182459928056
 20
5.836380190688034
 30
0.0
 70
     8
  0
VERTEX
  5
48F
330
46E
100
AcDbEntity
  8
image
 62
     5
100
AcDbVertex
100
AcDb2dVertex
 10
5.087861324370913
 20
5.783898446217671
 30
0.0
 70
     8
  0
VERTEX
  5
490
330
46E
100
AcDbEntity
  8
image
 62
     5
100
AcDbVertex
100
AcDb2dVertex
 10
5.076315351791282
 20
5.733622067001917
 30
0.0
 70
     8
  0
VERTEX
  5
491
330
46E
100
AcDbEntity
  8
image
 62
     5
100
AcDbVertex
100
AcDb2dVertex
 10
5.065741314691792
 20
5.686194781160076
 30
0.0
 70
     8
  0
VERTEX
  5
492
330
46E
100
AcDbEntity
  8
image
 62
     5
100
AcDbVertex
100
AcDb2dVertex
 10
5.056025920157159
 20
5.640686758580344
 30
0.0
 70
     8
  0
VERTEX
  5
493
330
46E
100
AcDbEntity
  8
image
 62
     5
100
AcDbVertex
100
AcDb2dVertex
 10
5.046978358917611
 20
5.595774779593138
 30
0.0
 70
     8
  0
VERTEX
  5
494
330
46E
100
AcDbEntity
  8
image
 62
     5
100
AcDbVertex
100
AcDb2dVertex
 10
5.038407821703387
 20
5.550135624528877
 30
0.0
 70
     8
  0
VERTEX
  5
495
330
46E
100
AcDbEntity
  8
image
 62
     5
100
AcDbVertex
100
AcDb2dVertex
 10
5.030123499244719
 20
5.502446073717976
 30
0.0
 70
     8
  0
VERTEX
  5
496
330
46E
100
AcDbEntity
  8
image
 62
     5
100
AcDbVertex
100
AcDb2dVertex
 10
5.021934582271843
 20
5.451382907490858
 30
0.0
 70
     8
  0
VERTEX
  5
497
330
46E
100
AcDbEntity
  8
image
 62
     5
100
AcDbVertex
100
AcDb2dVertex
 10
5.013650261514991
 20
5.395622906177933
 30
0.0
 70
     8
  0
VERTEX
  5
498
330
46E
100
AcDbEntity
  8
image
 62
     5
100
AcDbVertex
100
AcDb2dVertex
 10
5.005079727704399
 20
5.333842850109625
 30
0.0
 70
     8
  0
VERTEX
  5
499
330
46E
100
AcDbEntity
  8
image
 62
     5
100
AcDbVertex
100
AcDb2dVertex
 10
4.996087824273979
 20
5.265120856619182
 30
0.0
 70
     8
  0
VERTEX
  5
49A
330
46E
100
AcDbEntity
  8
image
 62
     5
100
AcDbVertex
100
AcDb2dVertex
 10
4.986762005472379
 20
5.190140391051193
 30
0.0
 70
     8
  0
VERTEX
  5
49B
330
46E
100
AcDbEntity
  8
image
 62
     5
100
AcDbVertex
100
AcDb2dVertex
 10
4.977245378251922
 20
5.109986255753075
 30
0.0
 70
     8
  0
VERTEX
  5
49C
330
46E
100
AcDbEntity
  8
image
 62
     5
100
AcDbVertex
100
AcDb2dVertex
 10
4.967681049564929
 20
5.025743253072251
 30
0.0
 70
     8
  0
VERTEX
  5
49D
330
46E
100
AcDbEntity
  8
image
 62
     5
100
AcDbVertex
100
AcDb2dVertex
 10
4.958212126363727
 20
4.938496185356139
 30
0.0
 70
     8
  0
VERTEX
  5
49E
330
46E
100
AcDbEntity
  8
image
 62
     5
100
AcDbVertex
100
AcDb2dVertex
 10
4.948981715600641
 20
4.849329854952157
 30
0.0
 70
     8
  0
VERTEX
  5
49F
330
46E
100
AcDbEntity
  8
image
 62
     5
100
AcDbVertex
100
AcDb2dVertex
 10
4.940132924227993
 20
4.759329064207729
 30
0.0
 70
     8
  0
VERTEX
  5
4A0
330
46E
100
AcDbEntity
  8
image
 62
     5
100
AcDbVertex
100
AcDb2dVertex
 10
4.931808859198111
 20
4.669578615470272
 30
0.0
 70
     8
  0
VERTEX
  5
4A1
330
46E
100
AcDbEntity
  8
image
 62
     5
100
AcDbVertex
100
AcDb2dVertex
 10
4.924114863110948
 20
4.58104608867726
 30
0.0
 70
     8
  0
VERTEX
  5
4A2
330
46E
100
AcDbEntity
  8
image
 62
     5
100
AcDbVertex
100
AcDb2dVertex
 10
4.917005221156987
 20
4.494230174126371
 30
0.0
 70
     8
  0
VERTEX
  5
4A3
330
46E
100
AcDbEntity
  8
image
 62
     5
100
AcDbVertex
100
AcDb2dVertex
 10
4.910396454174342
 20
4.409512339705337
 30
0.0
 70
     8
  0
VERTEX
  5
4A4
330
46E
100
AcDbEntity
  8
image
 62
     5
100
AcDbVertex
100
AcDb2dVertex
 10
4.904205083001127
 20
4.327274053301893
 30
0.0
 70
     8
  0
VERTEX
  5
4A5
330
46E
100
AcDbEntity
  8
image
 62
     5
100
AcDbVertex
100
AcDb2dVertex
 10
4.898347628475458
 20
4.247896782803769
 30
0.0
 70
     8
  0
VERTEX
  5
4A6
330
46E
100
AcDbEntity
  8
image
 62
     5
100
AcDbVertex
100
AcDb2dVertex
 10
4.892740611435446
 20
4.171761996098696
 30
0.0
 70
     8
  0
VERTEX
  5
4A7
330
46E
100
AcDbEntity
  8
image
 62
     5
100
AcDbVertex
100
AcDb2dVertex
 10
4.887300552719206
 20
4.099251161074409
 30
0.0
 70
     8
  0
VERTEX
  5
4A8
330
46E
100
AcDbEntity
  8
image
 62
     5
100
AcDbVertex
100
AcDb2dVertex
 10
4.88194397316485
 20
4.030745745618638
 30
0.0
 70
     8
  0
VERTEX
  5
4A9
330
46E
100
AcDbEntity
  8
image
 62
     5
100
AcDbVertex
100
AcDb2dVertex
 10
4.876539691222147
 20
3.966539797924751
 30
0.0
 70
     8
  0
VERTEX
  5
4AA
330
46E
100
AcDbEntity
  8
image
 62
     5
100
AcDbVertex
100
AcDb2dVertex
 10
4.870765715787452
 20
3.906577687408663
 30
0.0
 70
     8
  0
VERTEX
  5
4AB
330
46E
100
AcDbEntity
  8
image
 62
     5
100
AcDbVertex
100
AcDb2dVertex
 10
4.864252353368782
 20
3.850716363791927
 30
0.0
 70
     8
  0
VERTEX
  5
4AC
330
46E
100
AcDbEntity
  8
image
 62
     5
100
AcDbVertex
100
AcDb2dVertex
 10
4.856629910474146
 20
3.798812776796089
 30
0.0
 70
     8
  0
VERTEX
  5
4AD
330
46E
100
AcDbEntity
  8
image
 62
     5
100
AcDbVertex
100
AcDb2dVertex
 10
4.847528693611555
 20
3.750723876142703
 30
0.0
 70
     8
  0
VERTEX
  5
4AE
330
46E
100
AcDbEntity
  8
image
 62
     5
100
AcDbVertex
100
AcDb2dVertex
 10
4.836579009289018
 20
3.706306611553319
 30
0.0
 70
     8
  0
VERTEX
  5
4AF
330
46E
100
AcDbEntity
  8
image
 62
     5
100
AcDbVertex
100
AcDb2dVertex
 10
4.823411164014551
 20
3.665417932749488
 30
0.0
 70
     8
  0
VERTEX
  5
4B0
330
46E
100
AcDbEntity
  8
image
 62
     5
100
AcDbVertex
100
AcDb2dVertex
 10
4.807655464296162
 20
3.627914789452761
 30
0.0
 70
     8
  0
VERTEX
  5
4B1
330
46E
100
AcDbEntity
  8
image
 62
     5
100
AcDbVertex
100
AcDb2dVertex
 10
4.788908427411707
 20
3.59367598620061
 30
0.0
 70
     8
  0
VERTEX
  5
4B2
330
46E
100
AcDbEntity
  8
image
 62
     5
100
AcDbVertex
100
AcDb2dVertex
 10
4.76663141371841
 20
3.562667746794186
 30
0.0
 70
     8
  0
VERTEX
  5
4B3
330
46E
100
AcDbEntity
  8
image
 62
     5
100
AcDbVertex
100
AcDb2dVertex
 10
4.740251994343336
 20
3.534878149850568
 30
0.0
 70
     8
  0
VERTEX
  5
4B4
330
46E
100
AcDbEntity
  8
image
 62
     5
100
AcDbVertex
100
AcDb2dVertex
 10
4.709197740413557
 20
3.510295273986829
 30
0.0
 70
     8
  0
VERTEX
  5
4B5
330
46E
100
AcDbEntity
  8
image
 62
     5
100
AcDbVertex
100
AcDb2dVertex
 10
4.67289622305614
 20
3.488907197820045
 30
0.0
 70
     8
  0
VERTEX
  5
4B6
330
46E
100
AcDbEntity
  8
image
 62
     5
100
AcDbVertex
100
AcDb2dVertex
 10
4.63077501339815
 20
3.470701999967293
 30
0.0
 70
     8
  0
VERTEX
  5
4B7
330
46E
100
AcDbEntity
  8
image
 62
     5
100
AcDbVertex
100
AcDb2dVertex
 10
4.582261682566658
 20
3.455667759045644
 30
0.0
 70
     8
  0
VERTEX
  5
4B8
330
46E
100
AcDbEntity
  8
image
 62
     5
100
AcDbVertex
100
AcDb2dVertex
 10
4.526783801688729
 20
3.443792553672175
 30
0.0
 70
     8
  0
VERTEX
  5
4B9
330
46E
100
AcDbEntity
  8
image
 62
     5
100
AcDbVertex
100
AcDb2dVertex
 10
4.463627822447032
 20
3.435168189835425
 30
0.0
 70
     8
  0
VERTEX
  5
4BA
330
46E
100
AcDbEntity
  8
image
 62
     5
100
AcDbVertex
100
AcDb2dVertex
 10
4.39151571874663
 20
3.430301383009787
 30
0.0
 70
     8
  0
VERTEX
  5
4BB
330
46E
100
AcDbEntity
  8
image
 62
     5
100
AcDbVertex
100
AcDb2dVertex
 10
4.309028345048188
 20
3.429802576041116
 30
0.0
 70
     8
  0
VERTEX
  5
4BC
330
46E
100
AcDbEntity
  8
image
 62
     5
100
AcDbVertex
100
AcDb2dVertex
 10
4.214746555812372
 20
3.434282211775267
 30
0.0
 70
     8
  0
VERTEX
  5
4BD
330
46E
100
AcDbEntity
  8
image
 62
     5
100
AcDbVertex
100
AcDb2dVertex
 10
4.107251205499845
 20
3.444350733058097
 30
0.0
 70
     8
  0
VERTEX
  5
4BE
330
46E
100
AcDbEntity
  8
image
 62
     5
100
AcDbVertex
100
AcDb2dVertex
 10
3.985123148571272
 20
3.46061858273546
 30
0.0
 70
     8
  0
VERTEX
  5
4BF
330
46E
100
AcDbEntity
  8
image
 62
     5
100
AcDbVertex
100
AcDb2dVertex
 10
3.846943239487313
 20
3.483696203653214
 30
0.0
 70
     8
  0
VERTEX
  5
4C0
330
46E
100
AcDbEntity
  8
image
 62
     5
100
AcDbVertex
100
AcDb2dVertex
 10
3.691292332708639
 20
3.514194038657215
 30
0.0
 70
     8
  0
VERTEX
  5
4C1
330
46E
100
AcDbEntity
  8
image
 62
     5
100
AcDbVertex
100
AcDb2dVertex
 10
5.284933695491331
 20
6.614560451591186
 30
0.0
 70
    16
  0
VERTEX
  5
4C2
330
46E
100
AcDbEntity
  8
image
 62
     5
100
AcDbVertex
100
AcDb2dVertex
 10
5.23608652243127
 20
6.559628850655368
 30
0.0
 70
    16
  0
VERTEX
  5
4C3
330
46E
100
AcDbEntity
  8
image
 62
     5
100
AcDbVertex
100
AcDb2dVertex
 10
5.23608652243127
 20
6.364316998125249
 30
0.0
 70
    16
  0
VERTEX
  5
4C4
330
46E
100
AcDbEntity
  8
image
 62
     5
100
AcDbVertex
100
AcDb2dVertex
 10
5.187239349371212
 20
6.193418961780039
 30
0.0
 70
    16
  0
VERTEX
  5
4C5
330
46E
100
AcDbEntity
  8
image
 62
     5
100
AcDbVertex
100
AcDb2dVertex
 10
5.065121198888669
 20
5.699035582397213
 30
0.0
 70
    16
  0
VERTEX
  5
4C6
330
46E
100
AcDbEntity
  8
image
 62
     5
100
AcDbVertex
100
AcDb2dVertex
 10
5.010167965821804
 20
5.412171110642611
 30
0.0
 70
    16
  0
VERTEX
  5
4C7
330
46E
100
AcDbEntity
  8
image
 62
     5
100
AcDbVertex
100
AcDb2dVertex
 10
4.924685304050502
 20
4.655337075690093
 30
0.0
 70
    16
  0
VERTEX
  5
4C8
330
46E
100
AcDbEntity
  8
image
 62
     5
100
AcDbVertex
100
AcDb2dVertex
 10
4.88194397316485
 20
3.983952279418654
 30
0.0
 70
    16
  0
VERTEX
  5
4C9
330
46E
100
AcDbEntity
  8
image
 62
     5
100
AcDbVertex
100
AcDb2dVertex
 10
4.839202642279199
 20
3.593328280347115
 30
0.0
 70
    16
  0
VERTEX
  5
4CA
330
46E
100
AcDbEntity
  8
image
 62
     5
100
AcDbVertex
100
AcDb2dVertex
 10
4.607178243495324
 20
3.41022333590945
 30
0.0
 70
    16
  0
VERTEX
  5
4CB
330
46E
100
AcDbEntity
  8
image
 62
     5
100
AcDbVertex
100
AcDb2dVertex
 10
4.13091754374636
 20
3.422430244001905
 30
0.0
 70
    16
  0
VERTEX
  5
4CC
330
46E
100
AcDbEntity
  8
image
 62
     5
100
AcDbVertex
100
AcDb2dVertex
 10
3.691292332708639
 20
3.514194038657215
 30
0.0
 70
    16
  0
SEQEND
  5
4CD
330
46E
100
AcDbEntity
  8
image
 62
     5
  0
LINE
  5
5D9
330
1F
100
AcDbEntity
  8
image
100
AcDbLine
 10
3.144843794381055
 20
5.776719535172706
 30
0.0
 11
3.17564637198595
 21
6.808605884936667
 31
0.0
  0
LINE
  5
5DA
330
1F
100
AcDbEntity
  8
image
100
AcDbLine
 10
3.239007424082587
 20
5.776719535172706
 30
0.0
 11
3.268611707486006
 21
6.768463029187262
 31
0.0
  0
INSERT
  5
5DB
330
1F
100
AcDbEntity
  8
image
100
AcDbBlockReference
  2
ELLIPSE
 10
4.607446283391712
 20
4.689251234266729
 30
0.0
 41
0.2569802938523877
 42
0.1861154459679887
 43
0.2569802938523881
 50
4.074271426478302
  0
INSERT
  5
5DC
330
1F
100
AcDbEntity
  8
image
100
AcDbBlockReference
  2
ELLIPSE
 10
4.875364658498203
 20
5.141710032839451
 30
0.0
 41
0.0939921920148363
 42
0.1038971677186208
 43
0.0939921920148369
 50
0.3758870548758731
  0
INSERT
  5
5DD
330
1F
100
AcDbEntity
  8
image
100
AcDbBlockReference
  2
ELLIPSE
 10
4.724897177894191
 20
5.025147054812856
 30
0.0
 41
0.1073793177185029
 42
0.1248870060309456
 43
0.1073793177185026
  0
INSERT
  5
5DE
330
1F
100
AcDbEntity
  8
image
100
AcDbBlockReference
  2
ELLIPSE
 10
4.694542789877377
 20
5.154048570783287
 30
0.0
 41
0.1456060343969714
 42
0.1079243736943013
 43
0.1456060343969718
 50
33.32510217146661
  0
INSERT
  5
5DF
330
1F
100
AcDbEntity
  8
image
100
AcDbBlockReference
  2
ELLIPSE
 10
5.134505023270337
 20
4.731568133496302
 30
0.0
 41
0.1456060343969714
 42
0.1079243736943013
 43
0.1456060343969718
 50
33.32510217146661
  0
INSERT
  5
5E0
330
1F
100
AcDbEntity
  8
image
100
AcDbBlockReference
  2
ELLIPSE
 10
4.845443492511422
 20
4.854083504619294
 30
0.0
 41
0.2569802938523877
 42
0.1861154459679887
 43
0.2569802938523881
 50
4.074271426478302
  0
INSERT
  5
5E1
330
1F
100
AcDbEntity
  8
image
100
AcDbBlockReference
  2
ELLIPSE
 10
5.042226790053804
 20
5.075864676459798
 30
0.0
 41
0.1073793177185029
 42
0.1248870060309456
 43
0.1073793177185026
  0
INSERT
  5
5E2
330
1F
100
AcDbEntity
  8
image
100
AcDbBlockReference
  2
ELLIPSE
 10
5.01187240203699
 20
5.20476619243023
 30
0.0
 41
0.1456060343969714
 42
0.1079243736943013
 43
0.1456060343969718
 50
33.32510217146661
  0
INSERT
  5
5E3
330
1F
100
AcDbEntity
  8
image
100
AcDbBlockReference
  2
ELLIPSE
 10
5.150791818546881
 20
5.020018540526519
 30
0.0
 41
0.0765778603354937
 42
0.134521171788425
 43
0.0765778603354935
 50
317.0605713727724
  0
INSERT
  5
5E4
330
1F
100
AcDbEntity
  8
image
100
AcDbBlockReference
  2
ELLIPSE
 10
5.192694270657817
 20
5.192427654486394
 30
0.0
 41
0.0939921920148363
 42
0.1038971677186208
 43
0.0939921920148369
 50
0.3758870548758731
  0
INSERT
  5
5E5
330
1F
100
AcDbEntity
  8
image
100
AcDbBlockReference
  2
ELLIPSE
 10
5.097121130943546
 20
5.32950800938674
 30
0.0
 41
0.1970424234659027
 42
0.1390000771067998
 43
0.1970424234659022
  0
INSERT
  5
5E6
330
1F
100
AcDbEntity
  8
image
100
AcDbBlockReference
  2
ELLIPSE
 10
4.962656421572956
 20
5.397479529628698
 30
0.0
 41
0.1077422904045972
 42
0.0695605340010826
 43
0.1077422904045963
  0
INSERT
  5
5E7
330
1F
100
AcDbEntity
  8
image
100
AcDbBlockReference
  2
ELLIPSE
 10
4.696311578016082
 20
5.326878473927479
 30
0.0
 41
0.244879107722779
 42
0.1565273336218169
 43
0.2448791077227787
  0
INSERT
  5
5E8
330
1F
100
AcDbEntity
  8
image
100
AcDbBlockReference
  2
*X3
 10
-0.8278882294719007
 20
-9.978075745616122
 30
0.0
 41
2.158055284507156
 42
2.158055284507156
 43
2.158055284507156
  0
LWPOLYLINE
  5
5E9
330
1F
100
AcDbEntity
  8
image
100
AcDbPolyline
 90
        2
 70
     0
 43
0.0
 10
3.45801148597785
 20
9.224396304645154
 10
2.073203294871574
 20
9.224396304645154
  0
INSERT
  5
5EA
330
1F
100
AcDbEntity
  8
image
100
AcDbBlockReference
  2
*X2
 10
-0.8278882294719007
 20
-9.978075745616122
 30
0.0
 41
2.158055284507156
 42
2.158055284507156
 43
2.158055284507156
  0
LWPOLYLINE
  5
5EB
330
1F
100
AcDbEntity
  8
image
100
AcDbPolyline
 90
        2
 70
     0
 43
0.0
 10
6.532653838334109
 20
9.224396304645154
 10
7.998115238922126
 20
9.224396304645154
  0
LINE
  5
5EC
330
1F
100
AcDbEntity
  8
image
100
AcDbLine
 10
3.203316061079108
 20
4.581058874556115
 30
0.0
 11
3.050150765767328
 21
4.581058874556115
 31
0.0
  0
LINE
  5
5ED
330
1F
100
AcDbEntity
  8
image
100
AcDbLine
 10
6.501279936779452
 20
9.130274599981188
 30
0.0
 11
6.469906035224797
 21
8.565544371997384
 31
0.0
  0
LINE
  5
5EE
330
1F
100
AcDbEntity
  8
image
100
AcDbLine
 10
6.940514558544634
 20
4.581058874556115
 30
0.0
 11
6.940514558544634
 21
4.706554480774735
 31
0.0
  0
LINE
  5
5EF
330
1F
100
AcDbEntity
  8
image
100
AcDbLine
 10
6.877766755435322
 20
4.706554480774735
 30
0.0
 11
6.940514558544634
 21
4.706554480774735
 31
0.0
  0
LINE
  5
5F0
330
1F
100
AcDbEntity
  8
image
100
AcDbLine
 10
6.689523346107387
 20
6.934101491155288
 30
0.0
 11
6.81501895232601
 21
6.808605884936667
 31
0.0
  0
LINE
  5
5F1
330
1F
100
AcDbEntity
  8
image
100
AcDbLine
 10
6.877766755435322
 20
4.706554480774735
 30
0.0
 11
6.81501895232601
 21
6.808605884936667
 31
0.0
  0
LINE
  5
5F2
330
1F
100
AcDbEntity
  8
image
100
AcDbLine
 10
6.689523346107387
 20
6.934101491155288
 30
0.0
 11
6.595401641443421
 21
9.130274599981188
 31
0.0
  0
LINE
  5
5F3
330
1F
100
AcDbEntity
  8
image
100
AcDbLine
 10
6.597057037780247
 20
6.893459608232968
 30
0.0
 11
6.526040888848738
 21
8.550503083301606
 31
0.0
  0
LINE
  5
5F4
330
1F
100
AcDbEntity
  8
image
100
AcDbLine
 10
6.597057037780247
 20
6.893459608232968
 30
0.0
 11
6.722053616825954
 21
6.768463029187262
 31
0.0
  0
LINE
  5
5F5
330
1F
100
AcDbEntity
  8
image
100
AcDbLine
 10
6.787349263232856
 20
4.581058874556115
 30
0.0
 11
6.722053616825954
 21
6.768463029187262
 31
0.0
  0
LINE
  5
5F6
330
1F
100
AcDbEntity
  8
image
100
AcDbLine
 10
6.749887888242218
 20
5.836014936742335
 30
0.0
 11
6.844051517943752
 21
5.836014936742335
 31
0.0
  0
LINE
  5
5F7
330
1F
100
AcDbEntity
  8
image
100
AcDbLine
 10
6.438628743124068
 20
9.133755221850927
 30
0.0
 11
6.400994556143791
 21
8.456339856205916
 31
0.0
  0
LINE
  5
5F8
330
1F
100
AcDbEntity
  8
image
100
AcDbLine
 10
6.469906035224797
 20
8.565544371997384
 30
0.0
 11
6.526040888848738
 21
8.550503083301606
 31
0.0
  0
LINE
  5
5F9
330
1F
100
AcDbEntity
  8
image
100
AcDbLine
 10
6.526040888848738
 20
8.550503083301606
 30
0.0
 11
6.471675724337274
 21
8.456339856205916
 31
0.0
  0
LINE
  5
5FA
330
1F
100
AcDbEntity
  8
image
100
AcDbLine
 10
6.471675724337274
 20
8.456339856205916
 30
0.0
 11
6.400994556143791
 21
8.456339856205916
 31
0.0
  0
LINE
  5
5FB
330
1F
100
AcDbEntity
  8
image
100
AcDbLine
 10
3.518989599974686
 20
8.456339856205916
 30
0.0
 11
3.589670768168172
 21
8.456339856205916
 31
0.0
  0
LINE
  5
5FC
330
1F
100
AcDbEntity
  8
image
100
AcDbLine
 10
3.464624435463225
 20
8.550503083301606
 30
0.0
 11
3.518989599974686
 21
8.456339856205916
 31
0.0
  0
LINE
  5
5FD
330
1F
100
AcDbEntity
  8
image
100
AcDbLine
 10
3.520759289087163
 20
8.565544371997384
 30
0.0
 11
3.464624435463225
 21
8.550503083301606
 31
0.0
  0
LINE
  5
5FE
330
1F
100
AcDbEntity
  8
image
100
AcDbLine
 10
3.552036581187894
 20
9.133755221850927
 30
0.0
 11
3.589670768168172
 21
8.456339856205916
 31
0.0
  0
ARC
  5
5FF
330
1F
100
AcDbEntity
  8
image
100
AcDbCircle
 10
3.45801148597785
 20
9.161648501535843
 30
0.0
 40
0.0627478031093114
100
AcDbArc
 50
90.0
 51
180.0
  0
ARC
  5
600
330
1F
100
AcDbEntity
  8
image
100
AcDbCircle
 10
6.532653838334109
 20
9.161648501535843
 30
0.0
 40
0.0627478031093114
100
AcDbArc
 50
0.0
 51
90.0
  0
LINE
  5
601
330
1F
100
AcDbEntity
  8
image
100
AcDbLine
 10
6.595401641443421
 20
9.161648501535843
 30
0.0
 11
6.595401641443421
 21
9.130274599981188
 31
0.0
  0
LINE
  5
602
330
1F
100
AcDbEntity
  8
image
100
AcDbLine
 10
3.395263682868539
 20
9.161648501535843
 30
0.0
 11
3.395263682868539
 21
9.130274599981188
 31
0.0
  0
LINE
  5
603
330
1F
100
AcDbEntity
  8
image
100
AcDbLine
 10
6.532653838334107
 20
9.224396304645154
 30
0.0
 11
3.45801148597785
 21
9.224396304645154
 31
0.0
  0
LINE
  5
604
330
1F
100
AcDbEntity
  8
image
100
AcDbLine
 10
3.240777436069741
 20
5.836014936742335
 30
0.0
 11
3.146613806368209
 21
5.836014936742335
 31
0.0
  0
LINE
  5
605
330
1F
100
AcDbEntity
  8
image
100
AcDbLine
 10
3.203316061079108
 20
4.581058874556115
 30
0.0
 11
3.239007424082587
 21
5.776719535172706
 31
0.0
  0
LINE
  5
606
330
1F
100
AcDbEntity
  8
image
100
AcDbLine
 10
3.39360828653171
 20
6.893459608232968
 30
0.0
 11
3.268611707486006
 21
6.768463029187262
 31
0.0
  0
LINE
  5
607
330
1F
100
AcDbEntity
  8
image
100
AcDbLine
 10
3.39360828653171
 20
6.893459608232968
 30
0.0
 11
3.464624435463225
 21
8.550503083301606
 31
0.0
  0
LINE
  5
608
330
1F
100
AcDbEntity
  8
image
100
AcDbLine
 10
3.301141978204574
 20
6.934101491155288
 30
0.0
 11
3.395263682868539
 21
9.130274599981188
 31
0.0
  0
LINE
  5
609
330
1F
100
AcDbEntity
  8
image
100
AcDbLine
 10
3.112898568876639
 20
4.706554480774735
 30
0.0
 11
3.144843794381055
 21
5.776719535172706
 31
0.0
  0
LINE
  5
60A
330
1F
100
AcDbEntity
  8
image
100
AcDbLine
 10
3.301141978204574
 20
6.934101491155288
 30
0.0
 11
3.17564637198595
 21
6.808605884936667
 31
0.0
  0
LINE
  5
60B
330
1F
100
AcDbEntity
  8
image
100
AcDbLine
 10
3.112898568876639
 20
4.706554480774735
 30
0.0
 11
3.050150765767328
 21
4.706554480774735
 31
0.0
  0
LINE
  5
60C
330
1F
100
AcDbEntity
  8
image
100
AcDbLine
 10
3.050150765767328
 20
4.581058874556115
 30
0.0
 11
3.050150765767328
 21
4.706554480774735
 31
0.0
  0
LINE
  5
60D
330
1F
100
AcDbEntity
  8
image
100
AcDbLine
 10
3.489385387532506
 20
9.130274599981188
 30
0.0
 11
3.520759289087163
 21
8.565544371997384
 31
0.0
  0
LINE
  5
60E
330
1F
100
AcDbEntity
  8
image
100
AcDbLine
 10
6.595401641443421
 20
9.130274599981188
 30
0.0
 11
3.395263682868539
 21
9.130274599981188
 31
0.0
  0
LINE
  5
60F
330
1F
100
AcDbEntity
  8
image
100
AcDbLine
 10
6.940514558544634
 20
4.581058874556113
 30
0.0
 11
6.787349263232856
 21
4.581058874556113
 31
0.0
  0
INSERT
  5
610
330
1F
100
AcDbEntity
  8
image
100
AcDbBlockReference
  2
ELLIPSE
 10
5.294153231667968
 20
4.698927642992262
 30
0.0
 41
0.1073793177185029
 42
0.1248870060309456
 43
0.1073793177185026
  0
INSERT
  5
611
330
1F
100
AcDbEntity
  8
image
100
AcDbBlockReference
  2
ELLIPSE
 10
5.563119325074658
 20
4.776859029161898
 30
0.0
 41
0.0802985560429151
 42
0.1296274613426223
 43
0.0802985560429152
  0
INSERT
  5
612
330
1F
100
AcDbEntity
  8
image
100
AcDbBlockReference
  2
ELLIPSE
 10
6.522331602975198
 20
4.729829560958623
 30
0.0
 41
0.1456060343969714
 42
0.1079243736943013
 43
0.1456060343969718
 50
33.32510217146661
  0
INSERT
  5
613
330
1F
100
AcDbEntity
  8
image
100
AcDbBlockReference
  2
ELLIPSE
 10
5.722616609326406
 20
4.762966593972084
 30
0.0
 41
0.1846347270680378
 42
0.1561320966969588
 43
0.1846347270680374
  0
INSERT
  5
614
330
1F
100
AcDbEntity
  8
image
100
AcDbBlockReference
  2
ELLIPSE
 10
5.926069162460017
 20
4.674545661417094
 30
0.0
 41
0.2569802938523877
 42
0.1861154459679887
 43
0.2569802938523881
 50
4.074271426478302
  0
INSERT
  5
615
330
1F
100
AcDbEntity
  8
image
100
AcDbBlockReference
  2
ELLIPSE
 10
6.233270072216283
 20
4.852344932081615
 30
0.0
 41
0.2569802938523877
 42
0.1861154459679887
 43
0.2569802938523881
 50
4.074271426478302
  0
INSERT
  5
616
330
1F
100
AcDbEntity
  8
image
100
AcDbBlockReference
  2
ELLIPSE
 10
5.976395646825952
 20
4.958904174070497
 30
0.0
 41
0.1712798656031367
 42
0.1302243497597558
 43
0.1712798656031371
 50
20.93193227445973
  0
INSERT
  5
617
330
1F
100
AcDbEntity
  8
image
100
AcDbBlockReference
  2
ELLIPSE
 10
5.288725809970634
 20
4.889854203943431
 30
0.0
 41
0.1967601113767186
 42
0.1820317775744734
 43
0.1967601113767191
 50
1.431910860873909
  0
INSERT
  5
618
330
1F
100
AcDbEntity
  8
image
100
AcDbBlockReference
  2
ELLIPSE
 10
5.568738316992498
 20
4.934248212303641
 30
0.0
 41
0.3085054095779208
 42
0.2036669006620797
 43
0.3085054095779212
  0
INSERT
  5
619
330
1F
100
AcDbEntity
  8
image
100
AcDbBlockReference
  2
ELLIPSE
 10
6.118327882293231
 20
5.12767804281997
 30
0.0
 41
0.1576104278102868
 42
0.1522662119151001
 43
0.1576104278102872
 50
3.047751648148159
  0
INSERT
  5
61A
330
1F
100
AcDbEntity
  8
image
100
AcDbBlockReference
  2
ELLIPSE
 10
6.430053369758669
 20
5.074126103922122
 30
0.0
 41
0.1073793177185029
 42
0.1248870060309456
 43
0.1073793177185026
  0
INSERT
  5
61B
330
1F
100
AcDbEntity
  8
image
100
AcDbBlockReference
  2
ELLIPSE
 10
6.358821441330734
 20
5.203027619892554
 30
0.0
 41
0.1456060343969714
 42
0.1079243736943013
 43
0.1456060343969718
 50
33.32510217146661
  0
INSERT
  5
61C
330
1F
100
AcDbEntity
  8
image
100
AcDbBlockReference
  2
ELLIPSE
 10
6.538618398251742
 20
5.018279967988844
 30
0.0
 41
0.0765778603354937
 42
0.134521171788425
 43
0.0765778603354935
 50
317.0605713727724
  0
INSERT
  5
61D
330
1F
100
AcDbEntity
  8
image
100
AcDbBlockReference
  2
ELLIPSE
 10
6.539643309951561
 20
5.190689081948717
 30
0.0
 41
0.0939921920148363
 42
0.1038971677186208
 43
0.0939921920148369
 50
0.3758870548758731
  0
INSERT
  5
61E
330
1F
100
AcDbEntity
  8
image
100
AcDbBlockReference
  2
ELLIPSE
 10
5.844314081637787
 20
5.147743720351019
 30
0.0
 41
0.2569802938523877
 42
0.1861154459679887
 43
0.2569802938523881
 50
4.074271426478302
  0
INSERT
  5
61F
330
1F
100
AcDbEntity
  8
image
100
AcDbBlockReference
  2
ELLIPSE
 10
5.32157022264534
 20
5.131057576233748
 30
0.0
 41
0.0802985560429151
 42
0.1296274613426223
 43
0.0802985560429152
  0
INSERT
  5
620
330
1F
100
AcDbEntity
  8
image
100
AcDbBlockReference
  2
ELLIPSE
 10
6.444070170237292
 20
5.327769436849065
 30
0.0
 41
0.1970424234659027
 42
0.1390000771067998
 43
0.1970424234659022
  0
INSERT
  5
621
330
1F
100
AcDbEntity
  8
image
100
AcDbBlockReference
  2
ELLIPSE
 10
6.309605460866704
 20
5.395740957091023
 30
0.0
 41
0.1077422904045972
 42
0.0695605340010826
 43
0.1077422904045963
  0
INSERT
  5
622
330
1F
100
AcDbEntity
  8
image
100
AcDbBlockReference
  2
ELLIPSE
 10
6.043260617309829
 20
5.325139901389803
 30
0.0
 41
0.244879107722779
 42
0.1565273336218169
 43
0.2448791077227787
  0
INSERT
  5
623
330
1F
100
AcDbEntity
  8
image
100
AcDbBlockReference
  2
ELLIPSE
 10
5.870706314275514
 20
5.389172942312683
 30
0.0
 41
0.1284740148068118
 42
0.0955166772964334
 43
0.1284740148068125
  0
INSERT
  5
624
330
1F
100
AcDbEntity
  8
image
100
AcDbBlockReference
  2
ELLIPSE
 10
5.599983988093059
 20
5.236164652906015
 30
0.0
 41
0.1846347270680378
 42
0.1561320966969588
 43
0.1846347270680374
  0
INSERT
  5
625
330
1F
100
AcDbEntity
  8
image
100
AcDbBlockReference
  2
ELLIPSE
 10
5.853469435909371
 20
5.392748448945668
 30
0.0
 41
0.0681973699133083
 42
0.100039348996452
 43
0.0681973699133077
 50
90.0
  0
INSERT
  5
626
330
1F
100
AcDbEntity
  8
image
100
AcDbBlockReference
  2
ELLIPSE
 10
5.60371618594336
 20
5.416930059109001
 30
0.0
 41
0.0855794373538861
 42
0.0743332535515245
 43
0.0855794373538856
  0
INSERT
  5
627
330
1F
100
AcDbEntity
  8
image
100
AcDbBlockReference
  2
ELLIPSE
 10
5.346284192748279
 20
5.299665333889286
 30
0.0
 41
0.2311290093330207
 42
0.1908639673393566
 43
0.2311290093330207
  0
INSERT
  5
628
330
1F
100
AcDbEntity
  8
image
100
AcDbBlockReference
  2
ELLIPSE
 10
3.313390335250923
 20
5.276045095603493
 30
0.0
 41
0.2311290093330207
 42
0.1908639673393566
 43
0.2311290093330207
  0
INSERT
  5
629
330
1F
100
AcDbEntity
  8
image
100
AcDbBlockReference
  2
ELLIPSE
 10
3.570822328446005
 20
5.393309820823205
 30
0.0
 41
0.0855794373538861
 42
0.0743332535515245
 43
0.0855794373538856
  0
INSERT
  5
62A
330
1F
100
AcDbEntity
  8
image
100
AcDbBlockReference
  2
ELLIPSE
 10
3.804047740062066
 20
5.369128210659873
 30
0.0
 41
0.0681973699133083
 42
0.100039348996452
 43
0.0681973699133077
 50
90.0
  0
INSERT
  5
62B
330
1F
100
AcDbEntity
  8
image
100
AcDbBlockReference
  2
ELLIPSE
 10
3.567090130595704
 20
5.21254441462022
 30
0.0
 41
0.1846347270680378
 42
0.1561320966969588
 43
0.1846347270680374
  0
INSERT
  5
62C
330
1F
100
AcDbEntity
  8
image
100
AcDbBlockReference
  2
ELLIPSE
 10
3.821284618428209
 20
5.365552704026888
 30
0.0
 41
0.1284740148068118
 42
0.0955166772964334
 43
0.1284740148068125
  0
INSERT
  5
62E
330
1F
100
AcDbEntity
  8
image
100
AcDbBlockReference
  2
ELLIPSE
 10
4.276711603369347
 20
5.372120718805227
 30
0.0
 41
0.1077422904045972
 42
0.0695605340010826
 43
0.1077422904045963
  0
INSERT
  5
62F
330
1F
100
AcDbEntity
  8
image
100
AcDbBlockReference
  2
ELLIPSE
 10
4.411176312739937
 20
5.304149198563269
 30
0.0
 41
0.1970424234659027
 42
0.1390000771067998
 43
0.1970424234659022
  0
INSERT
  5
630
330
1F
100
AcDbEntity
  8
image
100
AcDbBlockReference
  2
ELLIPSE
 10
3.288676365147984
 20
5.107437337947952
 30
0.0
 41
0.0802985560429151
 42
0.1296274613426223
 43
0.0802985560429152
  0
INSERT
  5
632
330
1F
100
AcDbEntity
  8
image
100
AcDbBlockReference
  2
ELLIPSE
 10
4.506749452454204
 20
5.167068843662923
 30
0.0
 41
0.0939921920148363
 42
0.1038971677186208
 43
0.0939921920148369
 50
0.3758870548758731
  0
INSERT
  5
633
330
1F
100
AcDbEntity
  8
image
100
AcDbBlockReference
  2
ELLIPSE
 10
4.46484700034327
 20
4.994659729703048
 30
0.0
 41
0.0765778603354937
 42
0.134521171788425
 43
0.0765778603354935
 50
317.0605713727724
  0
INSERT
  5
634
330
1F
100
AcDbEntity
  8
image
100
AcDbBlockReference
  2
ELLIPSE
 10
4.325927583833379
 20
5.179407381606758
 30
0.0
 41
0.1456060343969714
 42
0.1079243736943013
 43
0.1456060343969718
 50
33.32510217146661
  0
INSERT
  5
635
330
1F
100
AcDbEntity
  8
image
100
AcDbBlockReference
  2
ELLIPSE
 10
4.356281971850195
 20
5.050505865636327
 30
0.0
 41
0.1073793177185029
 42
0.1248870060309456
 43
0.1073793177185026
  0
INSERT
  5
637
330
1F
100
AcDbEntity
  8
image
100
AcDbBlockReference
  2
ELLIPSE
 10
3.494966919084028
 20
4.910627974017849
 30
0.0
 41
0.3085054095779208
 42
0.2036669006620797
 43
0.3085054095779212
  0
INSERT
  5
638
330
1F
100
AcDbEntity
  8
image
100
AcDbBlockReference
  2
ELLIPSE
 10
3.255831952473278
 20
4.866233965657639
 30
0.0
 41
0.1967601113767186
 42
0.1820317775744734
 43
0.1967601113767191
 50
1.431910860873909
  0
INSERT
  5
63C
330
1F
100
AcDbEntity
  8
image
100
AcDbBlockReference
  2
ELLIPSE
 10
3.689722751829047
 20
4.739346355686291
 30
0.0
 41
0.1846347270680378
 42
0.1561320966969588
 43
0.1846347270680374
  0
INSERT
  5
63D
330
1F
100
AcDbEntity
  8
image
100
AcDbBlockReference
  2
ELLIPSE
 10
4.448560205066725
 20
4.70620932267283
 30
0.0
 41
0.1456060343969714
 42
0.1079243736943013
 43
0.1456060343969718
 50
33.32510217146661
  0
INSERT
  5
63E
330
1F
100
AcDbEntity
  8
image
100
AcDbBlockReference
  2
ELLIPSE
 10
3.530225467577302
 20
4.753238790876102
 30
0.0
 41
0.0802985560429151
 42
0.1296274613426223
 43
0.0802985560429152
  0
LWPOLYLINE
  5
64D
330
1F
100
AcDbEntity
  8
image
100
AcDbPolyline
 90
        4
 70
     1
 43
0.0
 10
6.19058455478156
 20
4.014336107295022
 10
6.19058455478156
 20
4.575485969770042
 10
7.570345172755011
 20
4.575485969770042
 10
7.570345172755011
 20
4.014336107295022
  0
LINE
  5
64E
330
1F
100
AcDbEntity
  8
image
100
AcDbLine
 10
6.19058455478156
 20
4.014336107295022
 30
0.0
 11
7.570345172755011
 21
4.575485969770042
 31
0.0
  0
LINE
  5
64F
330
1F
100
AcDbEntity
  8
image
100
AcDbLine
 10
6.19058455478156
 20
4.575485969770042
 30
0.0
 11
7.570345172755011
 21
4.014336107295022
 31
0.0
  0
LWPOLYLINE
  5
650
330
1F
100
AcDbEntity
  8
image
100
AcDbPolyline
 90
        4
 70
     1
 43
0.0
 10
2.402382851591282
 20
4.014336107295022
 10
2.402382851591282
 20
4.575485969770042
 10
3.782143469564736
 20
4.575485969770042
 10
3.782143469564736
 20
4.014336107295022
  0
LINE
  5
651
330
1F
100
AcDbEntity
  8
image
100
AcDbLine
 10
2.402382851591282
 20
4.575485969770042
 30
0.0
 11
3.782143469564736
 21
4.014336107295022
 31
0.0
  0
LINE
  5
652
330
1F
100
AcDbEntity
  8
image
100
AcDbLine
 10
2.402382851591282
 20
4.014336107295022
 30
0.0
 11
3.782143469564736
 21
4.575485969770042
 31
0.0
  0
POLYLINE
  5
666
330
1F
100
AcDbEntity
  8
image
 62
     5
100
AcDb2dPolyline
 66
     1
 10
0.0
 20
0.0
 30
0.0
 40
0.0209283582775397
 41
0.0209283582775397
  0
VERTEX
  5
667
330
666
100
AcDbEntity
  8
image
 62
     5
100
AcDbVertex
100
AcDb2dVertex
 10
1.401815176049391
 20
3.480068058849848
 30
0.0
  0
VERTEX
  5
668
330
666
100
AcDbEntity
  8
image
 62
     5
100
AcDbVertex
100
AcDb2dVertex
 10
1.412276472967784
 20
3.481461537219836
 30
0.0
  0
VERTEX
  5
669
330
666
100
AcDbEntity
  8
image
 62
     5
100
AcDbVertex
100
AcDb2dVertex
 10
1.550456382051741
 20
3.504539158137591
 30
0.0
  0
VERTEX
  5
66A
330
666
100
AcDbEntity
  8
image
 62
     5
100
AcDbVertex
100
AcDb2dVertex
 10
1.706107288830416
 20
3.53503699314159
 30
0.0
  0
SEQEND
  5
66B
330
666
100
AcDbEntity
  8
image
 62
     5
  0
POLYLINE
  5
66C
330
1F
100
AcDbEntity
  8
image
 62
     5
100
AcDb2dPolyline
 66
     1
 10
0.0
 20
0.0
 30
0.0
 40
0.0209283582775397
 41
0.0209283582775397
  0
VERTEX
  5
66D
330
66C
100
AcDbEntity
  8
image
 62
     5
100
AcDbVertex
100
AcDb2dVertex
 10
1.399073629755202
 20
3.54429401033578
 30
0.0
  0
VERTEX
  5
66E
330
66C
100
AcDbEntity
  8
image
 62
     5
100
AcDbVertex
100
AcDb2dVertex
 10
1.439971735830081
 20
3.544274878290231
 30
0.0
  0
VERTEX
  5
66F
330
66C
100
AcDbEntity
  8
image
 62
     5
100
AcDbVertex
100
AcDb2dVertex
 10
1.535762358486882
 20
3.543397353429647
 30
0.0
  0
VERTEX
  5
670
330
66C
100
AcDbEntity
  8
image
 62
     5
100
AcDbVertex
100
AcDb2dVertex
 10
1.625309744161105
 20
3.54110576859613
 30
0.0
  0
VERTEX
  5
671
330
66C
100
AcDbEntity
  8
image
 62
     5
100
AcDbVertex
100
AcDb2dVertex
 10
1.705523280165786
 20
3.536817303240447
 30
0.0
  0
SEQEND
  5
672
330
66C
100
AcDbEntity
  8
image
 62
     5
  0
LWPOLYLINE
  5
673
330
1F
100
AcDbEntity
  8
image
100
AcDbPolyline
 90
        2
 70
     0
 43
0.043600746411541
 10
3.691292332708639
 20
3.514194038657215
 10
1.704115000742943
 20
3.533967755137203
  0
INSERT
  5
6DA
330
1F
100
AcDbEntity
  8
text_bubbles
100
AcDbBlockReference
 66
     1
  2
bubble
 10
9.960148331277522
 20
3.593576557476572
 30
0.0
  0
ATTRIB
  5
6DB
330
6DA
100
AcDbEntity
  8
text_bubbles
100
AcDbText
 10
9.850029283658475
 20
3.531076557476572
 30
0.0
 40
0.125
  1
11
  7
ROMANS
 72
     4
 11
9.960148331277522
 21
3.593576557476572
 31
0.0
100
AcDbAttribute
  2
XX
 70
     0
  0
SEQEND
  5
6DC
330
6DA
100
AcDbEntity
  8
text_bubbles
  0
INSERT
  5
6DD
330
1F
100
AcDbEntity
  8
text_bubbles
100
AcDbBlockReference
 66
     1
  2
bubble
 10
9.960148331277522
 20
4.002212445068665
 30
0.0
  0
ATTRIB
  5
6DE
330
6DD
100
AcDbEntity
  8
text_bubbles
100
AcDbText
 10
9.832172140801333
 20
3.939712445068665
 30
0.0
 40
0.125
  1
10
  7
ROMANS
 72
     4
 11
9.960148331277522
 21
4.002212445068665
 31
0.0
100
AcDbAttribute
  2
XX
 70
     0
  0
SEQEND
  5
6DF
330
6DD
100
AcDbEntity
  8
text_bubbles
  0
INSERT
  5
6E0
330
1F
100
AcDbEntity
  8
text_bubbles
100
AcDbBlockReference
 66
     1
  2
bubble
 10
9.960148331277522
 20
4.654317612209729
 30
0.0
  0
ATTRIB
  5
6E1
330
6E0
100
AcDbEntity
  8
text_bubbles
100
AcDbText
 10
9.903600712229904
 20
4.591817612209729
 30
0.0
 40
0.125
  1
9
  7
ROMANS
 72
     4
 11
9.960148331277522
 21
4.654317612209729
 31
0.0
100
AcDbAttribute
  2
XX
 70
     0
  0
SEQEND
  5
6E2
330
6E0
100
AcDbEntity
  8
text_bubbles
  0
INSERT
  5
6E3
330
1F
100
AcDbEntity
  8
text_bubbles
100
AcDbBlockReference
 66
     1
  2
bubble
 10
9.960148331277522
 20
5.528690922209468
 30
0.0
  0
ATTRIB
  5
6E4
330
6E3
100
AcDbEntity
  8
text_bubbles
100
AcDbText
 10
9.900624521753712
 20
5.466190922209468
 30
0.0
 40
0.125
  1
8
  7
ROMANS
 72
     4
 11
9.960148331277522
 21
5.528690922209468
 31
0.0
100
AcDbAttribute
  2
XX
 70
     0
  0
SEQEND
  5
6E5
330
6E3
100
AcDbEntity
  8
text_bubbles
  0
INSERT
  5
6E6
330
1F
100
AcDbEntity
  8
text_bubbles
100
AcDbBlockReference
 66
     1
  2
bubble
 10
9.960148331277522
 20
6.41510578388269
 30
0.0
  0
ATTRIB
  5
6E7
330
6E6
100
AcDbEntity
  8
text_bubbles
100
AcDbText
 10
9.900624521753712
 20
6.35260578388269
 30
0.0
 40
0.125
  1
7
  7
ROMANS
 72
     4
 11
9.960148331277522
 21
6.41510578388269
 31
0.0
100
AcDbAttribute
  2
XX
 70
     0
  0
SEQEND
  5
6E8
330
6E6
100
AcDbEntity
  8
text_bubbles
  0
INSERT
  5
6E9
330
1F
100
AcDbEntity
  8
text_bubbles
100
AcDbBlockReference
 66
     1
  2
bubble
 10
9.960148331277522
 20
7.060599549490804
 30
0.0
  0
ATTRIB
  5
6EA
330
6E9
100
AcDbEntity
  8
text_bubbles
100
AcDbText
 10
9.897648331277522
 20
6.998099549490804
 30
0.0
 40
0.125
  1
6
  7
ROMANS
 72
     4
 11
9.960148331277522
 21
7.060599549490804
 31
0.0
100
AcDbAttribute
  2
XX
 70
     0
  0
SEQEND
  5
6EB
330
6E9
100
AcDbEntity
  8
text_bubbles
  0
INSERT
  5
6EC
330
1F
100
AcDbEntity
  8
text_bubbles
100
AcDbBlockReference
 66
     1
  2
bubble
 10
9.960148331277522
 20
7.711416687580044
 30
0.0
  0
ATTRIB
  5
6ED
330
6EC
100
AcDbEntity
  8
text_bubbles
100
AcDbText
 10
9.900624521753712
 20
7.648916687580044
 30
0.0
 40
0.125
  1
5
  7
ROMANS
 72
     4
 11
9.960148331277522
 21
7.711416687580044
 31
0.0
100
AcDbAttribute
  2
XX
 70
     0
  0
SEQEND
  5
6EE
330
6EC
100
AcDbEntity
  8
text_bubbles
  0
INSERT
  5
6EF
330
1F
100
AcDbEntity
  8
text_bubbles
100
AcDbBlockReference
 66
     1
  2
bubble
 10
9.938066134931467
 20
8.382227683984982
 30
0.0
  0
ATTRIB
  5
6F0
330
6EF
100
AcDbEntity
  8
text_bubbles
100
AcDbText
 10
9.875566134931467
 20
8.319727683984982
 30
0.0
 40
0.125
  1
4
  7
ROMANS
 72
     4
 11
9.938066134931467
 21
8.382227683984982
 31
0.0
100
AcDbAttribute
  2
XX
 70
     0
  0
SEQEND
  5
6F1
330
6EF
100
AcDbEntity
  8
text_bubbles
  0
INSERT
  5
6F2
330
1F
100
AcDbEntity
  8
text_bubbles
100
AcDbBlockReference
 66
     1
  2
bubble
 10
9.938066134931467
 20
8.801985371182425
 30
0.0
  0
ATTRIB
  5
6F3
330
6F2
100
AcDbEntity
  8
text_bubbles
100
AcDbText
 10
9.878542325407657
 20
8.739485371182425
 30
0.0
 40
0.125
  1
3
  7
ROMANS
 72
     4
 11
9.938066134931467
 21
8.801985371182425
 31
0.0
100
AcDbAttribute
  2
XX
 70
     0
  0
SEQEND
  5
6F4
330
6F2
100
AcDbEntity
  8
text_bubbles
  0
INSERT
  5
6F5
330
1F
100
AcDbEntity
  8
text_bubbles
100
AcDbBlockReference
 66
     1
  2
bubble
 10
9.938066134931467
 20
9.412684382250404
 30
0.0
  0
ATTRIB
  5
6F6
330
6F5
100
AcDbEntity
  8
text_bubbles
100
AcDbText
 10
9.878542325407657
 20
9.350184382250404
 30
0.0
 40
0.125
  1
2
  7
ROMANS
 72
     4
 11
9.938066134931467
 21
9.412684382250404
 31
0.0
100
AcDbAttribute
  2
XX
 70
     0
  0
SEQEND
  5
6F7
330
6F5
100
AcDbEntity
  8
text_bubbles
  0
INSERT
  5
6F8
330
1F
100
AcDbEntity
  8
text_bubbles
 62
     2
100
AcDbBlockReference
 66
     1
  2
bubble
 10
9.938066134931467
 20
9.845157148639366
 30
0.0
  0
ATTRIB
  5
6F9
330
6F8
100
AcDbEntity
  8
text_bubbles
100
AcDbText
 10
9.88747089683623
 20
9.782657148639366
 30
0.0
 40
0.125
  1
1
  7
ROMANS
 72
     4
 11
9.938066134931467
 21
9.845157148639366
 31
0.0
100
AcDbAttribute
  2
XX
 70
     0
  0
SEQEND
  5
6FA
330
6F8
100
AcDbEntity
  8
text_bubbles
  0
INSERT
  5
71F
330
1F
100
AcDbEntity
  8
text_bubbles
100
AcDbBlockReference
 66
     1
  2
bubble
 10
2.490422819469637
 20
10.05603048103147
 30
0.0
  0
ATTRIB
  5
720
330
71F
100
AcDbEntity
  8
text_bubbles
100
AcDbText
 10
2.439827581374399
 20
9.993530481031468
 30
0.0
 40
0.125
  1
1
  7
ROMANS
 72
     4
 11
2.490422819469637
 21
10.05603048103147
 31
0.0
100
AcDbAttribute
  2
XX
 70
     0
  0
SEQEND
  5
721
330
71F
100
AcDbEntity
  8
text_bubbles
  0
INSERT
  5
728
330
1F
100
AcDbEntity
  8
text_bubbles
100
AcDbBlockReference
 66
     1
  2
bubble
 10
2.630726507250604
 20
2.917525695845497
 30
0.0
  0
ATTRIB
  5
729
330
728
100
AcDbEntity
  8
text_bubbles
100
AcDbText
 10
2.571202697726794
 20
2.855025695845497
 30
0.0
 40
0.125
  1
7
  7
ROMANS
 72
     4
 11
2.630726507250604
 21
2.917525695845497
 31
0.0
100
AcDbAttribute
  2
XX
 70
     0
  0
SEQEND
  5
72A
330
728
100
AcDbEntity
  8
text_bubbles
  0
INSERT
  5
739
330
1F
100
AcDbEntity
  8
text_bubbles
100
AcDbBlockReference
 66
     1
  2
bubble
 10
3.1533596454181
 20
10.05603048103147
 30
0.0
  0
ATTRIB
  5
73A
330
739
100
AcDbEntity
  8
text_bubbles
100
AcDbText
 10
3.093835835894291
 20
9.993530481031468
 30
0.0
 40
0.125
  1
2
  7
ROMANS
 72
     4
 11
3.1533596454181
 21
10.05603048103147
 31
0.0
100
AcDbAttribute
  2
XX
 70
     0
  0
SEQEND
  5
73B
330
739
100
AcDbEntity
  8
text_bubbles
  0
INSERT
  5
73D
330
1F
100
AcDbEntity
  8
text_bubbles
100
AcDbBlockReference
 66
     1
  2
bubble
 10
3.658452914675818
 20
10.05603048103147
 30
0.0
  0
ATTRIB
  5
73E
330
73D
100
AcDbEntity
  8
text_bubbles
100
AcDbText
 10
3.598929105152008
 20
9.993530481031468
 30
0.0
 40
0.125
  1
3
  7
ROMANS
 72
     4
 11
3.658452914675818
 21
10.05603048103147
 31
0.0
100
AcDbAttribute
  2
XX
 70
     0
  0
SEQEND
  5
73F
330
73D
100
AcDbEntity
  8
text_bubbles
  0
INSERT
  5
740
330
1F
100
AcDbEntity
  8
text_bubbles
100
AcDbBlockReference
 66
     1
  2
bubble
 10
4.142643702415108
 20
10.05603048103147
 30
0.0
  0
ATTRIB
  5
741
330
740
100
AcDbEntity
  8
text_bubbles
100
AcDbText
 10
4.080143702415108
 20
9.993530481031468
 30
0.0
 40
0.125
  1
4
  7
ROMANS
 72
     4
 11
4.142643702415108
 21
10.05603048103147
 31
0.0
100
AcDbAttribute
  2
XX
 70
     0
  0
SEQEND
  5
742
330
740
100
AcDbEntity
  8
text_bubbles
  0
INSERT
  5
743
330
1F
100
AcDbEntity
  8
text_bubbles
100
AcDbBlockReference
 66
     1
  2
bubble
 10
4.575938611783461
 20
10.05603048103147
 30
0.0
  0
ATTRIB
  5
744
330
743
100
AcDbEntity
  8
text_bubbles
100
AcDbText
 10
4.516414802259652
 20
9.993530481031468
 30
0.0
 40
0.125
  1
5
  7
ROMANS
 72
     4
 11
4.575938611783461
 21
10.05603048103147
 31
0.0
100
AcDbAttribute
  2
XX
 70
     0
  0
SEQEND
  5
745
330
743
100
AcDbEntity
  8
text_bubbles
  0
INSERT
  5
746
330
1F
100
AcDbEntity
  8
text_bubbles
100
AcDbBlockReference
 66
     1
  2
bubble
 10
5.101934430097203
 20
10.05603048103147
 30
0.0
  0
ATTRIB
  5
747
330
746
100
AcDbEntity
  8
text_bubbles
100
AcDbText
 10
5.039434430097203
 20
9.993530481031468
 30
0.0
 40
0.125
  1
6
  7
ROMANS
 72
     4
 11
5.101934430097203
 21
10.05603048103147
 31
0.0
100
AcDbAttribute
  2
XX
 70
     0
  0
SEQEND
  5
748
330
746
100
AcDbEntity
  8
text_bubbles
  0
INSERT
  5
749
330
1F
100
AcDbEntity
  8
text_bubbles
100
AcDbBlockReference
 66
     1
  2
bubble
 10
4.749312287295826
 20
2.917525695845497
 30
0.0
  0
ATTRIB
  5
74A
330
749
100
AcDbEntity
  8
text_bubbles
100
AcDbText
 10
4.689788477772017
 20
2.855025695845497
 30
0.0
 40
0.125
  1
8
  7
ROMANS
 72
     4
 11
4.749312287295826
 21
2.917525695845497
 31
0.0
100
AcDbAttribute
  2
XX
 70
     0
  0
SEQEND
  5
74B
330
749
100
AcDbEntity
  8
text_bubbles
  0
INSERT
  5
74C
330
1F
100
AcDbEntity
  8
text_bubbles
100
AcDbBlockReference
 66
     1
  2
bubble
 10
5.196059883082278
 20
2.917525695845497
 30
0.0
  0
ATTRIB
  5
74D
330
74C
100
AcDbEntity
  8
text_bubbles
100
AcDbText
 10
5.139512264034659
 20
2.855025695845497
 30
0.0
 40
0.125
  1
9
  7
ROMANS
 72
     4
 11
5.196059883082278
 21
2.917525695845497
 31
0.0
100
AcDbAttribute
  2
XX
 70
     0
  0
SEQEND
  5
74E
330
74C
100
AcDbEntity
  8
text_bubbles
  0
INSERT
  5
74F
330
1F
100
AcDbEntity
  8
text_bubbles
100
AcDbBlockReference
 66
     1
  2
bubble
 10
6.180409973576157
 20
2.917525695845497
 30
0.0
  0
ATTRIB
  5
750
330
74F
100
AcDbEntity
  8
text_bubbles
100
AcDbText
 10
6.052433783099966
 20
2.855025695845497
 30
0.0
 40
0.125
  1
10
  7
ROMANS
 72
     4
 11
6.180409973576157
 21
2.917525695845497
 31
0.0
100
AcDbAttribute
  2
XX
 70
     0
  0
SEQEND
  5
751
330
74F
100
AcDbEntity
  8
text_bubbles
  0
INSERT
  5
752
330
1F
100
AcDbEntity
  8
text_bubbles
100
AcDbBlockReference
 66
     1
  2
bubble
 10
6.727594379560084
 20
2.917525695845497
 30
0.0
  0
ATTRIB
  5
753
330
752
100
AcDbEntity
  8
text_bubbles
100
AcDbText
 10
6.617475331941037
 20
2.855025695845497
 30
0.0
 40
0.125
  1
11
  7
ROMANS
 72
     4
 11
6.727594379560084
 21
2.917525695845497
 31
0.0
100
AcDbAttribute
  2
XX
 70
     0
  0
SEQEND
  5
754
330
752
100
AcDbEntity
  8
text_bubbles
  0
LEADER
  5
768
330
1F
100
AcDbEntity
  8
text_bubbles
100
AcDbLeader
  3
Standard
 76
     2
 10
2.908321098079857
 20
9.223714757376702
 30
0.0
 10
2.490422819469637
 20
9.916141295593748
 30
0.0
1001
ACAD
1000
DSTYLE
1002
{
1070
   147
1040
0.09
1070
    77
1070
     0
1002
}
  0
LEADER
  5
769
330
1F
100
AcDbEntity
  8
text_bubbles
100
AcDbLeader
  3
Standard
 76
     2
 10
3.57125792402832
 20
9.223714757376702
 30
0.0
 10
3.1533596454181
 20
9.916141295593748
 30
0.0
1001
ACAD
1000
DSTYLE
1002
{
1070
   147
1040
0.09
1070
    77
1070
     0
1002
}
  0
LEADER
  5
76A
330
1F
100
AcDbEntity
  8
text_bubbles
100
AcDbLeader
  3
Standard
 76
     2
 10
4.290664472585332
 20
7.155457719739974
 30
0.0
 10
3.658452914675818
 20
9.916141295593748
 30
0.0
1001
ACAD
1000
DSTYLE
1002
{
1070
   147
1040
0.09
1070
    77
1070
     0
1002
}
  0
LEADER
  5
76B
330
1F
100
AcDbEntity
  8
text_bubbles
100
AcDbLeader
  3
Standard
 76
     2
 10
4.484368636809801
 20
7.727528810961493
 30
0.0
 10
4.142643702415108
 20
9.916141295593748
 30
0.0
1001
ACAD
1000
DSTYLE
1002
{
1070
   147
1040
0.09
1070
    77
1070
     0
1002
}
  0
LEADER
  5
76D
330
1F
100
AcDbEntity
  8
text_bubbles
100
AcDbLeader
  3
Standard
 76
     2
 10
4.933410106118652
 20
6.794612875686976
 30
0.0
 10
4.575938611783461
 20
9.916141295593748
 30
0.0
1001
ACAD
1000
DSTYLE
1002
{
1070
   147
1040
0.09
1070
    77
1070
     0
1002
}
  0
LEADER
  5
76E
330
1F
100
AcDbEntity
  8
text_bubbles
100
AcDbLeader
  3
Standard
 76
     2
 10
5.408865783477295
 20
7.76273318735871
 30
0.0
 10
5.101934430097203
 20
9.916141295593748
 30
0.0
1001
ACAD
1000
DSTYLE
1002
{
1070
   147
1040
0.09
1070
    77
1070
     0
1002
}
  0
LEADER
  5
770
330
1F
100
AcDbEntity
  8
text_bubbles
100
AcDbLeader
  3
Standard
 76
     2
 10
2.962688577859066
 20
3.498338316658558
 30
0.0
 10
2.630726507250604
 20
3.057414881283217
 30
0.0
1001
ACAD
1000
DSTYLE
1002
{
1070
   147
1040
0.09
1070
    77
1070
     0
1002
}
  0
LEADER
  5
771
330
1F
100
AcDbEntity
  8
text_bubbles
100
AcDbLeader
  3
Standard
 76
     2
 10
4.691049660943588
 20
3.482560722928798
 30
0.0
 10
4.749312287295826
 20
3.057414881283217
 30
0.0
1001
ACAD
1000
DSTYLE
1002
{
1070
   147
1040
0.09
1070
    77
1070
     0
1002
}
  0
LEADER
  5
772
330
1F
100
AcDbEntity
  8
text_bubbles
100
AcDbLeader
  3
Standard
 76
     2
 10
5.149001794914583
 20
4.747536245457904
 30
0.0
 10
5.196059883082278
 20
3.057414881283217
 30
0.0
1001
ACAD
1000
DSTYLE
1002
{
1070
   147
1040
0.09
1070
    77
1070
     0
1002
}
  0
LEADER
  5
773
330
1F
100
AcDbEntity
  8
text_bubbles
100
AcDbLeader
  3
Standard
 76
     2
 10
6.302710383215053
 20
4.011946606598952
 30
0.0
 10
6.180409973576157
 20
3.057414881283217
 30
0.0
1001
ACAD
1000
DSTYLE
1002
{
1070
   147
1040
0.09
1070
    77
1070
     0
1002
}
  0
LEADER
  5
774
330
1F
100
AcDbEntity
  8
text_bubbles
100
AcDbLeader
  3
Standard
 76
     2
 10
6.065948585460659
 20
6.678359688988491
 30
0.0
 10
6.727594379560084
 20
3.057414881283217
 30
0.0
1001
ACAD
1000
DSTYLE
1002
{
1070
   147
1040
0.09
1070
    77
1070
     0
1002
}
  0
LWPOLYLINE
  5
77D
330
1F
100
AcDbEntity
  8
image
100
AcDbPolyline
 90
        2
 70
     0
 43
0.043600746411541
 10
6.863998324092426
 20
3.514194038657215
 10
8.851175656058121
 20
3.533967755137203
  0
POLYLINE
  5
77E
330
1F
100
AcDbEntity
  8
image
 62
     5
100
AcDb2dPolyline
 66
     1
 10
0.0
 20
0.0
 30
0.0
 40
0.0209283582775397
 41
0.0209283582775397
  0
VERTEX
  5
77F
330
77E
100
AcDbEntity
  8
image
 62
     5
100
AcDbVertex
100
AcDb2dVertex
 10
9.156217027045862
 20
3.54429401033578
 30
0.0
  0
VERTEX
  5
780
330
77E
100
AcDbEntity
  8
image
 62
     5
100
AcDbVertex
100
AcDb2dVertex
 10
9.115318920970983
 20
3.544274878290231
 30
0.0
  0
VERTEX
  5
781
330
77E
100
AcDbEntity
  8
image
 62
     5
100
AcDbVertex
100
AcDb2dVertex
 10
9.019528298314181
 20
3.543397353429647
 30
0.0
  0
VERTEX
  5
782
330
77E
100
AcDbEntity
  8
image
 62
     5
100
AcDbVertex
100
AcDb2dVertex
 10
8.929980912639958
 20
3.54110576859613
 30
0.0
  0
VERTEX
  5
783
330
77E
100
AcDbEntity
  8
image
 62
     5
100
AcDbVertex
100
AcDb2dVertex
 10
8.849767376635279
 20
3.536817303240447
 30
0.0
  0
SEQEND
  5
784
330
77E
100
AcDbEntity
  8
image
 62
     5
  0
POLYLINE
  5
785
330
1F
100
AcDbEntity
  8
image
 62
     5
100
AcDb2dPolyline
 66
     1
 10
0.0
 20
0.0
 30
0.0
 40
0.0209283582775397
 41
0.0209283582775397
  0
VERTEX
  5
786
330
785
100
AcDbEntity
  8
image
 62
     5
100
AcDbVertex
100
AcDb2dVertex
 10
9.153475480751675
 20
3.480068058849848
 30
0.0
  0
VERTEX
  5
787
330
785
100
AcDbEntity
  8
image
 62
     5
100
AcDbVertex
100
AcDb2dVertex
 10
9.143014183833281
 20
3.481461537219836
 30
0.0
  0
VERTEX
  5
788
330
785
100
AcDbEntity
  8
image
 62
     5
100
AcDbVertex
100
AcDb2dVertex
 10
9.004834274749322
 20
3.504539158137591
 30
0.0
  0
VERTEX
  5
789
330
785
100
AcDbEntity
  8
image
 62
     5
100
AcDbVertex
100
AcDb2dVertex
 10
8.849183367970647
 20
3.53503699314159
 30
0.0
  0
SEQEND
  5
78A
330
785
100
AcDbEntity
  8
image
 62
     5
  0
ELLIPSE
  5
78B
330
1F
100
AcDbEntity
  8
image
100
AcDbEllipse
 10
4.014729021841604
 20
4.752877135117883
 30
0.0
 11
0.1281654251072225
 21
0.0091291655807087
 31
0.0
210
0.0
220
0.0
230
0.9999999999999998
 40
0.724240147670212
 41
1.986059983270361
 42
4.194042102595341
  0
ELLIPSE
  5
78C
330
1F
100
AcDbEntity
  8
image
100
AcDbEllipse
 10
3.959350533802211
 20
5.026694668256451
 30
0.0
 11
0.0799881691843222
 21
0.0305956023113995
 31
0.0
210
0.0
220
0.0
230
1.0
 40
0.7603015643501995
 41
1.316327115939319
 42
4.400837245017108
  0
ELLIPSE
  5
78D
330
1F
100
AcDbEntity
  8
image
100
AcDbEllipse
 10
4.160079912564556
 20
5.184273158429824
 30
0.0
 11
0.0786937494403947
 21
0.0041899328929969
 31
0.0
210
0.0
220
0.0
230
1.0
 40
0.9660922442161034
 41
4.872654689980886
 42
7.590930193631574
  0
ELLIPSE
  5
78E
330
1F
100
AcDbEntity
  8
image
100
AcDbEllipse
 10
3.892096400608259
 20
5.226075194051809
 30
0.0
 11
0.1281654251072225
 21
0.0091291655807087
 31
0.0
210
0.0
220
0.0
230
0.9999999999999998
 40
0.724240147670212
 41
0.9892650126636219
 42
5.190837073202083
  0
ELLIPSE
  5
78F
330
1F
100
AcDbEntity
  8
image
100
AcDbEllipse
 10
4.132806313673863
 20
5.379783329914916
 30
0.0
 11
-0.1224395538613896
 21
0.0000000000000023
 31
0.0
210
0.0
220
0.0
230
1.0
 40
0.6392024827165621
 41
8.220056085217624
 42
10.62949983632115
  0
ELLIPSE
  5
790
330
1F
100
AcDbEntity
  8
image
100
AcDbEllipse
 10
4.281052391186752
 20
4.930676405782405
 30
0.0
 11
0.1281654251072225
 21
0.0091291655807087
 31
0.0
210
0.0
220
0.0
230
0.9999999999999998
 40
0.724240147670212
 41
3.710470453309747
 42
8.752816939734946
  0
POLYLINE
  5
793
330
1F
100
AcDbEntity
  8
image
 62
     5
100
AcDb2dPolyline
 66
     1
 10
0.0
 20
0.0
 30
0.0
 70
   132
 40
0.0209
 41
0.0209
 75
     6
  0
VERTEX
  5
796
330
793
100
AcDbEntity
  8
image
 62
     5
100
AcDbVertex
100
AcDb2dVertex
 10
5.857618409264514
 20
6.609837389675639
 30
0.0
 70
    16
  0
VERTEX
  5
7A1
330
793
100
AcDbEntity
  8
image
 62
     5
100
AcDbVertex
100
AcDb2dVertex
 10
5.857618409264513
 20
6.609837389675639
 30
0.0
 70
     8
  0
VERTEX
  5
7A2
330
793
100
AcDbEntity
  8
image
 62
     5
100
AcDbVertex
100
AcDb2dVertex
 10
5.888340836917227
 20
6.609188491906412
 30
0.0
 70
     8
  0
VERTEX
  5
7A3
330
793
100
AcDbEntity
  8
image
 62
     5
100
AcDbVertex
100
AcDb2dVertex
 10
5.914107321704671
 20
6.607097996559314
 30
0.0
 70
     8
  0
VERTEX
  5
7A4
330
793
100
AcDbEntity
  8
image
 62
     5
100
AcDbVertex
100
AcDb2dVertex
 10
5.935398051231238
 20
6.603350200575216
 30
0.0
 70
     8
  0
VERTEX
  5
7A5
330
793
100
AcDbEntity
  8
image
 62
     5
100
AcDbVertex
100
AcDb2dVertex
 10
5.95269321310132
 20
6.597729400894992
 30
0.0
 70
     8
  0
VERTEX
  5
7A6
330
793
100
AcDbEntity
  8
image
 62
     5
100
AcDbVertex
100
AcDb2dVertex
 10
5.966472994919312
 20
6.590019894459515
 30
0.0
 70
     8
  0
VERTEX
  5
7A7
330
793
100
AcDbEntity
  8
image
 62
     5
100
AcDbVertex
100
AcDb2dVertex
 10
5.977217584289608
 20
6.580005978209657
 30
0.0
 70
     8
  0
VERTEX
  5
7A8
330
793
100
AcDbEntity
  8
image
 62
     5
100
AcDbVertex
100
AcDb2dVertex
 10
5.985407168816599
 20
6.567471949086292
 30
0.0
 70
     8
  0
VERTEX
  5
7A9
330
793
100
AcDbEntity
  8
image
 62
     5
100
AcDbVertex
100
AcDb2dVertex
 10
5.991521936104681
 20
6.552202104030292
 30
0.0
 70
     8
  0
VERTEX
  5
7AA
330
793
100
AcDbEntity
  8
image
 62
     5
100
AcDbVertex
100
AcDb2dVertex
 10
5.995986349072417
 20
6.53395936493121
 30
0.0
 70
     8
  0
VERTEX
  5
7AB
330
793
100
AcDbEntity
  8
image
 62
     5
100
AcDbVertex
100
AcDb2dVertex
 10
5.999001971895059
 20
6.512421153473321
 30
0.0
 70
     8
  0
VERTEX
  5
7AC
330
793
100
AcDbEntity
  8
image
 62
     5
100
AcDbVertex
100
AcDb2dVertex
 10
6.000714644062032
 20
6.487243516289577
 30
0.0
 70
     8
  0
VERTEX
  5
7AD
330
793
100
AcDbEntity
  8
image
 62
     5
100
AcDbVertex
100
AcDb2dVertex
 10
6.001270205062758
 20
6.458082500012932
 30
0.0
 70
     8
  0
VERTEX
  5
7AE
330
793
100
AcDbEntity
  8
image
 62
     5
100
AcDbVertex
100
AcDb2dVertex
 10
6.000814494386663
 20
6.424594151276339
 30
0.0
 70
     8
  0
VERTEX
  5
7AF
330
793
100
AcDbEntity
  8
image
 62
     5
100
AcDbVertex
100
AcDb2dVertex
 10
5.999493351523169
 20
6.386434516712754
 30
0.0
 70
     8
  0
VERTEX
  5
7B0
330
793
100
AcDbEntity
  8
image
 62
     5
100
AcDbVertex
100
AcDb2dVertex
 10
5.997452615961701
 20
6.343259642955128
 30
0.0
 70
     8
  0
VERTEX
  5
7B1
330
793
100
AcDbEntity
  8
image
 62
     5
100
AcDbVertex
100
AcDb2dVertex
 10
5.994838127191682
 20
6.294725576636416
 30
0.0
 70
     8
  0
VERTEX
  5
7B2
330
793
100
AcDbEntity
  8
image
 62
     5
100
AcDbVertex
100
AcDb2dVertex
 10
5.991777361382472
 20
6.240605097724668
 30
0.0
 70
     8
  0
VERTEX
  5
7B3
330
793
100
AcDbEntity
  8
image
 62
     5
100
AcDbVertex
100
AcDb2dVertex
 10
5.988324341423171
 20
6.181137919528321
 30
0.0
 70
     8
  0
VERTEX
  5
7B4
330
793
100
AcDbEntity
  8
image
 62
     5
100
AcDbVertex
100
AcDb2dVertex
 10
5.984514726882817
 20
6.116680488690909
 30
0.0
 70
     8
  0
VERTEX
  5
7B5
330
793
100
AcDbEntity
  8
image
 62
     5
100
AcDbVertex
100
AcDb2dVertex
 10
5.980384177330448
 20
6.047589251855966
 30
0.0
 70
     8
  0
VERTEX
  5
7B6
330
793
100
AcDbEntity
  8
image
 62
     5
100
AcDbVertex
100
AcDb2dVertex
 10
5.9759683523351
 20
5.974220655667026
 30
0.0
 70
     8
  0
VERTEX
  5
7B7
330
793
100
AcDbEntity
  8
image
 62
     5
100
AcDbVertex
100
AcDb2dVertex
 10
5.97130291146581
 20
5.896931146767623
 30
0.0
 70
     8
  0
VERTEX
  5
7B8
330
793
100
AcDbEntity
  8
image
 62
     5
100
AcDbVertex
100
AcDb2dVertex
 10
5.966423514291615
 20
5.816077171801291
 30
0.0
 70
     8
  0
VERTEX
  5
7B9
330
793
100
AcDbEntity
  8
image
 62
     5
100
AcDbVertex
100
AcDb2dVertex
 10
5.961365820381552
 20
5.732015177411562
 30
0.0
 70
     8
  0
VERTEX
  5
7BA
330
793
100
AcDbEntity
  8
image
 62
     5
100
AcDbVertex
100
AcDb2dVertex
 10
5.956189262200464
 20
5.645104580614551
 30
0.0
 70
     8
  0
VERTEX
  5
7BB
330
793
100
AcDbEntity
  8
image
 62
     5
100
AcDbVertex
100
AcDb2dVertex
 10
5.95104836379641
 20
5.555716679916682
 30
0.0
 70
     8
  0
VERTEX
  5
7BC
330
793
100
AcDbEntity
  8
image
 62
     5
100
AcDbVertex
100
AcDb2dVertex
 10
5.946121422113254
 20
5.464225744196957
 30
0.0
 70
     8
  0
VERTEX
  5
7BD
330
793
100
AcDbEntity
  8
image
 62
     5
100
AcDbVertex
100
AcDb2dVertex
 10
5.941586734094862
 20
5.371006042334379
 30
0.0
 70
     8
  0
VERTEX
  5
7BE
330
793
100
AcDbEntity
  8
image
 62
     5
100
AcDbVertex
100
AcDb2dVertex
 10
5.937622596685097
 20
5.276431843207952
 30
0.0
 70
     8
  0
VERTEX
  5
7BF
330
793
100
AcDbEntity
  8
image
 62
     5
100
AcDbVertex
100
AcDb2dVertex
 10
5.934407306827827
 20
5.18087741569668
 30
0.0
 70
     8
  0
VERTEX
  5
7C0
330
793
100
AcDbEntity
  8
image
 62
     5
100
AcDbVertex
100
AcDb2dVertex
 10
5.932119161466914
 20
5.084717028679563
 30
0.0
 70
     8
  0
VERTEX
  5
7C1
330
793
100
AcDbEntity
  8
image
 62
     5
100
AcDbVertex
100
AcDb2dVertex
 10
5.930936457546224
 20
4.988324951035608
 30
0.0
 70
     8
  0
VERTEX
  5
7C2
330
793
100
AcDbEntity
  8
image
 62
     5
100
AcDbVertex
100
AcDb2dVertex
 10
5.930989946160234
 20
4.892105155553801
 30
0.0
 70
     8
  0
VERTEX
  5
7C3
330
793
100
AcDbEntity
  8
image
 62
     5
100
AcDbVertex
100
AcDb2dVertex
 10
5.93222019500588
 20
4.796580430663081
 30
0.0
 70
     8
  0
VERTEX
  5
7C4
330
793
100
AcDbEntity
  8
image
 62
     5
100
AcDbVertex
100
AcDb2dVertex
 10
5.934520225930707
 20
4.702303268702371
 30
0.0
 70
     8
  0
VERTEX
  5
7C5
330
793
100
AcDbEntity
  8
image
 62
     5
100
AcDbVertex
100
AcDb2dVertex
 10
5.937783060782265
 20
4.609826162010595
 30
0.0
 70
     8
  0
VERTEX
  5
7C6
330
793
100
AcDbEntity
  8
image
 62
     5
100
AcDbVertex
100
AcDb2dVertex
 10
5.941901721408101
 20
4.519701602926676
 30
0.0
 70
     8
  0
VERTEX
  5
7C7
330
793
100
AcDbEntity
  8
image
 62
     5
100
AcDbVertex
100
AcDb2dVertex
 10
5.946769229655762
 20
4.432482083789538
 30
0.0
 70
     8
  0
VERTEX
  5
7C8
330
793
100
AcDbEntity
  8
image
 62
     5
100
AcDbVertex
100
AcDb2dVertex
 10
5.952278607372796
 20
4.348720096938104
 30
0.0
 70
     8
  0
VERTEX
  5
7C9
330
793
100
AcDbEntity
  8
image
 62
     5
100
AcDbVertex
100
AcDb2dVertex
 10
5.958322876406749
 20
4.2689681347113
 30
0.0
 70
     8
  0
VERTEX
  5
7CA
330
793
100
AcDbEntity
  8
image
 62
     5
100
AcDbVertex
100
AcDb2dVertex
 10
5.96492580975165
 20
4.193674725836008
 30
0.0
 70
     8
  0
VERTEX
  5
7CB
330
793
100
AcDbEntity
  8
image
 62
     5
100
AcDbVertex
100
AcDb2dVertex
 10
5.972634184987433
 20
4.122872544590956
 30
0.0
 70
     8
  0
VERTEX
  5
7CC
330
793
100
AcDbEntity
  8
image
 62
     5
100
AcDbVertex
100
AcDb2dVertex
 10
5.982125530840514
 20
4.056490301642832
 30
0.0
 70
     8
  0
VERTEX
  5
7CD
330
793
100
AcDbEntity
  8
image
 62
     5
100
AcDbVertex
100
AcDb2dVertex
 10
5.994077376037306
 20
3.994456707658325
 30
0.0
 70
     8
  0
VERTEX
  5
7CE
330
793
100
AcDbEntity
  8
image
 62
     5
100
AcDbVertex
100
AcDb2dVertex
 10
6.009167249304224
 20
3.936700473304123
 30
0.0
 70
     8
  0
VERTEX
  5
7CF
330
793
100
AcDbEntity
  8
image
 62
     5
100
AcDbVertex
100
AcDb2dVertex
 10
6.028072679367684
 20
3.883150309246912
 30
0.0
 70
     8
  0
VERTEX
  5
7D0
330
793
100
AcDbEntity
  8
image
 62
     5
100
AcDbVertex
100
AcDb2dVertex
 10
6.051471194954098
 20
3.833734926153382
 30
0.0
 70
     8
  0
VERTEX
  5
7D1
330
793
100
AcDbEntity
  8
image
 62
     5
100
AcDbVertex
100
AcDb2dVertex
 10
6.080040324789882
 20
3.78838303469022
 30
0.0
 70
     8
  0
VERTEX
  5
7D2
330
793
100
AcDbEntity
  8
image
 62
     5
100
AcDbVertex
100
AcDb2dVertex
 10
6.115020018305491
 20
3.746927437627586
 30
0.0
 70
     8
  0
VERTEX
  5
7D3
330
793
100
AcDbEntity
  8
image
 62
     5
100
AcDbVertex
100
AcDb2dVertex
 10
6.159899907747548
 20
3.708817306149513
 30
0.0
 70
     8
  0
VERTEX
  5
7D4
330
793
100
AcDbEntity
  8
image
 62
     5
100
AcDbVertex
100
AcDb2dVertex
 10
6.218732046066715
 20
3.67340590354351
 30
0.0
 70
     8
  0
VERTEX
  5
7D5
330
793
100
AcDbEntity
  8
image
 62
     5
100
AcDbVertex
100
AcDb2dVertex
 10
6.295568486213657
 20
3.640046493097079
 30
0.0
 70
     8
  0
VERTEX
  5
7D6
330
793
100
AcDbEntity
  8
image
 62
     5
100
AcDbVertex
100
AcDb2dVertex
 10
6.394461281139035
 20
3.608092338097729
 30
0.0
 70
     8
  0
VERTEX
  5
7D7
330
793
100
AcDbEntity
  8
image
 62
     5
100
AcDbVertex
100
AcDb2dVertex
 10
6.519462483793514
 20
3.576896701832965
 30
0.0
 70
     8
  0
VERTEX
  5
7D8
330
793
100
AcDbEntity
  8
image
 62
     5
100
AcDbVertex
100
AcDb2dVertex
 10
6.674624147127756
 20
3.545812847590291
 30
0.0
 70
     8
  0
VERTEX
  5
7D9
330
793
100
AcDbEntity
  8
image
 62
     5
100
AcDbVertex
100
AcDb2dVertex
 10
6.863998324092426
 20
3.514194038657215
 30
0.0
 70
     8
  0
VERTEX
  5
797
330
793
100
AcDbEntity
  8
image
 62
     5
100
AcDbVertex
100
AcDb2dVertex
 10
5.946579640251573
 20
6.609837389675639
 30
0.0
 70
    16
  0
VERTEX
  5
798
330
793
100
AcDbEntity
  8
image
 62
     5
100
AcDbVertex
100
AcDb2dVertex
 10
6.008531318872863
 20
6.583684973275751
 30
0.0
 70
    16
  0
VERTEX
  5
799
330
793
100
AcDbEntity
  8
image
 62
     5
100
AcDbVertex
100
AcDb2dVertex
 10
5.999402540195704
 20
6.355559133203165
 30
0.0
 70
    16
  0
VERTEX
  5
79A
330
793
100
AcDbEntity
  8
image
 62
     5
100
AcDbVertex
100
AcDb2dVertex
 10
5.962887283494412
 20
5.762431953730085
 30
0.0
 70
    16
  0
VERTEX
  5
79B
330
793
100
AcDbEntity
  8
image
 62
     5
100
AcDbVertex
100
AcDb2dVertex
 10
5.91724324811596
 20
4.98680411634587
 30
0.0
 70
    16
  0
VERTEX
  5
79C
330
793
100
AcDbEntity
  8
image
 62
     5
100
AcDbVertex
100
AcDb2dVertex
 10
5.953758469319089
 20
4.220301287100078
 30
0.0
 70
    16
  0
VERTEX
  5
79D
330
793
100
AcDbEntity
  8
image
 62
     5
100
AcDbVertex
100
AcDb2dVertex
 10
6.017660133048186
 20
3.745799543521615
 30
0.0
 70
    16
  0
VERTEX
  5
79E
330
793
100
AcDbEntity
  8
image
 62
     5
100
AcDbVertex
100
AcDb2dVertex
 10
6.309782009167703
 20
3.599799012477062
 30
0.0
 70
    16
  0
VERTEX
  5
79F
330
793
100
AcDbEntity
  8
image
 62
     5
100
AcDbVertex
100
AcDb2dVertex
 10
6.863998324092426
 20
3.514194038657215
 30
0.0
 70
    16
  0
SEQEND
  5
7A0
330
793
100
AcDbEntity
  8
image
 62
     5
  0
POLYLINE
  5
795
330
1F
100
AcDbEntity
  8
image
 62
     5
100
AcDb2dPolyline
 66
     1
 10
0.0
 20
0.0
 30
0.0
 70
   132
 40
0.0209
 41
0.0209
 75
     6
  0
VERTEX
  5
7DA
330
795
100
AcDbEntity
  8
image
 62
     5
100
AcDbVertex
100
AcDb2dVertex
 10
5.278041109149219
 20
6.760317517392439
 30
0.0
 70
    16
  0
VERTEX
  5
7E5
330
795
100
AcDbEntity
  8
image
 62
     5
100
AcDbVertex
100
AcDb2dVertex
 10
5.278041109149219
 20
6.760317517392439
 30
0.0
 70
     8
  0
VERTEX
  5
7E6
330
795
100
AcDbEntity
  8
image
 62
     5
100
AcDbVertex
100
AcDb2dVertex
 10
5.300675432848461
 20
6.752007526218235
 30
0.0
 70
     8
  0
VERTEX
  5
7E7
330
795
100
AcDbEntity
  8
image
 62
     5
100
AcDbVertex
100
AcDb2dVertex
 10
5.317120918657978
 20
6.74160801949642
 30
0.0
 70
     8
  0
VERTEX
  5
7E8
330
795
100
AcDbEntity
  8
image
 62
     5
100
AcDbVertex
100
AcDb2dVertex
 10
5.327941980823995
 20
6.729639244031737
 30
0.0
 70
     8
  0
VERTEX
  5
7E9
330
795
100
AcDbEntity
  8
image
 62
     5
100
AcDbVertex
100
AcDb2dVertex
 10
5.333703033592738
 20
6.716621446628932
 30
0.0
 70
     8
  0
VERTEX
  5
7EA
330
795
100
AcDbEntity
  8
image
 62
     5
100
AcDbVertex
100
AcDb2dVertex
 10
5.33496849121043
 20
6.703074874092748
 30
0.0
 70
     8
  0
VERTEX
  5
7EB
330
795
100
AcDbEntity
  8
image
 62
     5
100
AcDbVertex
100
AcDb2dVertex
 10
5.332302767923297
 20
6.689519773227932
 30
0.0
 70
     8
  0
VERTEX
  5
7EC
330
795
100
AcDbEntity
  8
image
 62
     5
100
AcDbVertex
100
AcDb2dVertex
 10
5.326270277977562
 20
6.676476390839228
 30
0.0
 70
     8
  0
VERTEX
  5
7ED
330
795
100
AcDbEntity
  8
image
 62
     5
100
AcDbVertex
100
AcDb2dVertex
 10
5.317435435619452
 20
6.664464973731381
 30
0.0
 70
     8
  0
VERTEX
  5
7EE
330
795
100
AcDbEntity
  8
image
 62
     5
100
AcDbVertex
100
AcDb2dVertex
 10
5.306349463922022
 20
6.653782101008281
 30
0.0
 70
     8
  0
VERTEX
  5
7EF
330
795
100
AcDbEntity
  8
image
 62
     5
100
AcDbVertex
100
AcDb2dVertex
 10
5.293510821265666
 20
6.643829680970396
 30
0.0
 70
     8
  0
VERTEX
  5
7F0
330
795
100
AcDbEntity
  8
image
 62
     5
100
AcDbVertex
100
AcDb2dVertex
 10
5.279404774857609
 20
6.633785954217341
 30
0.0
 70
     8
  0
VERTEX
  5
7F1
330
795
100
AcDbEntity
  8
image
 62
     5
100
AcDbVertex
100
AcDb2dVertex
 10
5.264516591905074
 20
6.622829161348727
 30
0.0
 70
     8
  0
VERTEX
  5
7F2
330
795
100
AcDbEntity
  8
image
 62
     5
100
AcDbVertex
100
AcDb2dVertex
 10
5.249331539615289
 20
6.61013754296417
 30
0.0
 70
     8
  0
VERTEX
  5
7F3
330
795
100
AcDbEntity
  8
image
 62
     5
100
AcDbVertex
100
AcDb2dVertex
 10
5.234334885195476
 20
6.594889339663282
 30
0.0
 70
     8
  0
VERTEX
  5
7F4
330
795
100
AcDbEntity
  8
image
 62
     5
100
AcDbVertex
100
AcDb2dVertex
 10
5.220011895852862
 20
6.576262792045678
 30
0.0
 70
     8
  0
VERTEX
  5
7F5
330
795
100
AcDbEntity
  8
image
 62
     5
100
AcDbVertex
100
AcDb2dVertex
 10
5.206847838794673
 20
6.55343614071097
 30
0.0
 70
     8
  0
VERTEX
  5
7F6
330
795
100
AcDbEntity
  8
image
 62
     5
100
AcDbVertex
100
AcDb2dVertex
 10
5.195269939425793
 20
6.52580447944059
 30
0.0
 70
     8
  0
VERTEX
  5
7F7
330
795
100
AcDbEntity
  8
image
 62
     5
100
AcDbVertex
100
AcDb2dVertex
 10
5.185473255941758
 20
6.49363031474324
 30
0.0
 70
     8
  0
VERTEX
  5
7F8
330
795
100
AcDbEntity
  8
image
 62
     5
100
AcDbVertex
100
AcDb2dVertex
 10
5.177594804735764
 20
6.457393006309442
 30
0.0
 70
     8
  0
VERTEX
  5
7F9
330
795
100
AcDbEntity
  8
image
 62
     5
100
AcDbVertex
100
AcDb2dVertex
 10
5.171771602201007
 20
6.417571913829714
 30
0.0
 70
     8
  0
VERTEX
  5
7FA
330
795
100
AcDbEntity
  8
image
 62
     5
100
AcDbVertex
100
AcDb2dVertex
 10
5.168140664730684
 20
6.374646396994577
 30
0.0
 70
     8
  0
VERTEX
  5
7FB
330
795
100
AcDbEntity
  8
image
 62
     5
100
AcDbVertex
100
AcDb2dVertex
 10
5.166839008717991
 20
6.329095815494553
 30
0.0
 70
     8
  0
VERTEX
  5
7FC
330
795
100
AcDbEntity
  8
image
 62
     5
100
AcDbVertex
100
AcDb2dVertex
 10
5.168003650556123
 20
6.281399529020159
 30
0.0
 70
     8
  0
VERTEX
  5
7FD
330
795
100
AcDbEntity
  8
image
 62
     5
100
AcDbVertex
100
AcDb2dVertex
 10
5.171771606638277
 20
6.232036897261918
 30
0.0
 70
     8
  0
VERTEX
  5
7FE
330
795
100
AcDbEntity
  8
image
 62
     5
100
AcDbVertex
100
AcDb2dVertex
 10
5.178277990404188
 20
6.181026942442562
 30
0.0
 70
     8
  0
VERTEX
  5
7FF
330
795
100
AcDbEntity
  8
image
 62
     5
100
AcDbVertex
100
AcDb2dVertex
 10
5.187650303479744
 20
6.126547336913676
 30
0.0
 70
     8
  0
VERTEX
  5
800
330
795
100
AcDbEntity
  8
image
 62
     5
100
AcDbVertex
100
AcDb2dVertex
 10
5.200014144537368
 20
6.06631541555906
 30
0.0
 70
     8
  0
VERTEX
  5
801
330
795
100
AcDbEntity
  8
image
 62
     5
100
AcDbVertex
100
AcDb2dVertex
 10
5.215495112249486
 20
5.998048513262512
 30
0.0
 70
     8
  0
VERTEX
  5
802
330
795
100
AcDbEntity
  8
image
 62
     5
100
AcDbVertex
100
AcDb2dVertex
 10
5.234218805288525
 20
5.919463964907829
 30
0.0
 70
     8
  0
VERTEX
  5
803
330
795
100
AcDbEntity
  8
image
 62
     5
100
AcDbVertex
100
AcDb2dVertex
 10
5.25631082232691
 20
5.82827910537881
 30
0.0
 70
     8
  0
VERTEX
  5
804
330
795
100
AcDbEntity
  8
image
 62
     5
100
AcDbVertex
100
AcDb2dVertex
 10
5.281896762037066
 20
5.722211269559255
 30
0.0
 70
     8
  0
VERTEX
  5
805
330
795
100
AcDbEntity
  8
image
 62
     5
100
AcDbVertex
100
AcDb2dVertex
 10
5.311102223091418
 20
5.59897779233296
 30
0.0
 70
     8
  0
VERTEX
  5
806
330
795
100
AcDbEntity
  8
image
 62
     5
100
AcDbVertex
100
AcDb2dVertex
 10
5.343951944693847
 20
5.457452558896988
 30
0.0
 70
     8
  0
VERTEX
  5
807
330
795
100
AcDbEntity
  8
image
 62
     5
100
AcDbVertex
100
AcDb2dVertex
 10
5.380067228174056
 20
5.301135655701443
 30
0.0
 70
     8
  0
VERTEX
  5
808
330
795
100
AcDbEntity
  8
image
 62
     5
100
AcDbVertex
100
AcDb2dVertex
 10
5.418968515393201
 20
5.134683719509698
 30
0.0
 70
     8
  0
VERTEX
  5
809
330
795
100
AcDbEntity
  8
image
 62
     5
100
AcDbVertex
100
AcDb2dVertex
 10
5.46017624821244
 20
4.962753387085119
 30
0.0
 70
     8
  0
VERTEX
  5
80A
330
795
100
AcDbEntity
  8
image
 62
     5
100
AcDbVertex
100
AcDb2dVertex
 10
5.503210868492931
 20
4.790001295191077
 30
0.0
 70
     8
  0
VERTEX
  5
80B
330
795
100
AcDbEntity
  8
image
 62
     5
100
AcDbVertex
100
AcDb2dVertex
 10
5.54759281809583
 20
4.621084080590942
 30
0.0
 70
     8
  0
VERTEX
  5
80C
330
795
100
AcDbEntity
  8
image
 62
     5
100
AcDbVertex
100
AcDb2dVertex
 10
5.592842538882297
 20
4.460658380048082
 30
0.0
 70
     8
  0
VERTEX
  5
80D
330
795
100
AcDbEntity
  8
image
 62
     5
100
AcDbVertex
100
AcDb2dVertex
 10
5.638480472713486
 20
4.313380830325865
 30
0.0
 70
     8
  0
VERTEX
  5
80E
330
795
100
AcDbEntity
  8
image
 62
     5
100
AcDbVertex
100
AcDb2dVertex
 10
5.684267792002486
 20
4.182895135560097
 30
0.0
 70
     8
  0
VERTEX
  5
80F
330
795
100
AcDbEntity
  8
image
 62
     5
100
AcDbVertex
100
AcDb2dVertex
 10
5.730928591370104
 20
4.068793269376319
 30
0.0
 70
     8
  0
VERTEX
  5
810
330
795
100
AcDbEntity
  8
image
 62
     5
100
AcDbVertex
100
AcDb2dVertex
 10
5.779427695989077
 20
3.969654272772507
 30
0.0
 70
     8
  0
VERTEX
  5
811
330
795
100
AcDbEntity
  8
image
 62
     5
100
AcDbVertex
100
AcDb2dVertex
 10
5.83072993103214
 20
3.884057186746637
 30
0.0
 70
     8
  0
VERTEX
  5
812
330
795
100
AcDbEntity
  8
image
 62
     5
100
AcDbVertex
100
AcDb2dVertex
 10
5.885800121672033
 20
3.810581052296684
 30
0.0
 70
     8
  0
VERTEX
  5
813
330
795
100
AcDbEntity
  8
image
 62
     5
100
AcDbVertex
100
AcDb2dVertex
 10
5.945603093081491
 20
3.747804910420625
 30
0.0
 70
     8
  0
VERTEX
  5
814
330
795
100
AcDbEntity
  8
image
 62
     5
100
AcDbVertex
100
AcDb2dVertex
 10
6.011103670433249
 20
3.694307802116436
 30
0.0
 70
     8
  0
VERTEX
  5
815
330
795
100
AcDbEntity
  8
image
 62
     5
100
AcDbVertex
100
AcDb2dVertex
 10
6.083266678900047
 20
3.648668768382093
 30
0.0
 70
     8
  0
VERTEX
  5
816
330
795
100
AcDbEntity
  8
image
 62
     5
100
AcDbVertex
100
AcDb2dVertex
 10
6.162759680054206
 20
3.609697830559084
 30
0.0
 70
     8
  0
VERTEX
  5
817
330
795
100
AcDbEntity
  8
image
 62
     5
100
AcDbVertex
100
AcDb2dVertex
 10
6.249061181066394
 20
3.577128931362946
 30
0.0
 70
     8
  0
VERTEX
  5
818
330
795
100
AcDbEntity
  8
image
 62
     5
100
AcDbVertex
100
AcDb2dVertex
 10
6.341352425506869
 20
3.550926993852731
 30
0.0
 70
     8
  0
VERTEX
  5
819
330
795
100
AcDbEntity
  8
image
 62
     5
100
AcDbVertex
100
AcDb2dVertex
 10
6.438814656945883
 20
3.531056941087486
 30
0.0
 70
     8
  0
VERTEX
  5
81A
330
795
100
AcDbEntity
  8
image
 62
     5
100
AcDbVertex
100
AcDb2dVertex
 10
6.54062911895369
 20
3.517483696126262
 30
0.0
 70
     8
  0
VERTEX
  5
81B
330
795
100
AcDbEntity
  8
image
 62
     5
100
AcDbVertex
100
AcDb2dVertex
 10
6.645977055100548
 20
3.510172182028109
 30
0.0
 70
     8
  0
VERTEX
  5
81C
330
795
100
AcDbEntity
  8
image
 62
     5
100
AcDbVertex
100
AcDb2dVertex
 10
6.754039708956707
 20
3.509087321852077
 30
0.0
 70
     8
  0
VERTEX
  5
81D
330
795
100
AcDbEntity
  8
image
 62
     5
100
AcDbVertex
100
AcDb2dVertex
 10
6.863998324092426
 20
3.514194038657215
 30
0.0
 70
     8
  0
VERTEX
  5
7DB
330
795
100
AcDbEntity
  8
image
 62
     5
100
AcDbVertex
100
AcDb2dVertex
 10
5.347152791085695
 20
6.741406003262265
 30
0.0
 70
    16
  0
VERTEX
  5
7DC
330
795
100
AcDbEntity
  8
image
 62
     5
100
AcDbVertex
100
AcDb2dVertex
 10
5.341306776058404
 20
6.647908044818294
 30
0.0
 70
    16
  0
VERTEX
  5
7DD
330
795
100
AcDbEntity
  8
image
 62
     5
100
AcDbVertex
100
AcDb2dVertex
 10
5.189309710883754
 20
6.607002680630861
 30
0.0
 70
    16
  0
VERTEX
  5
7DE
330
795
100
AcDbEntity
  8
image
 62
     5
100
AcDbVertex
100
AcDb2dVertex
 10
5.142541413174614
 20
6.24469807692408
 30
0.0
 70
    16
  0
VERTEX
  5
7DF
330
795
100
AcDbEntity
  8
image
 62
     5
100
AcDbVertex
100
AcDb2dVertex
 10
5.27115427624745
 20
5.806426395244324
 30
0.0
 70
    16
  0
VERTEX
  5
7E0
330
795
100
AcDbEntity
  8
image
 62
     5
100
AcDbVertex
100
AcDb2dVertex
 10
5.639454820384089
 20
4.123463096096386
 30
0.0
 70
    16
  0
VERTEX
  5
7E1
330
795
100
AcDbEntity
  8
image
 62
     5
100
AcDbVertex
100
AcDb2dVertex
 10
6.00190927849711
 20
3.580006202325327
 30
0.0
 70
    16
  0
VERTEX
  5
7E2
330
795
100
AcDbEntity
  8
image
 62
     5
100
AcDbVertex
100
AcDb2dVertex
 10
6.568975185517539
 20
3.49235187070502
 30
0.0
 70
    16
  0
VERTEX
  5
7E3
330
795
100
AcDbEntity
  8
image
 62
     5
100
AcDbVertex
100
AcDb2dVertex
 10
6.863998324092426
 20
3.514194038657215
 30
0.0
 70
    16
  0
SEQEND
  5
7E4
330
795
100
AcDbEntity
  8
image
 62
     5
  0
INSERT
  5
81E
330
1F
100
AcDbEntity
  8
text_bubbles
100
AcDbBlockReference
 66
     1
  2
bubble
 10
5.813042617408162
 20
2.917525695845497
 30
0.0
  0
ATTRIB
  5
81F
330
81E
100
AcDbEntity
  8
text_bubbles
100
AcDbText
 10
5.753518807884352
 20
2.855025695845497
 30
0.0
 40
0.125
  1
8
  7
ROMANS
 72
     4
 11
5.813042617408162
 21
2.917525695845497
 31
0.0
100
AcDbAttribute
  2
XX
 70
     0
  0
SEQEND
  5
820
330
81E
100
AcDbEntity
  8
text_bubbles
  0
LEADER
  5
824
330
1F
100
AcDbEntity
  8
text_bubbles
100
AcDbLeader
  3
Standard
 76
     2
 10
7.651284498992568
 20
3.498338316658558
 30
0.0
 10
7.319322428384106
 20
3.057414881283217
 30
0.0
1001
ACAD
1000
DSTYLE
1002
{
1070
   147
1040
0.09
1070
    77
1070
     0
1002
}
  0
INSERT
  5
825
330
1F
100
AcDbEntity
  8
text_bubbles
100
AcDbBlockReference
 66
     1
  2
bubble
 10
7.319322428384106
 20
2.917525695845497
 30
0.0
  0
ATTRIB
  5
826
330
825
100
AcDbEntity
  8
text_bubbles
100
AcDbText
 10
7.259798618860297
 20
2.855025695845497
 30
0.0
 40
0.125
  1
7
  7
ROMANS
 72
     4
 11
7.319322428384106
 21
2.917525695845497
 31
0.0
100
AcDbAttribute
  2
XX
 70
     0
  0
SEQEND
  5
827
330
825
100
AcDbEntity
  8
text_bubbles
  0
LEADER
  5
82A
330
1F
100
AcDbEntity
  8
text_bubbles
100
AcDbLeader
  3
Standard
 76
     2
 10
5.867625264349526
 20
3.803852689210422
 30
0.0
 10
5.813042617408162
 20
3.057414881283217
 30
0.0
1001
ACAD
1000
DSTYLE
1002
{
1070
   147
1040
0.09
1070
    77
1070
     0
1002
}
  0
INSERT
  5
862
330
1F
100
AcDbEntity
  8
title
100
AcDbBlockReference
 66
     1
  2
titleblock
 10
0.0
 20
0.0
 30
0.0
  0
ATTRIB
  5
864
330
862
100
AcDbEntity
  8
title
100
AcDbText
 10
0.5055556038023421
 20
0.7842270964783673
 30
0.0
 40
0.2
  1
D
  7
L200
 72
     4
 11
0.6064423705144839
 21
0.8842270964783672
 31
0.0
100
AcDbAttribute
  2
D
 70
     0
  0
ATTRIB
  5
865
330
862
100
AcDbEntity
  8
title
100
AcDbText
 10
1.231442370514484
 20
1.34371230274675
 30
0.0
 40
0.2
  1

  7
L200
100
AcDbAttribute
  2
TITLE1
 70
     0
  0
ATTRIB
  5
866
330
862
100
AcDbEntity
  8
title
100
AcDbText
 10
1.231442370514484
 20
0.9842270964783674
 30
0.0
 40
0.2
  1
CONNECTING AN LSP-1TURF
  7
L200
100
AcDbAttribute
  2
TITLE2
 70
     0
  0
ATTRIB
  5
867
330
862
100
AcDbEntity
  8
title
100
AcDbText
 10
2.713645751168312
 20
0.5927927664583189
 30
0.0
 40
0.2
  1
TO 2-WIRE PATH
  7
L200
100
AcDbAttribute
  2
TITLE3
 70
     0
  0
ATTRIB
  5
868
330
862
100
AcDbEntity
  8
title
100
AcDbText
 10
2.713645751168312
 20
0.2692560808167741
 30
0.0
 40
0.2
  1

  7
L200
100
AcDbAttribute
  2
TITLE4
 70
     0
  0
ATTRIB
  5
869
330
862
100
AcDbEntity
  8
title
 62
     7
100
AcDbText
 10
7.617214829966379
 20
0.9696027915446398
 30
0.0
 40
0.08
  1
11-23-10
  7
L80
 72
     2
 11
8.261024353775903
 21
0.9696027915446398
 31
0.0
100
AcDbAttribute
  2
REVISED
 70
     0
  0
ATTRIB
  5
86A
330
862
100
AcDbEntity
  8
title
 62
     7
100
AcDbText
 10
0.2639423705144838
 20
0.0847116480207214
 30
0.0
 40
0.08
  1
LSP-1TURFSOLO.DWG
  7
L80
100
AcDbAttribute
  2
DWG-NAME
 70
     0
  0
ATTRIB
  5
86B
330
862
100
AcDbEntity
  8
title
 62
     7
100
AcDbText
 10
1.231442370514484
 20
0.7005637793954894
 30
0.0
 40
0.1
  1
N.T.S.
  7
L100
100
AcDbAttribute
  2
SCALE
 70
     0
  0
SEQEND
  5
863
330
862
100
AcDbEntity
  8
title
  0
MTEXT
  5
8AA
102
{ACAD_XDICTIONARY
360
A65
102
}
330
1F
100
AcDbEntity
  8
image
100
AcDbMText
 10
9.755133068674203
 20
2.670185180363516
 30
0.0
 40
0.125
 41
6.385281633197054
 71
     1
 72
     5
  3
NOTES:\P\pi-0.375,l0.375;1. LSP-1TURF SHOULD BE INSTALLED EVERY 500-FEET OR FOR EVERY EIGHT DECODERS ON TWO-WIRE PATH.\P\P2. LSP-1TURF TO BE INSTALLED AT END OF WIRE RUN THAT TERMINATES IN THE FIELD (STAR CONFIGURATION).\P\P3. RAIN BIRD FD-401TURF AN
  1
D FD-601TURF FIELD DECODERS COME WITH LSP-1TURF'S BUILT-IN.  FD-101TURF, FD-102TURF AND FD-202TURF REQUIRE SEPARATE LSP-1TURF PROTECTION.
  7
ROMANS
 73
     1
 44
1.0
  0
MTEXT
  5
95A
102
{ACAD_XDICTIONARY
360
A67
102
}
330
1F
100
AcDbEntity
  8
text_bubbles
100
AcDbMText
 10
10.21801529899343
 20
9.902545892021805
 30
0.0
 40
0.125
 41
4.830045214891776
 71
     1
 72
     5
  3
FINISH GRADE OR TOP OF MULCH \P\P10-INCH VALVE BOX WITH COVER: \P  RAIN BIRD VB-10RND\P\PGROUNDING ROD: 10 OHMS OR LESS \P\P\pi-0.25,l0.25;GREEN/YELLOW WIRE FROM LSP-1TURFTURF TO GROUNDING ROD BRASS CLAMPS (1 OF 2) \P\pi0,l0;\PDB SERIES WIRE CONNECTO
  3
R:\P  RAIN BIRD DBTWC25 (1 OF 2) \P\PLINE SURGE PROTECTOR:\P  RAIN BIRD LSP-1TURF M10008 \P\P\pi-0.25,l0.25,t0.25;TWO-WIRE CABLE TO NEXT DEVICE (FIELD DECODER, SENSOR DECODER, LINE SURGE PROTECTOR OR ESP-LXD CONTROLLER) \P\pi0,l0,tz;\P\pi-0.25,l0.25;
  3
COMMUNICATION WIRE TO NEXT DEVICE (FIELD DECODER, SENSOR DECODER, LINE SURGE PROTECTOR OR ESP-LXD CONTROLLER) \P\pi0,l0;\P\pi-0.25,l0.25;3-INCH MINIMUM DEPTH OF 3/4-INCH WASHED GRAVEL \P\pi0,l0;\PBRICK (1 OF 2) \P\P\pi-0.25,l0.25;BLUE WIRE FROM LSP-1
  1
TURF TO DB SERIES   WIRE CONNECTOR 
  7
ROMANS
 73
     1
 44
1.0
  0
ENDSEC
  0
SECTION
  2
OBJECTS
  0
DICTIONARY
  5
C
330
0
100
AcDbDictionary
281
     1
  3
ACAD_COLOR
350
888
  3
ACAD_GROUP
350
D
  3
ACAD_LAYOUT
350
1A
  3
ACAD_MATERIAL
350
887
  3
ACAD_MLEADERSTYLE
350
91B
  3
ACAD_MLINESTYLE
350
17
  3
ACAD_PLOTSETTINGS
350
19
  3
ACAD_PLOTSTYLENAME
350
E
  3
ACAD_SCALELIST
350
8F9
  3
ACAD_TABLESTYLE
350
889
  3
ACAD_VISUALSTYLE
350
8E8
  3
AcadDim
350
829
  3
ACDB_RECOMPOSE_DATA
350
984
  3
AcDbVariableDictionary
350
2C
  3
ASE_INDEX_DICTIONARY
350
8AC
  3
WID_ControllerAssemblies
350
36
  3
WID_Layers
350
33
  3
WID_Pipes
350
37
  3
WID_PlantTypes
350
940
  3
WID_SprinklerAssemblies
350
35
  3
WID_Stations
350
38
  3
WID_ValveAssemblies
350
34
  3
WID_Variables
350
32
1001
BBSI_PltSel
1000
1
1000

1001
BBSI_Bookmarks
1000
1
1000
1
1000
0
1000
1
1000
0
1000
0
1000
0
1000
0
1000
0
1000
0
1000
0
1001
BBSI_BookmarksEx
1000
0
1000
0
1000

1000
0
1001
BBSI_Plots
1000

1000
ANSI_A_(11.00_x_8.50_Inches)
1000
279.399993896484
1000
215.899993896484
1000
0
1000
1
1000
1
1000
0
1000
0
1000
1
1000
0
1000
1
1000
1
1000
0
1000
1
1000
OKIColorShaded.ctb
1000
0
1000
0
1000
1
1000
1
1000
0
1000
0
1000
0
1000
0
1000
0
1000
0
1000

1000

  0
DICTIONARY
  5
AF
330
2
100
AcDbDictionary
280
     1
281
     1
  3
ACAD_LAYERFILTERS
360
A3F
  3
ACAD_LAYERSTATES
360
B0
  0
DICTIONARY
  5
A24
330
1F
100
AcDbDictionary
280
     1
281
     1
  0
DICTIONARY
  5
A32
330
853
100
AcDbDictionary
280
     1
281
     1
  3
ACAD_SORTENTS
360
A33
  0
DICTIONARY
  5
A65
330
8AA
100
AcDbDictionary
280
     1
281
     1
  3
ACAD_MTEXT_2008_RT
360
A66
  0
DICTIONARY
  5
A67
330
95A
100
AcDbDictionary
280
     1
281
     1
  3
ACAD_MTEXT_2008_RT
360
A68
  0
DICTIONARY
  5
888
102
{ACAD_REACTORS
330
C
102
}
330
C
100
AcDbDictionary
281
     1
  0
DICTIONARY
  5
D
102
{ACAD_REACTORS
330
C
102
}
330
C
100
AcDbDictionary
281
     1
  0
DICTIONARY
  5
1A
102
{ACAD_REACTORS
330
C
102
}
330
C
100
AcDbDictionary
281
     1
  3
Layout1
350
1E
  3
Layout2
350
26
  3
Model
350
22
  0
DICTIONARY
  5
887
102
{ACAD_REACTORS
330
C
102
}
330
C
100
AcDbDictionary
281
     1
  3
ByBlock
350
8D8
  3
ByLayer
350
8D0
  3
Global
350
8E0
  0
DICTIONARY
  5
91B
102
{ACAD_REACTORS
330
C
102
}
330
C
100
AcDbDictionary
281
     1
  3
Standard
350
91C
  0
DICTIONARY
  5
17
102
{ACAD_REACTORS
330
C
102
}
330
C
100
AcDbDictionary
281
     1
  3
Standard
350
18
  0
DICTIONARY
  5
19
102
{ACAD_REACTORS
330
C
102
}
330
C
100
AcDbDictionary
281
     1
  0
ACDBDICTIONARYWDFLT
  5
E
102
{ACAD_REACTORS
330
C
102
}
330
C
100
AcDbDictionary
281
     1
  3
Normal
350
F
100
AcDbDictionaryWithDefault
340
F
  0
DICTIONARY
  5
8F9
102
{ACAD_REACTORS
330
C
102
}
330
C
100
AcDbDictionary
281
     1
  3
A0
350
8FA
  3
A1
350
8FB
  3
A2
350
8FC
  3
A3
350
8FD
  3
A4
350
8FE
  3
A5
350
8FF
  3
A6
350
900
  3
A7
350
901
  3
A8
350
902
  3
A9
350
903
  3
B0
350
904
  3
B1
350
905
  3
B2
350
906
  3
B3
350
907
  3
B4
350
908
  3
B5
350
909
  3
B6
350
90A
  3
B7
350
90B
  3
B8
350
90C
  3
B9
350
90D
  3
C0
350
90E
  3
C1
350
90F
  3
C2
350
910
  3
C3
350
911
  3
C4
350
912
  3
C5
350
913
  3
C6
350
914
  3
C7
350
915
  3
C8
350
916
  3
C9
350
917
  3
D0
350
918
  3
D1
350
919
  3
D2
350
91A
  0
DICTIONARY
  5
889
102
{ACAD_REACTORS
330
C
102
}
330
C
100
AcDbDictionary
281
     1
  3
Standard
350
88A
  0
DICTIONARY
  5
8E8
102
{ACAD_REACTORS
330
C
102
}
330
C
100
AcDbDictionary
281
     1
  3
2dWireframe
350
8EE
  3
3D Hidden
350
8F0
  3
3dWireframe
350
8EF
  3
Basic
350
8ED
  3
Brighten
350
8F4
  3
ColorChange
350
8F8
  3
Conceptual
350
8F1
  3
Dim
350
8F3
  3
Facepattern
350
8F7
  3
Flat
350
8E9
  3
FlatWithEdges
350
8EA
  3
Gouraud
350
8EB
  3
GouraudWithEdges
350
8EC
  3
Linepattern
350
8F6
  3
Realistic
350
8F2
  3
Thicken
350
8F5
  0
XRECORD
  5
829
102
{ACAD_REACTORS
330
C
102
}
330
C
100
AcDbXrecord
280
     1
 90
   990106
  3

 60
     4
 61
     0
 62
     1
 63
     3
 64
     0
 65
     0
 66
     0
 67
     2
 68
     1
 69
     0
 70
     0
 71
     0
 72
     0
 40
0.0
170
     1
  0
XRECORD
  5
984
102
{ACAD_REACTORS
330
C
102
}
330
C
100
AcDbXrecord
280
     1
 90
        1
330
88A
330
8AA
330
95A
  0
DICTIONARY
  5
2C
102
{ACAD_REACTORS
330
C
102
}
330
C
100
AcDbDictionary
281
     1
  3
CANNOSCALE
350
987
  3
CMLEADERSTYLE
350
985
  3
CTABLESTYLE
350
8AF
  3
DIMASSOC
350
2E
  3
DRAWORDERCTL
350
8B0
  3
HIDETEXT
350
2D
  3
LAYEREVAL
350
A5A
  3
LAYERNOTIFY
350
989
  3
LIGHTINGUNITS
350
988
  3
MSLTSCALE
350
986
  3
SORTENTS
350
4CF
  0
DICTIONARY
  5
8AC
102
{ACAD_REACTORS
330
C
102
}
330
C
100
AcDbDictionary
281
     1
  3
ASEBlockHierarchyIndexRecord
350
8AD
1001
DCO15
1040
1548586577.78
  0
DICTIONARY
  5
36
102
{ACAD_REACTORS
330
C
102
}
330
C
100
AcDbDictionary
281
     1
  0
DICTIONARY
  5
33
102
{ACAD_REACTORS
330
C
102
}
330
C
100
AcDbDictionary
281
     1
  3
ARROW
350
54
  3
CHECK_ARC
350
51
  3
CHECK_ARC2
350
93
  3
CHECK_ARC3
350
893
  3
CONTINUATION
350
88
  3
CONTROLLER
350
61
  3
CONTROLLER2
350
A6
  3
CONTROLLER3
350
8A6
  3
DEFAULT
350
62
  3
DESIGN_ARC
350
6E
  3
DESIGN_ARC2
350
94
  3
DESIGN_ARC3
350
894
  3
DRIP
350
5A
  3
DRIP2
350
9C
  3
DRIP3
350
89C
  3
FITTING
350
60
  3
FITTING2
350
A5
  3
FITTING3
350
8A5
  3
FLOW
350
5F
  3
FLOW2
350
A4
  3
FLOW3
350
8A4
  3
HPLATERAL
350
5C
  3
HPLATERALGC
350
8D
  3
HPLATERALGC2
350
A0
  3
HPLATERALGC3
350
8A0
  3
HPLATERALSHRUBS
350
8E
  3
HPLATERALSHRUBS2
350
A1
  3
HPLATERALSHRUBS3
350
8A1
  3
HPLATERALTREES
350
8F
  3
HPLATERALTREES2
350
A2
  3
HPLATERALTREES3
350
8A2
  3
HPNODE
350
5B
  3
HPNODEGC
350
8A
  3
HPNODEGC2
350
9D
  3
HPNODEGC3
350
89D
  3
HPNODESHRUBS
350
8B
  3
HPNODESHRUBS2
350
9E
  3
HPNODESHRUBS3
350
89E
  3
HPNODETREES
350
8C
  3
HPNODETREES2
350
9F
  3
HPNODETREES3
350
89F
  3
IDEACATCHCAN
350
93A
  3
IDEACATCHCAN2
350
93B
  3
IDEACATCHCAN3
350
93C
  3
IDEANOTE
350
93D
  3
IDEANOTE2
350
93E
  3
IDEANOTE3
350
93F
  3
IDEAPERIMETER
350
937
  3
IDEAPERIMETER2
350
938
  3
IDEAPERIMETER3
350
939
  3
LABEL
350
53
  3
LABEL2
350
96
  3
LABEL3
350
896
  3
LATERAL
350
59
  3
LATERAL2
350
9B
  3
LATERAL3
350
89B
  3
LINESOURCEAREA
350
923
  3
LINESOURCEAREA2
350
924
  3
LINESOURCEAREA3
350
925
  3
LINESOURCEEMITTER
350
92F
  3
LINESOURCEEMITTER2
350
930
  3
LINESOURCEEMITTER3
350
931
  3
LINESOURCEEXHAUST
350
929
  3
LINESOURCEEXHAUST2
350
92A
  3
LINESOURCEEXHAUST3
350
92B
  3
LINESOURCEHEADER
350
926
  3
LINESOURCEHEADER2
350
927
  3
LINESOURCEHEADER3
350
928
  3
LINESOURCEPERIMETER
350
92C
  3
LINESOURCEPERIMETER2
350
92D
  3
LINESOURCEPERIMETER3
350
92E
  3
MAINLINE
350
57
  3
MAINLINE2
350
99
  3
MAINLINE3
350
899
  3
MANIFOLD
350
58
  3
MANIFOLD2
350
9A
  3
MANIFOLD3
350
89A
  3
MARKER
350
87
  3
NOTE
350
5E
  3
PERIMETER
350
4F
  3
PERIMETER2
350
91
  3
PERIMETER3
350
891
  3
PIPE_SIZE
350
55
  3
PIPE_SIZE2
350
97
  3
PIPE_SIZE3
350
897
  3
SEGMENTID
350
56
  3
SEGMENTID2
350
98
  3
SEGMENTID3
350
898
  3
SLEEVE
350
5D
  3
SLEEVE2
350
A3
  3
SLEEVE3
350
8A3
  3
SPRINKLER
350
50
  3
SPRINKLER2
350
92
  3
SPRINKLER3
350
892
  3
VALVE
350
52
  3
VALVE2
350
95
  3
VALVE3
350
895
  0
DICTIONARY
  5
37
102
{ACAD_REACTORS
330
C
102
}
330
C
100
AcDbDictionary
281
     1
  0
DICTIONARY
  5
940
102
{ACAD_REACTORS
330
C
102
}
330
C
100
AcDbDictionary
281
     1
  3
Annuals
350
946
  3
Bluegrass
350
942
  3
Seed Mix
350
943
  3
Shrubs
350
944
  3
Trees
350
945
  0
DICTIONARY
  5
35
102
{ACAD_REACTORS
330
C
102
}
330
C
100
AcDbDictionary
281
     1
  0
DICTIONARY
  5
38
102
{ACAD_REACTORS
330
C
102
}
330
C
100
AcDbDictionary
281
     1
  0
DICTIONARY
  5
34
102
{ACAD_REACTORS
330
C
102
}
330
C
100
AcDbDictionary
281
     1
  0
DICTIONARY
  5
32
102
{ACAD_REACTORS
330
C
102
}
330
C
100
AcDbDictionary
281
     1
  3
ConduitFollowTarget
350
932
  3
ConduitLabelOffsetAngle
350
6F
  3
ConduitLabelOffsetDistance
350
70
  3
ConduitLabelPlotSize
350
71
  3
ConduitLeaderOffsetDistance
350
72
  3
ConduitLeaderPlotSize
350
73
  3
ConduitUseLeader
350
74
  3
DEFAULTPLANTTYPE
350
941
  3
SegmentFollowTarget
350
933
  3
SegmentLabelOffsetAngle
350
75
  3
SegmentLabelOffsetDistance
350
76
  3
SegmentLabelPlotSize
350
77
  3
SegmentLeaderOffsetDistance
350
78
  3
SegmentLeaderPlotSize
350
79
  3
SegmentUseLeader
350
7A
  3
ValveFollowTarget
350
934
  3
ValveLabelOffsetAngle
350
7B
  3
ValveLabelOffsetDistance
350
7C
  3
ValveLabelPlotSize
350
7D
  3
ValveLeaderOffsetDistance
350
7E
  3
ValveLeaderPlotSize
350
7F
  3
ValveUseLeader
350
80
  3
VERSION
350
68
  0
DICTIONARY
  5
A3F
102
{ACAD_REACTORS
330
AF
102
}
330
AF
100
AcDbDictionary
281
     1
  3
_0100-
350
A42
  3
_0280-
350
A41
  3
_Add Alternate
350
A44
  3
_Bid Alternate
350
A45
  3
_Color 253
350
A47
  3
_Color 8
350
A43
  3
_Color 84
350
A46
  3
_Contours
350
A4D
  3
_Demo
350
A48
  3
_Existing
350
A49
  3
_Hardscape
350
A4C
  3
_NoXref
350
A40
  3
_Row
350
A4A
  3
_Utility
350
A4B
  0
DICTIONARY
  5
B0
102
{ACAD_REACTORS
330
AF
102
}
330
AF
100
AcDbDictionary
281
     1
  0
SORTENTSTABLE
  5
A33
102
{ACAD_REACTORS
330
A32
102
}
330
A32
100
AcDbSortentsTable
330
853
  0
XRECORD
  5
A66
102
{ACAD_REACTORS
330
A65
102
}
330
A65
100
AcDbXrecord
280
     1
 40
4977055.0
  1
NOTES:\P\pxi-3,l3;1. LSP-1TURF SHOULD BE INSTALLED EVERY 500-FEET OR FOR EVERY EIGHT DECODERS ON TWO-WIRE PATH.\P\P2. LSP-1TURF TO BE INSTALLED AT END OF WIRE RUN THAT TERMINATES IN THE FIELD (STAR CONFIGURATION).\P\P3. RAIN BIRD FD-401TURF AND FD-60
  1
1TURF FIELD DECODERS COME WITH LSP-1TURF'S BUILT-IN.  FD-101TURF, FD-102TURF AND FD-202TURF REQUIRE SEPARATE LSP-1TURF PROTECTION.
  0
XRECORD
  5
A68
102
{ACAD_REACTORS
330
A67
102
}
330
A67
100
AcDbXrecord
280
     1
 40
20833889.0
  1
FINISH GRADE OR TOP OF MULCH \P\P10-INCH VALVE BOX WITH COVER: \P  RAIN BIRD VB-10RND\P\PGROUNDING ROD: 10 OHMS OR LESS \P\P\pxi-2,l2;GREEN/YELLOW WIRE FROM LSP-1TURFTURF TO GROUNDING ROD BRASS CLAMPS (1 OF 2) \P\pi0,l0;\PDB SERIES WIRE CONNECTOR:\P 
  1
 RAIN BIRD DBTWC25 (1 OF 2) \P\PLINE SURGE PROTECTOR:\P  RAIN BIRD LSP-1TURF M10008 \P\P\pi-2,l2,t2;TWO-WIRE CABLE TO NEXT DEVICE (FIELD DECODER, SENSOR DECODER, LINE SURGE PROTECTOR OR ESP-LXD CONTROLLER) \P\pi0,l0,tz;\P\pi-2,l2;COMMUNICATION WIRE T
  1
O NEXT DEVICE (FIELD DECODER, SENSOR DECODER, LINE SURGE PROTECTOR OR ESP-LXD CONTROLLER) \P\pi0,l0;\P\pi-2,l2;3-INCH MINIMUM DEPTH OF 3/4-INCH WASHED GRAVEL \P\pi0,l0;\PBRICK (1 OF 2) \P\P\pi-2,l2;BLUE WIRE FROM LSP-1TURF TO DB SERIES   WIRE CONNECT
  1
OR 
  0
LAYOUT
  5
1E
102
{ACAD_REACTORS
330
1A
102
}
330
1A
100
AcDbPlotSettings
  1

  2
HP LaserJet 4 Plus
  4

  6

 40
0.0
 41
0.0
 42
0.0
 43
0.0
 44
0.0
 45
0.0
 46
0.0
 47
0.0
 48
0.0
 49
0.0
140
0.0
141
0.0
142
1.0
143
1.0
 70
   688
 72
     0
 73
     0
 74
     5
  7

 75
    16
147
1.0
 76
     0
 77
     2
 78
   300
148
0.0
149
0.0
100
AcDbLayout
  1
Layout1
 70
     1
 71
     1
 10
0.0
 20
0.0
 11
12.0
 21
9.0
 12
0.0
 22
0.0
 32
0.0
 14
1.000000000000000E+20
 24
1.000000000000000E+20
 34
1.000000000000000E+20
 15
-1.000000000000000E+20
 25
-1.000000000000000E+20
 35
-1.000000000000000E+20
146
0.0
 13
0.0
 23
0.0
 33
0.0
 16
1.0
 26
0.0
 36
0.0
 17
0.0
 27
1.0
 37
0.0
 76
     0
330
1B
  0
LAYOUT
  5
26
102
{ACAD_REACTORS
330
1A
102
}
330
1A
100
AcDbPlotSettings
  1

  2
HP LaserJet 4 Plus
  4

  6

 40
0.0
 41
0.0
 42
0.0
 43
0.0
 44
0.0
 45
0.0
 46
0.0
 47
0.0
 48
0.0
 49
0.0
140
0.0
141
0.0
142
1.0
143
1.0
 70
   688
 72
     0
 73
     0
 74
     5
  7

 75
    16
147
1.0
 76
     0
 77
     2
 78
   300
148
0.0
149
0.0
100
AcDbLayout
  1
Layout2
 70
     1
 71
     2
 10
0.0
 20
0.0
 11
12.0
 21
9.0
 12
0.0
 22
0.0
 32
0.0
 14
0.0
 24
0.0
 34
0.0
 15
0.0
 25
0.0
 35
0.0
146
0.0
 13
0.0
 23
0.0
 33
0.0
 16
1.0
 26
0.0
 36
0.0
 17
0.0
 27
1.0
 37
0.0
 76
     0
330
23
  0
LAYOUT
  5
22
102
{ACAD_REACTORS
330
1A
102
}
330
1A
100
AcDbPlotSettings
  1

  2
none_device
  4
Letter_(8.50_x_11.00_Inches)
  6

 40
6.349999904632568
 41
6.349999904632568
 42
6.350006103515625
 43
6.350006103515625
 44
215.8999938964844
 45
279.3999938964844
 46
0.0
 47
0.0
 48
0.0
 49
0.0
140
0.0
141
0.0
142
1.0
143
3.038868425706608
 70
 11952
 72
     0
 73
     0
 74
     0
  7

 75
     0
147
0.3290698575630093
 76
     1
 77
     2
 78
   300
148
99.32601364891525
149
1.176816568047341
100
AcDbLayout
  1
Model
 70
     1
 71
     0
 10
0.0
 20
0.0
 11
12.0
 21
9.0
 12
0.0
 22
0.0
 32
0.0
 14
0.0
 24
0.0
 34
0.0
 15
0.0
 25
0.0
 35
0.0
146
0.0
 13
0.0
 23
0.0
 33
0.0
 16
1.0
 26
0.0
 36
0.0
 17
0.0
 27
1.0
 37
0.0
 76
     0
330
1F
331
8CE
1001
ACAD_PSEXT
1000
None
1000
None
1000
Not applicable
1000
The layout will not be plotted unless a new plotter configuration name is selected.
1070
     0
  0
MATERIAL
  5
8D8
102
{ACAD_XDICTIONARY
360
8D9
102
}
102
{ACAD_REACTORS
330
887
102
}
330
887
100
AcDbMaterial
  1
ByBlock
 72
     0
 43
0.0208333333333333
 43
0.0
 43
0.0
 43
0.0
 43
0.0
 43
0.0208333333333333
 43
0.0
 43
0.0
 43
0.0
 43
0.0
 43
1.0
 43
0.0
 43
0.0
 43
0.0
 43
0.0
 43
1.0
 77
     0
 47
0.0208333333333333
 47
0.0
 47
0.0
 47
0.0
 47
0.0
 47
0.0208333333333333
 47
0.0
 47
0.0
 47
0.0
 47
0.0
 47
1.0
 47
0.0
 47
0.0
 47
0.0
 47
0.0
 47
1.0
171
     0
 49
0.0208333333333333
 49
0.0
 49
0.0
 49
0.0
 49
0.0
 49
0.0208333333333333
 49
0.0
 49
0.0
 49
0.0
 49
0.0
 49
1.0
 49
0.0
 49
0.0
 49
0.0
 49
0.0
 49
1.0
175
     0
142
0.0208333333333333
142
0.0
142
0.0
142
0.0
142
0.0
142
0.0208333333333333
142
0.0
142
0.0
142
0.0
142
0.0
142
1.0
142
0.0
142
0.0
142
0.0
142
0.0
142
1.0
179
     0
144
0.0208333333333333
144
0.0
144
0.0
144
0.0
144
0.0
144
0.0208333333333333
144
0.0
144
0.0
144
0.0
144
0.0
144
1.0
144
0.0
144
0.0
144
0.0
144
0.0
144
1.0
147
0.0208333333333333
147
0.0
147
0.0
147
0.0
147
0.0
147
0.0208333333333333
147
0.0
147
0.0
147
0.0
147
0.0
147
1.0
147
0.0
147
0.0
147
0.0
147
0.0
147
1.0
  0
MATERIAL
  5
8D0
102
{ACAD_XDICTIONARY
360
8D1
102
}
102
{ACAD_REACTORS
330
887
102
}
330
887
100
AcDbMaterial
  1
ByLayer
 72
     0
 43
0.0208333333333333
 43
0.0
 43
0.0
 43
0.0
 43
0.0
 43
0.0208333333333333
 43
0.0
 43
0.0
 43
0.0
 43
0.0
 43
1.0
 43
0.0
 43
0.0
 43
0.0
 43
0.0
 43
1.0
 77
     0
 47
0.0208333333333333
 47
0.0
 47
0.0
 47
0.0
 47
0.0
 47
0.0208333333333333
 47
0.0
 47
0.0
 47
0.0
 47
0.0
 47
1.0
 47
0.0
 47
0.0
 47
0.0
 47
0.0
 47
1.0
171
     0
 49
0.0208333333333333
 49
0.0
 49
0.0
 49
0.0
 49
0.0
 49
0.0208333333333333
 49
0.0
 49
0.0
 49
0.0
 49
0.0
 49
1.0
 49
0.0
 49
0.0
 49
0.0
 49
0.0
 49
1.0
175
     0
142
0.0208333333333333
142
0.0
142
0.0
142
0.0
142
0.0
142
0.0208333333333333
142
0.0
142
0.0
142
0.0
142
0.0
142
1.0
142
0.0
142
0.0
142
0.0
142
0.0
142
1.0
179
     0
144
0.0208333333333333
144
0.0
144
0.0
144
0.0
144
0.0
144
0.0208333333333333
144
0.0
144
0.0
144
0.0
144
0.0
144
1.0
144
0.0
144
0.0
144
0.0
144
0.0
144
1.0
147
0.0208333333333333
147
0.0
147
0.0
147
0.0
147
0.0
147
0.0208333333333333
147
0.0
147
0.0
147
0.0
147
0.0
147
1.0
147
0.0
147
0.0
147
0.0
147
0.0
147
1.0
  0
MATERIAL
  5
8E0
102
{ACAD_XDICTIONARY
360
8E1
102
}
102
{ACAD_REACTORS
330
887
102
}
330
887
100
AcDbMaterial
  1
Global
 72
     0
 43
0.0208333333333333
 43
0.0
 43
0.0
 43
0.0
 43
0.0
 43
0.0208333333333333
 43
0.0
 43
0.0
 43
0.0
 43
0.0
 43
1.0
 43
0.0
 43
0.0
 43
0.0
 43
0.0
 43
1.0
 77
     0
 47
0.0208333333333333
 47
0.0
 47
0.0
 47
0.0
 47
0.0
 47
0.0208333333333333
 47
0.0
 47
0.0
 47
0.0
 47
0.0
 47
1.0
 47
0.0
 47
0.0
 47
0.0
 47
0.0
 47
1.0
171
     0
 49
0.0208333333333333
 49
0.0
 49
0.0
 49
0.0
 49
0.0
 49
0.0208333333333333
 49
0.0
 49
0.0
 49
0.0
 49
0.0
 49
1.0
 49
0.0
 49
0.0
 49
0.0
 49
0.0
 49
1.0
175
     0
142
0.0208333333333333
142
0.0
142
0.0
142
0.0
142
0.0
142
0.0208333333333333
142
0.0
142
0.0
142
0.0
142
0.0
142
1.0
142
0.0
142
0.0
142
0.0
142
0.0
142
1.0
179
     0
144
0.0208333333333333
144
0.0
144
0.0
144
0.0
144
0.0
144
0.0208333333333333
144
0.0
144
0.0
144
0.0
144
0.0
144
1.0
144
0.0
144
0.0
144
0.0
144
0.0
144
1.0
147
0.0208333333333333
147
0.0
147
0.0
147
0.0
147
0.0
147
0.0208333333333333
147
0.0
147
0.0
147
0.0
147
0.0
147
1.0
147
0.0
147
0.0
147
0.0
147
0.0
147
1.0
  0
MLEADERSTYLE
  5
91C
102
{ACAD_REACTORS
330
91B
102
}
330
91B
100
AcDbMLeaderStyle
170
     2
171
     1
172
     0
 90
        2
 40
0.0
 41
0.0
173
     1
 91
-1056964608
340
14
 92
       -2
290
     1
 42
0.09
291
     1
 43
0.36
  3
Standard
 44
0.18
300

342
11
174
     1
178
     6
175
     1
176
     0
 93
-1056964608
 45
0.18
292
     0
297
     0
 46
0.18
 94
-1056964608
 47
1.0
 49
1.0
140
1.0
293
     1
141
0.0
294
     1
177
     0
142
1.0
295
     0
296
     0
143
0.125
1001
ACAD_MLEADERVER
1070
     2
  0
MLINESTYLE
  5
18
102
{ACAD_REACTORS
330
17
102
}
330
17
100
AcDbMlineStyle
  2
STANDARD
 70
     0
  3

 62
   256
 51
90.0
 52
90.0
 71
     2
 49
0.5
 62
   256
  6
BYLAYER
 49
-0.5
 62
   256
  6
BYLAYER
  0
ACDBPLACEHOLDER
  5
F
102
{ACAD_REACTORS
330
E
102
}
330
E
  0
SCALE
  5
8FA
102
{ACAD_REACTORS
330
8F9
102
}
330
8F9
100
AcDbScale
 70
     0
300
1:1
140
1.0
141
1.0
290
     1
  0
SCALE
  5
8FB
102
{ACAD_REACTORS
330
8F9
102
}
330
8F9
100
AcDbScale
 70
     0
300
1:2
140
1.0
141
2.0
290
     0
  0
SCALE
  5
8FC
102
{ACAD_REACTORS
330
8F9
102
}
330
8F9
100
AcDbScale
 70
     0
300
1:4
140
1.0
141
4.0
290
     0
  0
SCALE
  5
8FD
102
{ACAD_REACTORS
330
8F9
102
}
330
8F9
100
AcDbScale
 70
     0
300
1:5
140
1.0
141
5.0
290
     0
  0
SCALE
  5
8FE
102
{ACAD_REACTORS
330
8F9
102
}
330
8F9
100
AcDbScale
 70
     0
300
1:8
140
1.0
141
8.0
290
     0
  0
SCALE
  5
8FF
102
{ACAD_REACTORS
330
8F9
102
}
330
8F9
100
AcDbScale
 70
     0
300
1:10
140
1.0
141
10.0
290
     0
  0
SCALE
  5
900
102
{ACAD_REACTORS
330
8F9
102
}
330
8F9
100
AcDbScale
 70
     0
300
1:16
140
1.0
141
16.0
290
     0
  0
SCALE
  5
901
102
{ACAD_REACTORS
330
8F9
102
}
330
8F9
100
AcDbScale
 70
     0
300
1:20
140
1.0
141
20.0
290
     0
  0
SCALE
  5
902
102
{ACAD_REACTORS
330
8F9
102
}
330
8F9
100
AcDbScale
 70
     0
300
1:30
140
1.0
141
30.0
290
     0
  0
SCALE
  5
903
102
{ACAD_REACTORS
330
8F9
102
}
330
8F9
100
AcDbScale
 70
     0
300
1:40
140
1.0
141
40.0
290
     0
  0
SCALE
  5
904
102
{ACAD_REACTORS
330
8F9
102
}
330
8F9
100
AcDbScale
 70
     0
300
1:50
140
1.0
141
50.0
290
     0
  0
SCALE
  5
905
102
{ACAD_REACTORS
330
8F9
102
}
330
8F9
100
AcDbScale
 70
     0
300
1:100
140
1.0
141
100.0
290
     0
  0
SCALE
  5
906
102
{ACAD_REACTORS
330
8F9
102
}
330
8F9
100
AcDbScale
 70
     0
300
2:1
140
2.0
141
1.0
290
     0
  0
SCALE
  5
907
102
{ACAD_REACTORS
330
8F9
102
}
330
8F9
100
AcDbScale
 70
     0
300
4:1
140
4.0
141
1.0
290
     0
  0
SCALE
  5
908
102
{ACAD_REACTORS
330
8F9
102
}
330
8F9
100
AcDbScale
 70
     0
300
8:1
140
8.0
141
1.0
290
     0
  0
SCALE
  5
909
102
{ACAD_REACTORS
330
8F9
102
}
330
8F9
100
AcDbScale
 70
     0
300
10:1
140
10.0
141
1.0
290
     0
  0
SCALE
  5
90A
102
{ACAD_REACTORS
330
8F9
102
}
330
8F9
100
AcDbScale
 70
     0
300
100:1
140
100.0
141
1.0
290
     0
  0
SCALE
  5
90B
102
{ACAD_REACTORS
330
8F9
102
}
330
8F9
100
AcDbScale
 70
     0
300
1/128" = 1'-0"
140
0.0078125
141
12.0
290
     0
  0
SCALE
  5
90C
102
{ACAD_REACTORS
330
8F9
102
}
330
8F9
100
AcDbScale
 70
     0
300
1/64" = 1'-0"
140
0.015625
141
12.0
290
     0
  0
SCALE
  5
90D
102
{ACAD_REACTORS
330
8F9
102
}
330
8F9
100
AcDbScale
 70
     0
300
1/32" = 1'-0"
140
0.03125
141
12.0
290
     0
  0
SCALE
  5
90E
102
{ACAD_REACTORS
330
8F9
102
}
330
8F9
100
AcDbScale
 70
     0
300
1/16" = 1'-0"
140
0.0625
141
12.0
290
     0
  0
SCALE
  5
90F
102
{ACAD_REACTORS
330
8F9
102
}
330
8F9
100
AcDbScale
 70
     0
300
3/32" = 1'-0"
140
0.09375
141
12.0
290
     0
  0
SCALE
  5
910
102
{ACAD_REACTORS
330
8F9
102
}
330
8F9
100
AcDbScale
 70
     0
300
1/8" = 1'-0"
140
0.125
141
12.0
290
     0
  0
SCALE
  5
911
102
{ACAD_REACTORS
330
8F9
102
}
330
8F9
100
AcDbScale
 70
     0
300
3/16" = 1'-0"
140
0.1875
141
12.0
290
     0
  0
SCALE
  5
912
102
{ACAD_REACTORS
330
8F9
102
}
330
8F9
100
AcDbScale
 70
     0
300
1/4" = 1'-0"
140
0.25
141
12.0
290
     0
  0
SCALE
  5
913
102
{ACAD_REACTORS
330
8F9
102
}
330
8F9
100
AcDbScale
 70
     0
300
3/8" = 1'-0"
140
0.375
141
12.0
290
     0
  0
SCALE
  5
914
102
{ACAD_REACTORS
330
8F9
102
}
330
8F9
100
AcDbScale
 70
     0
300
1/2" = 1'-0"
140
0.5
141
12.0
290
     0
  0
SCALE
  5
915
102
{ACAD_REACTORS
330
8F9
102
}
330
8F9
100
AcDbScale
 70
     0
300
3/4" = 1'-0"
140
0.75
141
12.0
290
     0
  0
SCALE
  5
916
102
{ACAD_REACTORS
330
8F9
102
}
330
8F9
100
AcDbScale
 70
     0
300
1" = 1'-0"
140
1.0
141
12.0
290
     0
  0
SCALE
  5
917
102
{ACAD_REACTORS
330
8F9
102
}
330
8F9
100
AcDbScale
 70
     0
300
1-1/2" = 1'-0"
140
1.5
141
12.0
290
     0
  0
SCALE
  5
918
102
{ACAD_REACTORS
330
8F9
102
}
330
8F9
100
AcDbScale
 70
     0
300
3" = 1'-0"
140
3.0
141
12.0
290
     0
  0
SCALE
  5
919
102
{ACAD_REACTORS
330
8F9
102
}
330
8F9
100
AcDbScale
 70
     0
300
6" = 1'-0"
140
6.0
141
12.0
290
     0
  0
SCALE
  5
91A
102
{ACAD_REACTORS
330
8F9
102
}
330
8F9
100
AcDbScale
 70
     0
300
1'-0" = 1'-0"
140
12.0
141
12.0
290
     0
  0
TABLESTYLE
  5
88A
102
{ACAD_XDICTIONARY
360
97E
102
}
102
{ACAD_REACTORS
330
889
102
}
330
889
100
AcDbTableStyle
  3
Standard
 70
     0
 71
     0
 40
0.06
 41
0.06
280
     0
281
     0
  7
Standard
140
0.18
170
     2
 62
     0
 63
     7
283
     0
274
    -2
284
     1
 64
     0
275
    -2
285
     1
 65
     0
276
    -2
286
     1
 66
     0
277
    -2
287
     1
 67
     0
278
    -2
288
     1
 68
     0
279
    -2
289
     1
 69
     0
  7
Standard
140
0.25
170
     5
 62
     0
 63
     7
283
     0
274
    -2
284
     1
 64
     0
275
    -2
285
     1
 65
     0
276
    -2
286
     1
 66
     0
277
    -2
287
     1
 67
     0
278
    -2
288
     1
 68
     0
279
    -2
289
     1
 69
     0
  7
Standard
140
0.18
170
     5
 62
     0
 63
     7
283
     0
274
    -2
284
     1
 64
     0
275
    -2
285
     1
 65
     0
276
    -2
286
     1
 66
     0
277
    -2
287
     1
 67
     0
278
    -2
288
     1
 68
     0
279
    -2
289
     1
 69
     0
  0
VISUALSTYLE
  5
8EE
102
{ACAD_REACTORS
330
8E8
102
}
330
8E8
100
AcDbVisualStyle
  2
2dWireframe
 70
     4
 71
     0
 72
     2
 73
     0
 90
        0
 40
-0.6
 41
-30.0
 62
     5
 63
     7
421
 16777215
 74
     1
 91
        4
 64
     7
 65
   257
 75
     1
175
     1
 42
1.0
 92
        0
 66
   257
 43
1.0
 76
     1
 77
     6
 78
     2
 67
     7
 79
     5
170
     0
171
     0
290
     0
174
     0
 93
        1
 44
0.0
173
     0
291
     0
 45
0.0
1001
ACAD
1000
AcDbSavedByObjectVersion
1070
     0
  0
VISUALSTYLE
  5
8F0
102
{ACAD_REACTORS
330
8E8
102
}
330
8E8
100
AcDbVisualStyle
  2
3D Hidden
 70
     6
 71
     1
 72
     2
 73
     2
 90
        0
 40
-0.6
 41
-30.0
 62
     5
 63
     7
421
 16777215
 74
     2
 91
        2
 64
     7
 65
   257
 75
     2
175
     1
 42
40.0
 92
        0
 66
   257
 43
1.0
 76
     1
 77
     6
 78
     2
 67
     7
 79
     3
170
     0
171
     0
290
     0
174
     0
 93
        1
 44
0.0
173
     0
291
     0
 45
0.0
1001
ACAD
1000
AcDbSavedByObjectVersion
1070
     0
  0
VISUALSTYLE
  5
8EF
102
{ACAD_REACTORS
330
8E8
102
}
330
8E8
100
AcDbVisualStyle
  2
3dWireframe
 70
     5
 71
     0
 72
     2
 73
     0
 90
        0
 40
-0.6
 41
-30.0
 62
     5
 63
     7
421
 16777215
 74
     1
 91
        4
 64
     7
 65
   257
 75
     1
175
     1
 42
1.0
 92
        0
 66
   257
 43
1.0
 76
     1
 77
     6
 78
     2
 67
     7
 79
     5
170
     0
171
     0
290
     0
174
     0
 93
        1
 44
0.0
173
     0
291
     0
 45
0.0
1001
ACAD
1000
AcDbSavedByObjectVersion
1070
     0
  0
VISUALSTYLE
  5
8ED
102
{ACAD_REACTORS
330
8E8
102
}
330
8E8
100
AcDbVisualStyle
  2
Basic
 70
     7
 71
     1
 72
     0
 73
     1
 90
        0
 40
-0.6
 41
-30.0
 62
     5
 63
     7
421
 16777215
 74
     0
 91
        4
 64
     7
 65
   257
 75
     1
175
     1
 42
1.0
 92
        8
 66
     7
 43
1.0
 76
     1
 77
     6
 78
     2
 67
     7
 79
     5
170
     0
171
     0
290
     0
174
     0
 93
        1
 44
0.0
173
     0
291
     1
 45
0.0
1001
ACAD
1000
AcDbSavedByObjectVersion
1070
     0
  0
VISUALSTYLE
  5
8F4
102
{ACAD_REACTORS
330
8E8
102
}
330
8E8
100
AcDbVisualStyle
  2
Brighten
 70
    12
 71
     2
 72
     2
 73
     0
 90
        0
 40
-0.6
 41
-30.0
 62
     5
 63
     7
421
 16777215
 74
     1
 91
        4
 64
     7
 65
   257
 75
     1
175
     1
 42
1.0
 92
        8
 66
     7
 43
1.0
 76
     1
 77
     6
 78
     2
 67
     7
 79
     5
170
     0
171
     0
290
     0
174
     0
 93
        1
 44
50.0
173
     0
291
     1
 45
0.0
1001
ACAD
1000
AcDbSavedByObjectVersion
1070
     0
  0
VISUALSTYLE
  5
8F8
102
{ACAD_REACTORS
330
8E8
102
}
330
8E8
100
AcDbVisualStyle
  2
ColorChange
 70
    16
 71
     2
 72
     2
 73
     3
 90
        0
 40
-0.6
 41
-30.0
 62
     5
 63
     8
421
  8421504
 74
     1
 91
        4
 64
     7
 65
   257
 75
     1
175
     1
 42
1.0
 92
        8
 66
     8
424
  8421504
 43
1.0
 76
     1
 77
     6
 78
     2
 67
     7
 79
     5
170
     0
171
     0
290
     0
174
     0
 93
        1
 44
0.0
173
     0
291
     1
 45
0.0
1001
ACAD
1000
AcDbSavedByObjectVersion
1070
     0
  0
VISUALSTYLE
  5
8F1
102
{ACAD_REACTORS
330
8E8
102
}
330
8E8
100
AcDbVisualStyle
  2
Conceptual
 70
     9
 71
     3
 72
     2
 73
     0
 90
        0
 40
-0.6
 41
-30.0
 62
     5
 63
     7
421
 16777215
 74
     2
 91
        2
 64
     7
 65
   257
 75
     1
175
     1
 42
40.0
 92
        8
 66
     7
 43
1.0
 76
     1
 77
     6
 78
     2
 67
     7
 79
     3
170
     0
171
     0
290
     0
174
     0
 93
        1
 44
0.0
173
     0
291
     0
 45
0.0
1001
ACAD
1000
AcDbSavedByObjectVersion
1070
     0
  0
VISUALSTYLE
  5
8F3
102
{ACAD_REACTORS
330
8E8
102
}
330
8E8
100
AcDbVisualStyle
  2
Dim
 70
    11
 71
     2
 72
     2
 73
     0
 90
        0
 40
-0.6
 41
-30.0
 62
     5
 63
     7
421
 16777215
 74
     1
 91
        4
 64
     7
 65
   257
 75
     1
175
     1
 42
1.0
 92
        8
 66
     7
 43
1.0
 76
     1
 77
     6
 78
     2
 67
     7
 79
     5
170
     0
171
     0
290
     0
174
     0
 93
        1
 44
-50.0
173
     0
291
     1
 45
0.0
1001
ACAD
1000
AcDbSavedByObjectVersion
1070
     0
  0
VISUALSTYLE
  5
8F7
102
{ACAD_REACTORS
330
8E8
102
}
330
8E8
100
AcDbVisualStyle
  2
Facepattern
 70
    15
 71
     2
 72
     2
 73
     0
 90
        0
 40
-0.6
 41
-30.0
 62
     5
 63
     7
421
 16777215
 74
     1
 91
        4
 64
     7
 65
   257
 75
     1
175
     1
 42
1.0
 92
        8
 66
     7
 43
1.0
 76
     1
 77
     6
 78
     2
 67
     7
 79
     5
170
     0
171
     0
290
     0
174
     0
 93
        1
 44
0.0
173
     0
291
     1
 45
0.0
1001
ACAD
1000
AcDbSavedByObjectVersion
1070
     0
  0
VISUALSTYLE
  5
8E9
102
{ACAD_REACTORS
330
8E8
102
}
330
8E8
100
AcDbVisualStyle
  2
Flat
 70
     0
 71
     2
 72
     1
 73
     1
 90
        2
 40
-0.6
 41
30.0
 62
     5
 63
     7
421
 16777215
 74
     0
 91
        4
 64
     7
 65
   257
 75
     1
175
     1
 42
1.0
 92
        8
 66
     7
 43
1.0
 76
     1
 77
     6
 78
     2
 67
     7
 79
     5
170
     0
171
     0
290
     0
174
     0
 93
       13
 44
0.0
173
     0
291
     1
 45
0.0
1001
ACAD
1000
AcDbSavedByObjectVersion
1070
     0
  0
VISUALSTYLE
  5
8EA
102
{ACAD_REACTORS
330
8E8
102
}
330
8E8
100
AcDbVisualStyle
  2
FlatWithEdges
 70
     1
 71
     2
 72
     1
 73
     1
 90
        2
 40
-0.6
 41
30.0
 62
     5
 63
     7
421
 16777215
 74
     1
 91
        4
 64
     7
 65
   257
 75
     1
175
     1
 42
1.0
 92
        0
 66
   257
 43
1.0
 76
     1
 77
     6
 78
     2
 67
     7
 79
     5
170
     0
171
     0
290
     0
174
     0
 93
       13
 44
0.0
173
     0
291
     1
 45
0.0
1001
ACAD
1000
AcDbSavedByObjectVersion
1070
     0
  0
VISUALSTYLE
  5
8EB
102
{ACAD_REACTORS
330
8E8
102
}
330
8E8
100
AcDbVisualStyle
  2
Gouraud
 70
     2
 71
     2
 72
     2
 73
     1
 90
        2
 40
-0.6
 41
30.0
 62
     5
 63
     7
421
 16777215
 74
     0
 91
        4
 64
     7
 65
   257
 75
     1
175
     1
 42
1.0
 92
        0
 66
     7
 43
1.0
 76
     1
 77
     6
 78
     2
 67
     7
 79
     5
170
     0
171
     0
290
     0
174
     0
 93
       13
 44
0.0
173
     0
291
     1
 45
0.0
1001
ACAD
1000
AcDbSavedByObjectVersion
1070
     0
  0
VISUALSTYLE
  5
8EC
102
{ACAD_REACTORS
330
8E8
102
}
330
8E8
100
AcDbVisualStyle
  2
GouraudWithEdges
 70
     3
 71
     2
 72
     2
 73
     1
 90
        2
 40
-0.6
 41
30.0
 62
     5
 63
     7
421
 16777215
 74
     1
 91
        4
 64
     7
 65
   257
 75
     1
175
     1
 42
1.0
 92
        0
 66
   257
 43
1.0
 76
     1
 77
     6
 78
     2
 67
     7
 79
     5
170
     0
171
     0
290
     0
174
     0
 93
       13
 44
0.0
173
     0
291
     1
 45
0.0
1001
ACAD
1000
AcDbSavedByObjectVersion
1070
     0
  0
VISUALSTYLE
  5
8F6
102
{ACAD_REACTORS
330
8E8
102
}
330
8E8
100
AcDbVisualStyle
  2
Linepattern
 70
    14
 71
     2
 72
     2
 73
     0
 90
        0
 40
-0.6
 41
-30.0
 62
     5
 63
     7
421
 16777215
 74
     1
 91
        4
 64
     7
 65
   257
 75
     7
175
     7
 42
1.0
 92
        8
 66
     7
 43
1.0
 76
     1
 77
     6
 78
     2
 67
     7
 79
     5
170
     0
171
     0
290
     0
174
     0
 93
        1
 44
0.0
173
     0
291
     1
 45
0.0
1001
ACAD
1000
AcDbSavedByObjectVersion
1070
     0
  0
VISUALSTYLE
  5
8F2
102
{ACAD_REACTORS
330
8E8
102
}
330
8E8
100
AcDbVisualStyle
  2
Realistic
 70
     8
 71
     2
 72
     2
 73
     0
 90
        0
 40
-0.6
 41
-30.0
 62
     5
 63
     7
421
 16777215
 74
     1
 91
        0
 64
     7
 65
   257
 75
     1
175
     1
 42
1.0
 92
        8
 66
     8
424
  7895160
 43
1.0
 76
     1
 77
     6
 78
     2
 67
     7
 79
     5
170
     0
171
     0
290
     0
174
     0
 93
       13
 44
0.0
173
     0
291
     0
 45
0.0
1001
ACAD
1000
AcDbSavedByObjectVersion
1070
     0
  0
VISUALSTYLE
  5
8F5
102
{ACAD_REACTORS
330
8E8
102
}
330
8E8
100
AcDbVisualStyle
  2
Thicken
 70
    13
 71
     2
 72
     2
 73
     0
 90
        0
 40
-0.6
 41
-30.0
 62
     5
 63
     7
421
 16777215
 74
     1
 91
        4
 64
     7
 65
   257
 75
     1
175
     1
 42
1.0
 92
       12
 66
     7
 43
1.0
 76
     1
 77
     6
 78
     2
 67
     7
 79
     5
170
     0
171
     0
290
     0
174
     0
 93
        1
 44
0.0
173
     0
291
     1
 45
0.0
1001
ACAD
1000
AcDbSavedByObjectVersion
1070
     0
  0
DICTIONARYVAR
  5
987
102
{ACAD_REACTORS
330
2C
102
}
330
2C
100
DictionaryVariables
280
     0
  1
1:1
  0
DICTIONARYVAR
  5
985
102
{ACAD_REACTORS
330
2C
102
}
330
2C
100
DictionaryVariables
280
     0
  1
STANDARD
  0
DICTIONARYVAR
  5
8AF
102
{ACAD_REACTORS
330
2C
102
}
330
2C
100
DictionaryVariables
280
     0
  1
STANDARD
  0
DICTIONARYVAR
  5
2E
102
{ACAD_REACTORS
330
2C
102
}
330
2C
100
DictionaryVariables
280
     0
  1
1
  0
DICTIONARYVAR
  5
8B0
102
{ACAD_REACTORS
330
2C
102
}
330
2C
100
DictionaryVariables
280
     0
  1
3
  0
DICTIONARYVAR
  5
2D
102
{ACAD_REACTORS
330
2C
102
}
330
2C
100
DictionaryVariables
280
     0
  1
1
  0
DICTIONARYVAR
  5
A5A
102
{ACAD_REACTORS
330
2C
102
}
330
2C
100
DictionaryVariables
280
     0
  1
0
  0
DICTIONARYVAR
  5
989
102
{ACAD_REACTORS
330
2C
102
}
330
2C
100
DictionaryVariables
280
     0
  1
15
  0
DICTIONARYVAR
  5
988
102
{ACAD_REACTORS
330
2C
102
}
330
2C
100
DictionaryVariables
280
     0
  1
0
  0
DICTIONARYVAR
  5
986
102
{ACAD_REACTORS
330
2C
102
}
330
2C
100
DictionaryVariables
280
     0
  1
0
  0
DICTIONARYVAR
  5
4CF
102
{ACAD_REACTORS
330
2C
102
}
330
2C
100
DictionaryVariables
280
     0
  1
1
  0
XRECORD
  5
8AD
102
{ACAD_REACTORS
330
8AC
102
}
330
8AC
100
AcDbXrecord
280
     1
330
5DB
330
5DC
330
5DD
330
5DE
330
5DF
330
5E0
330
5E1
330
5E2
330
5E3
330
5E4
330
5E5
330
5E6
330
5E7
330
5E8
330
5EA
330
610
330
611
330
612
330
613
330
614
330
615
330
616
330
617
330
618
330
619
330
61A
330
61B
330
61C
330
61D
330
61E
330
61F
330
620
330
621
330
622
330
623
330
624
330
625
330
626
330
627
330
628
330
629
330
62A
330
62B
330
62C
330
62E
330
62F
330
630
330
632
330
633
330
634
330
635
330
637
330
638
330
63C
330
63D
330
63E
330
6DA
330
6DD
330
6E0
330
6E3
330
6E6
330
6E9
330
6EC
330
6EF
330
6F2
330
6F5
330
6F8
330
71F
330
728
330
739
330
73D
330
740
330
743
330
746
330
749
330
74C
330
74F
330
752
330
81E
330
825
330
862
  0
XRECORD
  5
54
102
{ACAD_REACTORS
330
33
102
}
330
33
100
AcDbXrecord
280
     1
1000
ARROW
1000
0280-Designator
1070
     1
1000
CONTINUOUS
  0
XRECORD
  5
51
102
{ACAD_REACTORS
330
33
102
}
330
33
100
AcDbXrecord
280
     1
1000
CHECK_ARC
1000
0280-CheckArc
1070
     4
1000
CONTINUOUS
  0
XRECORD
  5
93
102
{ACAD_REACTORS
330
33
102
}
330
33
100
AcDbXrecord
280
     1
1000
CHECK_ARC2
1000
0280-CheckArc2
1070
     5
1000
CONTINUOUS
  0
XRECORD
  5
893
102
{ACAD_REACTORS
330
33
102
}
330
33
100
AcDbXrecord
280
     1
1000
CHECK_ARC3
1000
0280-CheckArc3
1070
     5
1000
CONTINUOUS
  0
XRECORD
  5
88
102
{ACAD_REACTORS
330
33
102
}
330
33
100
AcDbXrecord
280
     1
1000
CONTINUATION
1000
0280-PipeContinuation
1070
     3
1000
CONTINUOUS
  0
XRECORD
  5
61
102
{ACAD_REACTORS
330
33
102
}
330
33
100
AcDbXrecord
280
     1
1000
CONTROLLER
1000
0280-Controller
1070
     3
1000
CONTINUOUS
  0
XRECORD
  5
A6
102
{ACAD_REACTORS
330
33
102
}
330
33
100
AcDbXrecord
280
     1
1000
CONTROLLER2
1000
0280-Controller2
1070
     5
1000
CONTINUOUS
  0
XRECORD
  5
8A6
102
{ACAD_REACTORS
330
33
102
}
330
33
100
AcDbXrecord
280
     1
1000
CONTROLLER3
1000
0280-Controller3
1070
     5
1000
CONTINUOUS
  0
XRECORD
  5
62
102
{ACAD_REACTORS
330
33
102
}
330
33
100
AcDbXrecord
280
     1
1000
DEFAULT
1000
0
1070
     6
1000
CONTINUOUS
  0
XRECORD
  5
6E
102
{ACAD_REACTORS
330
33
102
}
330
33
100
AcDbXrecord
280
     1
1000
DESIGN_ARC
1000
0280-DesignArc
1070
     9
1000
CONTINUOUS
  0
XRECORD
  5
94
102
{ACAD_REACTORS
330
33
102
}
330
33
100
AcDbXrecord
280
     1
1000
DESIGN_ARC2
1000
0280-DesignArc2
1070
     8
1000
CONTINUOUS
  0
XRECORD
  5
894
102
{ACAD_REACTORS
330
33
102
}
330
33
100
AcDbXrecord
280
     1
1000
DESIGN_ARC3
1000
0280-DesignArc3
1070
     8
1000
CONTINUOUS
  0
XRECORD
  5
5A
102
{ACAD_REACTORS
330
33
102
}
330
33
100
AcDbXrecord
280
     1
1000
DRIP
1000
0280-Drip
1070
     2
1000
CONTINUOUS
  0
XRECORD
  5
9C
102
{ACAD_REACTORS
330
33
102
}
330
33
100
AcDbXrecord
280
     1
1000
DRIP2
1000
0280-Drip2
1070
     5
1000
CONTINUOUS
  0
XRECORD
  5
89C
102
{ACAD_REACTORS
330
33
102
}
330
33
100
AcDbXrecord
280
     1
1000
DRIP3
1000
0280-Drip3
1070
     5
1000
CONTINUOUS
  0
XRECORD
  5
60
102
{ACAD_REACTORS
330
33
102
}
330
33
100
AcDbXrecord
280
     1
1000
FITTING
1000
0280-Lateral
1070
     3
1000
CONTINUOUS
  0
XRECORD
  5
A5
102
{ACAD_REACTORS
330
33
102
}
330
33
100
AcDbXrecord
280
     1
1000
FITTING2
1000
0280-Lateral2
1070
     5
1000
CONTINUOUS
  0
XRECORD
  5
8A5
102
{ACAD_REACTORS
330
33
102
}
330
33
100
AcDbXrecord
280
     1
1000
FITTING3
1000
0280-Lateral3
1070
     5
1000
CONTINUOUS
  0
XRECORD
  5
5F
102
{ACAD_REACTORS
330
33
102
}
330
33
100
AcDbXrecord
280
     1
1000
FLOW
1000
0100-Flow
1070
     3
1000
CONTINUOUS
  0
XRECORD
  5
A4
102
{ACAD_REACTORS
330
33
102
}
330
33
100
AcDbXrecord
280
     1
1000
FLOW2
1000
0100-Flow2
1070
     5
1000
CONTINUOUS
  0
XRECORD
  5
8A4
102
{ACAD_REACTORS
330
33
102
}
330
33
100
AcDbXrecord
280
     1
1000
FLOW3
1000
0100-Flow3
1070
     5
1000
CONTINUOUS
  0
XRECORD
  5
5C
102
{ACAD_REACTORS
330
33
102
}
330
33
100
AcDbXrecord
280
     1
1000
HPLATERAL
1000
0280-HPDrip
1070
     2
1000
CONTINUOUS
  0
XRECORD
  5
8D
102
{ACAD_REACTORS
330
33
102
}
330
33
100
AcDbXrecord
280
     1
1000
HPLATERALGC
1000
0280-HPDripGC
1070
     5
1000
HIDDEN2
  0
XRECORD
  5
A0
102
{ACAD_REACTORS
330
33
102
}
330
33
100
AcDbXrecord
280
     1
1000
HPLATERALGC2
1000
0280-HPDripGC2
1070
     6
1000
HIDDEN2
  0
XRECORD
  5
8A0
102
{ACAD_REACTORS
330
33
102
}
330
33
100
AcDbXrecord
280
     1
1000
HPLATERALGC3
1000
0280-HPDripGC3
1070
     6
1000
HIDDEN2
  0
XRECORD
  5
8E
102
{ACAD_REACTORS
330
33
102
}
330
33
100
AcDbXrecord
280
     1
1000
HPLATERALSHRUBS
1000
0280-HPDripShrubs
1070
     6
1000
CONTINUOUS
  0
XRECORD
  5
A1
102
{ACAD_REACTORS
330
33
102
}
330
33
100
AcDbXrecord
280
     1
1000
HPLATERALSHRUBS2
1000
0280-HPDripShrubs2
1070
     4
1000
CONTINUOUS
  0
XRECORD
  5
8A1
102
{ACAD_REACTORS
330
33
102
}
330
33
100
AcDbXrecord
280
     1
1000
HPLATERALSHRUBS3
1000
0280-HPDripShrubs3
1070
     4
1000
CONTINUOUS
  0
XRECORD
  5
8F
102
{ACAD_REACTORS
330
33
102
}
330
33
100
AcDbXrecord
280
     1
1000
HPLATERALTREES
1000
0280-HPDripTrees
1070
     4
1000
HIDDEN2
  0
XRECORD
  5
A2
102
{ACAD_REACTORS
330
33
102
}
330
33
100
AcDbXrecord
280
     1
1000
HPLATERALTREES2
1000
0280-HPDripTrees2
1070
     5
1000
HIDDEN2
  0
XRECORD
  5
8A2
102
{ACAD_REACTORS
330
33
102
}
330
33
100
AcDbXrecord
280
     1
1000
HPLATERALTREES3
1000
0280-HPDripTrees3
1070
     5
1000
HIDDEN2
  0
XRECORD
  5
5B
102
{ACAD_REACTORS
330
33
102
}
330
33
100
AcDbXrecord
280
     1
1000
HPNODE
1000
0280-HPDrip
1070
     2
1000
CONTINUOUS
  0
XRECORD
  5
8A
102
{ACAD_REACTORS
330
33
102
}
330
33
100
AcDbXrecord
280
     1
1000
HPNODEGC
1000
0280-HPDripNodeGC
1070
     5
1000
CONTINUOUS
  0
XRECORD
  5
9D
102
{ACAD_REACTORS
330
33
102
}
330
33
100
AcDbXrecord
280
     1
1000
HPNODEGC2
1000
0280-HPDripNodeGC2
1070
     6
1000
CONTINUOUS
  0
XRECORD
  5
89D
102
{ACAD_REACTORS
330
33
102
}
330
33
100
AcDbXrecord
280
     1
1000
HPNODEGC3
1000
0280-HPDripNodeGC3
1070
     6
1000
CONTINUOUS
  0
XRECORD
  5
8B
102
{ACAD_REACTORS
330
33
102
}
330
33
100
AcDbXrecord
280
     1
1000
HPNODESHRUBS
1000
0280-HPDripNodeShrubs
1070
     6
1000
CONTINUOUS
  0
XRECORD
  5
9E
102
{ACAD_REACTORS
330
33
102
}
330
33
100
AcDbXrecord
280
     1
1000
HPNODESHRUBS2
1000
0280-HPDripNodeShrubs2
1070
     4
1000
CONTINUOUS
  0
XRECORD
  5
89E
102
{ACAD_REACTORS
330
33
102
}
330
33
100
AcDbXrecord
280
     1
1000
HPNODESHRUBS3
1000
0280-HPDripNodeShrubs3
1070
     4
1000
CONTINUOUS
  0
XRECORD
  5
8C
102
{ACAD_REACTORS
330
33
102
}
330
33
100
AcDbXrecord
280
     1
1000
HPNODETREES
1000
0280-HPDripNodeTrees
1070
     4
1000
CONTINUOUS
  0
XRECORD
  5
9F
102
{ACAD_REACTORS
330
33
102
}
330
33
100
AcDbXrecord
280
     1
1000
HPNODETREES2
1000
0280-HPDripNodeTrees2
1070
     5
1000
CONTINUOUS
  0
XRECORD
  5
89F
102
{ACAD_REACTORS
330
33
102
}
330
33
100
AcDbXrecord
280
     1
1000
HPNODETREES3
1000
0280-HPDripNodeTrees3
1070
     5
1000
CONTINUOUS
  0
XRECORD
  5
93A
102
{ACAD_REACTORS
330
33
102
}
330
33
100
AcDbXrecord
280
     1
1000
IDEACATCHCAN
1000
0280-IDEACatchCan
1070
     5
1000
CONTINUOUS
  0
XRECORD
  5
93B
102
{ACAD_REACTORS
330
33
102
}
330
33
100
AcDbXrecord
280
     1
1000
IDEACATCHCAN2
1000
0280-IDEACatchCan2
1070
     3
1000
CONTINUOUS
  0
XRECORD
  5
93C
102
{ACAD_REACTORS
330
33
102
}
330
33
100
AcDbXrecord
280
     1
1000
IDEACATCHCAN3
1000
0280-IDEACatchCan3
1070
     3
1000
CONTINUOUS
  0
XRECORD
  5
93D
102
{ACAD_REACTORS
330
33
102
}
330
33
100
AcDbXrecord
280
     1
1000
IDEANOTE
1000
0280-IDEANote
1070
     5
1000
CONTINUOUS
  0
XRECORD
  5
93E
102
{ACAD_REACTORS
330
33
102
}
330
33
100
AcDbXrecord
280
     1
1000
IDEANOTE2
1000
0280-IDEANote2
1070
     3
1000
CONTINUOUS
  0
XRECORD
  5
93F
102
{ACAD_REACTORS
330
33
102
}
330
33
100
AcDbXrecord
280
     1
1000
IDEANOTE3
1000
0280-IDEANote3
1070
     3
1000
CONTINUOUS
  0
XRECORD
  5
937
102
{ACAD_REACTORS
330
33
102
}
330
33
100
AcDbXrecord
280
     1
1000
IDEAPERIMETER
1000
0280-IDEAPerimeter
1070
     5
1000
HIDDEN2
  0
XRECORD
  5
938
102
{ACAD_REACTORS
330
33
102
}
330
33
100
AcDbXrecord
280
     1
1000
IDEAPERIMETER2
1000
0280-IDEAPerimeter2
1070
     3
1000
HIDDEN2
  0
XRECORD
  5
939
102
{ACAD_REACTORS
330
33
102
}
330
33
100
AcDbXrecord
280
     1
1000
IDEAPERIMETER3
1000
0280-IDEAPerimeter3
1070
     3
1000
HIDDEN2
  0
XRECORD
  5
53
102
{ACAD_REACTORS
330
33
102
}
330
33
100
AcDbXrecord
280
     1
1000
LABEL
1000
0280-Designator
1070
     1
1000
CONTINUOUS
  0
XRECORD
  5
96
102
{ACAD_REACTORS
330
33
102
}
330
33
100
AcDbXrecord
280
     1
1000
LABEL2
1000
0280-Designator2
1070
     6
1000
CONTINUOUS
  0
XRECORD
  5
896
102
{ACAD_REACTORS
330
33
102
}
330
33
100
AcDbXrecord
280
     1
1000
LABEL3
1000
0280-Designator3
1070
     6
1000
CONTINUOUS
  0
XRECORD
  5
59
102
{ACAD_REACTORS
330
33
102
}
330
33
100
AcDbXrecord
280
     1
1000
LATERAL
1000
0280-Lateral
1070
     3
1000
CONTINUOUS
  0
XRECORD
  5
9B
102
{ACAD_REACTORS
330
33
102
}
330
33
100
AcDbXrecord
280
     1
1000
LATERAL2
1000
0280-Lateral2
1070
     5
1000
DASHED
  0
XRECORD
  5
89B
102
{ACAD_REACTORS
330
33
102
}
330
33
100
AcDbXrecord
280
     1
1000
LATERAL3
1000
0280-Lateral3
1070
     5
1000
DASHED
  0
XRECORD
  5
923
102
{ACAD_REACTORS
330
33
102
}
330
33
100
AcDbXrecord
280
     1
1000
LINESOURCEAREA
1000
0280-LineSourceDripArea
1070
     3
1000
CONTINUOUS
  0
XRECORD
  5
924
102
{ACAD_REACTORS
330
33
102
}
330
33
100
AcDbXrecord
280
     1
1000
LINESOURCEAREA2
1000
0280-LineSourceDripArea2
1070
     5
1000
CONTINUOUS
  0
XRECORD
  5
925
102
{ACAD_REACTORS
330
33
102
}
330
33
100
AcDbXrecord
280
     1
1000
LINESOURCEAREA3
1000
0280-LineSourceDripArea3
1070
     5
1000
CONTINUOUS
  0
XRECORD
  5
92F
102
{ACAD_REACTORS
330
33
102
}
330
33
100
AcDbXrecord
280
     1
1000
LINESOURCEEMITTER
1000
0280-LineSourceDripEmitterPipe
1070
     8
1000
CONTINUOUS
  0
XRECORD
  5
930
102
{ACAD_REACTORS
330
33
102
}
330
33
100
AcDbXrecord
280
     1
1000
LINESOURCEEMITTER2
1000
0280-LineSourceDripEmitterPipe2
1070
   253
1000
CONTINUOUS
  0
XRECORD
  5
931
102
{ACAD_REACTORS
330
33
102
}
330
33
100
AcDbXrecord
280
     1
1000
LINESOURCEEMITTER3
1000
0280-LineSourceDripEmitterPipe3
1070
   253
1000
CONTINUOUS
  0
XRECORD
  5
929
102
{ACAD_REACTORS
330
33
102
}
330
33
100
AcDbXrecord
280
     1
1000
LINESOURCEEXHAUST
1000
0280-LineSourceDripExhaustPipe
1070
     7
1000
CONTINUOUS
  0
XRECORD
  5
92A
102
{ACAD_REACTORS
330
33
102
}
330
33
100
AcDbXrecord
280
     1
1000
LINESOURCEEXHAUST2
1000
0280-LineSourceDripExhaustPipe2
1070
     5
1000
CONTINUOUS
  0
XRECORD
  5
92B
102
{ACAD_REACTORS
330
33
102
}
330
33
100
AcDbXrecord
280
     1
1000
LINESOURCEEXHAUST3
1000
0280-LineSourceDripExhaustPipe3
1070
     5
1000
CONTINUOUS
  0
XRECORD
  5
926
102
{ACAD_REACTORS
330
33
102
}
330
33
100
AcDbXrecord
280
     1
1000
LINESOURCEHEADER
1000
0280-LineSourceDripHeaderPipe
1070
     7
1000
CONTINUOUS
  0
XRECORD
  5
927
102
{ACAD_REACTORS
330
33
102
}
330
33
100
AcDbXrecord
280
     1
1000
LINESOURCEHEADER2
1000
0280-LineSourceDripHeaderPipe2
1070
     5
1000
CONTINUOUS
  0
XRECORD
  5
928
102
{ACAD_REACTORS
330
33
102
}
330
33
100
AcDbXrecord
280
     1
1000
LINESOURCEHEADER3
1000
0280-LineSourceDripHeaderPipe3
1070
     5
1000
CONTINUOUS
  0
XRECORD
  5
92C
102
{ACAD_REACTORS
330
33
102
}
330
33
100
AcDbXrecord
280
     1
1000
LINESOURCEPERIMETER
1000
0280-LineSourceDripPerimeter
1070
     2
1000
HIDDEN2
  0
XRECORD
  5
92D
102
{ACAD_REACTORS
330
33
102
}
330
33
100
AcDbXrecord
280
     1
1000
LINESOURCEPERIMETER2
1000
0280-LineSourceDripPerimeter2
1070
     6
1000
HIDDEN2
  0
XRECORD
  5
92E
102
{ACAD_REACTORS
330
33
102
}
330
33
100
AcDbXrecord
280
     1
1000
LINESOURCEPERIMETER3
1000
0280-LineSourceDripPerimeter3
1070
     6
1000
HIDDEN2
  0
XRECORD
  5
57
102
{ACAD_REACTORS
330
33
102
}
330
33
100
AcDbXrecord
280
     1
1000
MAINLINE
1000
0280-Mainline
1070
     1
1000
CONTINUOUS
  0
XRECORD
  5
99
102
{ACAD_REACTORS
330
33
102
}
330
33
100
AcDbXrecord
280
     1
1000
MAINLINE2
1000
0280-Mainline2
1070
     6
1000
CONTINUOUS
  0
XRECORD
  5
899
102
{ACAD_REACTORS
330
33
102
}
330
33
100
AcDbXrecord
280
     1
1000
MAINLINE3
1000
0280-Mainline3
1070
     6
1000
CONTINUOUS
  0
XRECORD
  5
58
102
{ACAD_REACTORS
330
33
102
}
330
33
100
AcDbXrecord
280
     1
1000
MANIFOLD
1000
0280-Manifold
1070
     4
1000
CONTINUOUS
  0
XRECORD
  5
9A
102
{ACAD_REACTORS
330
33
102
}
330
33
100
AcDbXrecord
280
     1
1000
MANIFOLD2
1000
0280-Manifold2
1070
     3
1000
CONTINUOUS
  0
XRECORD
  5
89A
102
{ACAD_REACTORS
330
33
102
}
330
33
100
AcDbXrecord
280
     1
1000
MANIFOLD3
1000
0280-Manifold3
1070
     3
1000
CONTINUOUS
  0
XRECORD
  5
87
102
{ACAD_REACTORS
330
33
102
}
330
33
100
AcDbXrecord
280
     1
1000
MARKER
1000
0280-Marker
1070
     6
1000
CONTINUOUS
  0
XRECORD
  5
5E
102
{ACAD_REACTORS
330
33
102
}
330
33
100
AcDbXrecord
280
     1
1000
NOTE
1000
0100-Note
1070
     6
1000
CONTINUOUS
  0
XRECORD
  5
4F
102
{ACAD_REACTORS
330
33
102
}
330
33
100
AcDbXrecord
280
     1
1000
PERIMETER
1000
0100-WID_Perimeter
1070
     8
1000
CONTINUOUS
  0
XRECORD
  5
91
102
{ACAD_REACTORS
330
33
102
}
330
33
100
AcDbXrecord
280
     1
1000
PERIMETER2
1000
0100-WID_Perimeter2
1070
     9
1000
CONTINUOUS
  0
XRECORD
  5
891
102
{ACAD_REACTORS
330
33
102
}
330
33
100
AcDbXrecord
280
     1
1000
PERIMETER3
1000
0100-WID_Perimeter3
1070
     9
1000
CONTINUOUS
  0
XRECORD
  5
55
102
{ACAD_REACTORS
330
33
102
}
330
33
100
AcDbXrecord
280
     1
1000
PIPE_SIZE
1000
0280-PipeSize
1070
     2
1000
CONTINUOUS
  0
XRECORD
  5
97
102
{ACAD_REACTORS
330
33
102
}
330
33
100
AcDbXrecord
280
     1
1000
PIPE_SIZE2
1000
0280-PipeSize2
1070
     4
1000
CONTINUOUS
  0
XRECORD
  5
897
102
{ACAD_REACTORS
330
33
102
}
330
33
100
AcDbXrecord
280
     1
1000
PIPE_SIZE3
1000
0280-PipeSize3
1070
     4
1000
CONTINUOUS
  0
XRECORD
  5
56
102
{ACAD_REACTORS
330
33
102
}
330
33
100
AcDbXrecord
280
     1
1000
SEGMENTID
1000
0280-PipeSegment
1070
   140
1000
CONTINUOUS
  0
XRECORD
  5
98
102
{ACAD_REACTORS
330
33
102
}
330
33
100
AcDbXrecord
280
     1
1000
SEGMENTID2
1000
0280-PipeSegment2
1070
    60
1000
CONTINUOUS
  0
XRECORD
  5
898
102
{ACAD_REACTORS
330
33
102
}
330
33
100
AcDbXrecord
280
     1
1000
SEGMENTID3
1000
0280-PipeSegment3
1070
    60
1000
CONTINUOUS
  0
XRECORD
  5
5D
102
{ACAD_REACTORS
330
33
102
}
330
33
100
AcDbXrecord
280
     1
1000
SLEEVE
1000
0280-Sleeve
1070
     2
1000
CONTINUOUS
  0
XRECORD
  5
A3
102
{ACAD_REACTORS
330
33
102
}
330
33
100
AcDbXrecord
280
     1
1000
SLEEVE2
1000
0280-Sleeve2
1070
     5
1000
CONTINUOUS
  0
XRECORD
  5
8A3
102
{ACAD_REACTORS
330
33
102
}
330
33
100
AcDbXrecord
280
     1
1000
SLEEVE3
1000
0280-Sleeve3
1070
     5
1000
CONTINUOUS
  0
XRECORD
  5
50
102
{ACAD_REACTORS
330
33
102
}
330
33
100
AcDbXrecord
280
     1
1000
SPRINKLER
1000
0280-Sprinkler
1070
     5
1000
CONTINUOUS
  0
XRECORD
  5
92
102
{ACAD_REACTORS
330
33
102
}
330
33
100
AcDbXrecord
280
     1
1000
SPRINKLER2
1000
0280-Sprinkler2
1070
     2
1000
CONTINUOUS
  0
XRECORD
  5
892
102
{ACAD_REACTORS
330
33
102
}
330
33
100
AcDbXrecord
280
     1
1000
SPRINKLER3
1000
0280-Sprinkler3
1070
     2
1000
CONTINUOUS
  0
XRECORD
  5
52
102
{ACAD_REACTORS
330
33
102
}
330
33
100
AcDbXrecord
280
     1
1000
VALVE
1000
0280-Valve
1070
     1
1000
CONTINUOUS
  0
XRECORD
  5
95
102
{ACAD_REACTORS
330
33
102
}
330
33
100
AcDbXrecord
280
     1
1000
VALVE2
1000
0280-Valve2
1070
     6
1000
CONTINUOUS
  0
XRECORD
  5
895
102
{ACAD_REACTORS
330
33
102
}
330
33
100
AcDbXrecord
280
     1
1000
VALVE3
1000
0280-Valve3
1070
     6
1000
CONTINUOUS
  0
XRECORD
  5
946
102
{ACAD_REACTORS
330
940
102
}
330
940
100
AcDbXrecord
280
     1
1000
Annuals
1040
1.0
1070
    -1
  0
XRECORD
  5
942
102
{ACAD_REACTORS
330
940
102
}
330
940
100
AcDbXrecord
280
     1
1000
Bluegrass
1040
0.9
1070
     0
  0
XRECORD
  5
943
102
{ACAD_REACTORS
330
940
102
}
330
940
100
AcDbXrecord
280
     1
1000
Seed Mix
1040
0.735
1070
     0
  0
XRECORD
  5
944
102
{ACAD_REACTORS
330
940
102
}
330
940
100
AcDbXrecord
280
     1
1000
Shrubs
1040
1.0
1070
    -1
  0
XRECORD
  5
945
102
{ACAD_REACTORS
330
940
102
}
330
940
100
AcDbXrecord
280
     1
1000
Trees
1040
1.0
1070
    -1
  0
XRECORD
  5
932
102
{ACAD_REACTORS
330
32
102
}
330
32
100
AcDbXrecord
280
     1
1000
True
  0
XRECORD
  5
6F
102
{ACAD_REACTORS
330
32
102
}
330
32
100
AcDbXrecord
280
     1
1000
0.78539
  0
XRECORD
  5
70
102
{ACAD_REACTORS
330
32
102
}
330
32
100
AcDbXrecord
280
     1
1000
0.008255
  0
XRECORD
  5
71
102
{ACAD_REACTORS
330
32
102
}
330
32
100
AcDbXrecord
280
     1
1000
0.00381
  0
XRECORD
  5
72
102
{ACAD_REACTORS
330
32
102
}
330
32
100
AcDbXrecord
280
     1
1000
0.0
  0
XRECORD
  5
73
102
{ACAD_REACTORS
330
32
102
}
330
32
100
AcDbXrecord
280
     1
1000
0.00762
  0
XRECORD
  5
74
102
{ACAD_REACTORS
330
32
102
}
330
32
100
AcDbXrecord
280
     1
1000
True
  0
XRECORD
  5
941
102
{ACAD_REACTORS
330
32
102
}
330
32
100
AcDbXrecord
280
     1
1000
Bluegrass
  0
XRECORD
  5
933
102
{ACAD_REACTORS
330
32
102
}
330
32
100
AcDbXrecord
280
     1
1000
True
  0
XRECORD
  5
75
102
{ACAD_REACTORS
330
32
102
}
330
32
100
AcDbXrecord
280
     1
1000
3.9968
  0
XRECORD
  5
76
102
{ACAD_REACTORS
330
32
102
}
330
32
100
AcDbXrecord
280
     1
1000
0.00254
  0
XRECORD
  5
77
102
{ACAD_REACTORS
330
32
102
}
330
32
100
AcDbXrecord
280
     1
1000
0.00254
  0
XRECORD
  5
78
102
{ACAD_REACTORS
330
32
102
}
330
32
100
AcDbXrecord
280
     1
1000
0.0
  0
XRECORD
  5
79
102
{ACAD_REACTORS
330
32
102
}
330
32
100
AcDbXrecord
280
     1
1000
0.0012954
  0
XRECORD
  5
7A
102
{ACAD_REACTORS
330
32
102
}
330
32
100
AcDbXrecord
280
     1
1000
True
  0
XRECORD
  5
934
102
{ACAD_REACTORS
330
32
102
}
330
32
100
AcDbXrecord
280
     1
1000
True
  0
XRECORD
  5
7B
102
{ACAD_REACTORS
330
32
102
}
330
32
100
AcDbXrecord
280
     1
1000
3.92699
  0
XRECORD
  5
7C
102
{ACAD_REACTORS
330
32
102
}
330
32
100
AcDbXrecord
280
     1
1000
0.03175
  0
XRECORD
  5
7D
102
{ACAD_REACTORS
330
32
102
}
330
32
100
AcDbXrecord
280
     1
1000
0.0127
  0
XRECORD
  5
7E
102
{ACAD_REACTORS
330
32
102
}
330
32
100
AcDbXrecord
280
     1
1000
0.0
  0
XRECORD
  5
7F
102
{ACAD_REACTORS
330
32
102
}
330
32
100
AcDbXrecord
280
     1
1000
0.01998
  0
XRECORD
  5
80
102
{ACAD_REACTORS
330
32
102
}
330
32
100
AcDbXrecord
280
     1
1000
True
  0
XRECORD
  5
68
102
{ACAD_REACTORS
330
32
102
}
330
32
100
AcDbXrecord
280
     1
1000
3.3
  0
XRECORD
  5
A42
102
{ACAD_REACTORS
330
A3F
102
}
330
A3F
100
AcDbXrecord
280
     1
  1
_0100-
  1
*0100-*
  1
*
  1
*
 70
     0
  1
*
  1
*
  0
XRECORD
  5
A41
102
{ACAD_REACTORS
330
A3F
102
}
330
A3F
100
AcDbXrecord
280
     1
  1
_0280-
  1
*0280-*
  1
*
  1
*
 70
     0
  1
*
  1
*
  0
XRECORD
  5
A44
102
{ACAD_REACTORS
330
A3F
102
}
330
A3F
100
AcDbXrecord
280
     1
  1
_Add Alternate
  1
*add*alt*
  1
*
  1
*
 70
     0
  1
*
  1
*
  0
XRECORD
  5
A45
102
{ACAD_REACTORS
330
A3F
102
}
330
A3F
100
AcDbXrecord
280
     1
  1
_Bid Alternate
  1
*bid*alt*
  1
*
  1
*
 70
     0
  1
*
  1
*
  0
XRECORD
  5
A47
102
{ACAD_REACTORS
330
A3F
102
}
330
A3F
100
AcDbXrecord
280
     1
  1
_Color 253
  1
*
  1
253
  1
*
 70
     0
  1
*
  1
*
  0
XRECORD
  5
A43
102
{ACAD_REACTORS
330
A3F
102
}
330
A3F
100
AcDbXrecord
280
     1
  1
_Color 8
  1
*
  1
8
  1
*
 70
     0
  1
*
  1
*
  0
XRECORD
  5
A46
102
{ACAD_REACTORS
330
A3F
102
}
330
A3F
100
AcDbXrecord
280
     1
  1
_Color 84
  1
*
  1
84
  1
*
 70
     0
  1
*
  1
*
  0
XRECORD
  5
A4D
102
{ACAD_REACTORS
330
A3F
102
}
330
A3F
100
AcDbXrecord
280
     1
  1
_Contours
  1
*contour*,*cont-*,*cp cont*,*p-cont*
  1
*
  1
*
 70
     0
  1
*
  1
*
  0
XRECORD
  5
A48
102
{ACAD_REACTORS
330
A3F
102
}
330
A3F
100
AcDbXrecord
280
     1
  1
_Demo
  1
*demo*
  1
*
  1
*
 70
     0
  1
*
  1
*
  0
XRECORD
  5
A49
102
{ACAD_REACTORS
330
A3F
102
}
330
A3F
100
AcDbXrecord
280
     1
  1
_Existing
  1
*exist*,*ex*
  1
*
  1
*
 70
     0
  1
*
  1
*
  0
XRECORD
  5
A4C
102
{ACAD_REACTORS
330
A3F
102
}
330
A3F
100
AcDbXrecord
280
     1
  1
_Hardscape
  1
*sidewalk*,*sw*,*curb*,*walk*,*-lip*,*tbc*
  1
*
  1
*
 70
     0
  1
*
  1
*
  0
XRECORD
  5
A40
102
{ACAD_REACTORS
330
A3F
102
}
330
A3F
100
AcDbXrecord
280
     1
  1
_NoXref
  1
~*|*
  1
*
  1
*
 70
     0
  1
*
  1
*
  0
XRECORD
  5
A4A
102
{ACAD_REACTORS
330
A3F
102
}
330
A3F
100
AcDbXrecord
280
     1
  1
_Row
  1
*row*
  1
*
  1
*
 70
     0
  1
*
  1
*
  0
XRECORD
  5
A4B
102
{ACAD_REACTORS
330
A3F
102
}
330
A3F
100
AcDbXrecord
280
     1
  1
_Utility
  1
*ut-*,*utility*,*wat*
  1
*
  1
*
 70
     0
  1
*
  1
*
  0
DICTIONARY
  5
8D9
330
8D8
100
AcDbDictionary
280
     1
281
     1
  3
ACAD_XREC_ROUNDTRIP
360
A6B
  3
BUMPTILE
360
8DB
  3
DIFFUSETILE
360
8DA
  3
OPACITYTILE
360
8DE
  3
REFLECTIONTILE
360
8DD
  3
REFRACTIONTILE
360
8DF
  3
SPECULARTILE
360
8DC
  0
DICTIONARY
  5
8D1
330
8D0
100
AcDbDictionary
280
     1
281
     1
  3
ACAD_XREC_ROUNDTRIP
360
A6A
  3
BUMPTILE
360
8D3
  3
DIFFUSETILE
360
8D2
  3
OPACITYTILE
360
8D6
  3
REFLECTIONTILE
360
8D5
  3
REFRACTIONTILE
360
8D7
  3
SPECULARTILE
360
8D4
  0
DICTIONARY
  5
8E1
330
8E0
100
AcDbDictionary
280
     1
281
     1
  3
ACAD_XREC_ROUNDTRIP
360
A6C
  3
BUMPTILE
360
8E3
  3
DIFFUSETILE
360
8E2
  3
OPACITYTILE
360
8E6
  3
REFLECTIONTILE
360
8E5
  3
REFRACTIONTILE
360
8E7
  3
SPECULARTILE
360
8E4
  0
DICTIONARY
  5
97E
330
88A
100
AcDbDictionary
280
     1
281
     1
  3
ACAD_ROUNDTRIP_2008_TABLESTYLE_CELLSTYLEMAP
360
A64
  3
ACAD_XREC_ROUNDTRIP
360
A69
  0
XRECORD
  5
A6B
102
{ACAD_REACTORS
330
8D9
102
}
330
8D9
100
AcDbXrecord
280
     1
102
MATERIAL
148
0.0
149
0.0
149
0.0
 93
        0
 94
      127
282
     0
 72
     0
 77
     0
171
     0
175
     0
179
     0
273
     0
  0
XRECORD
  5
8DB
102
{ACAD_REACTORS
330
8D9
102
}
330
8D9
100
AcDbXrecord
280
     1
270
     1
271
     1
  0
XRECORD
  5
8DA
102
{ACAD_REACTORS
330
8D9
102
}
330
8D9
100
AcDbXrecord
280
     1
270
     1
271
     1
  0
XRECORD
  5
8DE
102
{ACAD_REACTORS
330
8D9
102
}
330
8D9
100
AcDbXrecord
280
     1
270
     1
271
     1
  0
XRECORD
  5
8DD
102
{ACAD_REACTORS
330
8D9
102
}
330
8D9
100
AcDbXrecord
280
     1
270
     1
271
     1
  0
XRECORD
  5
8DF
102
{ACAD_REACTORS
330
8D9
102
}
330
8D9
100
AcDbXrecord
280
     1
270
     1
271
     1
  0
XRECORD
  5
8DC
102
{ACAD_REACTORS
330
8D9
102
}
330
8D9
100
AcDbXrecord
280
     1
270
     1
271
     1
  0
XRECORD
  5
A6A
102
{ACAD_REACTORS
330
8D1
102
}
330
8D1
100
AcDbXrecord
280
     1
102
MATERIAL
148
0.0
149
0.0
149
0.0
 93
        0
 94
      127
282
     0
 72
     0
 77
     0
171
     0
175
     0
179
     0
273
     0
  0
XRECORD
  5
8D3
102
{ACAD_REACTORS
330
8D1
102
}
330
8D1
100
AcDbXrecord
280
     1
270
     1
271
     1
  0
XRECORD
  5
8D2
102
{ACAD_REACTORS
330
8D1
102
}
330
8D1
100
AcDbXrecord
280
     1
270
     1
271
     1
  0
XRECORD
  5
8D6
102
{ACAD_REACTORS
330
8D1
102
}
330
8D1
100
AcDbXrecord
280
     1
270
     1
271
     1
  0
XRECORD
  5
8D5
102
{ACAD_REACTORS
330
8D1
102
}
330
8D1
100
AcDbXrecord
280
     1
270
     1
271
     1
  0
XRECORD
  5
8D7
102
{ACAD_REACTORS
330
8D1
102
}
330
8D1
100
AcDbXrecord
280
     1
270
     1
271
     1
  0
XRECORD
  5
8D4
102
{ACAD_REACTORS
330
8D1
102
}
330
8D1
100
AcDbXrecord
280
     1
270
     1
271
     1
  0
XRECORD
  5
A6C
102
{ACAD_REACTORS
330
8E1
102
}
330
8E1
100
AcDbXrecord
280
     1
102
MATERIAL
148
0.0
149
0.0
149
0.0
 93
        0
 94
      127
282
     0
 72
     0
 77
     0
171
     0
175
     0
179
     0
273
     0
  0
XRECORD
  5
8E3
102
{ACAD_REACTORS
330
8E1
102
}
330
8E1
100
AcDbXrecord
280
     1
270
     1
271
     1
  0
XRECORD
  5
8E2
102
{ACAD_REACTORS
330
8E1
102
}
330
8E1
100
AcDbXrecord
280
     1
270
     1
271
     1
  0
XRECORD
  5
8E6
102
{ACAD_REACTORS
330
8E1
102
}
330
8E1
100
AcDbXrecord
280
     1
270
     1
271
     1
  0
XRECORD
  5
8E5
102
{ACAD_REACTORS
330
8E1
102
}
330
8E1
100
AcDbXrecord
280
     1
270
     1
271
     1
  0
XRECORD
  5
8E7
102
{ACAD_REACTORS
330
8E1
102
}
330
8E1
100
AcDbXrecord
280
     1
270
     1
271
     1
  0
XRECORD
  5
8E4
102
{ACAD_REACTORS
330
8E1
102
}
330
8E1
100
AcDbXrecord
280
     1
270
     1
271
     1
  0
CELLSTYLEMAP
  5
A64
102
{ACAD_REACTORS
330
97E
102
}
330
97E
100
AcDbCellStyleMap
 90
        3
300
CELLSTYLE
  1
TABLEFORMAT_BEGIN
 90
        5
170
     1
 91
        0
 92
    32768
 62
   257
 93
        1
300
CONTENTFORMAT
  1
CONTENTFORMAT_BEGIN
 90
        0
 91
        0
 92
        4
 93
        0
300

 40
0.0
140
1.0
 94
        5
 62
     0
340
11
144
0.25
309
CONTENTFORMAT_END
171
     0
 94
        6
 95
        1
302
GRIDFORMAT
  1
GRIDFORMAT_BEGIN
 90
        0
 91
        1
 62
     0
 92
       -2
340
0
 93
        0
 40
0.045
309
GRIDFORMAT_END
 95
        2
302
GRIDFORMAT
  1
GRIDFORMAT_BEGIN
 90
        0
 91
        1
 62
     0
 92
       -2
340
0
 93
        0
 40
0.045
309
GRIDFORMAT_END
 95
        4
302
GRIDFORMAT
  1
GRIDFORMAT_BEGIN
 90
        0
 91
        1
 62
     0
 92
       -2
340
0
 93
        0
 40
0.045
309
GRIDFORMAT_END
 95
        8
302
GRIDFORMAT
  1
GRIDFORMAT_BEGIN
 90
        0
 91
        1
 62
     0
 92
       -2
340
0
 93
        0
 40
0.045
309
GRIDFORMAT_END
 95
       16
302
GRIDFORMAT
  1
GRIDFORMAT_BEGIN
 90
        0
 91
        1
 62
     0
 92
       -2
340
0
 93
        0
 40
0.045
309
GRIDFORMAT_END
 95
       32
302
GRIDFORMAT
  1
GRIDFORMAT_BEGIN
 90
        0
 91
        1
 62
     0
 92
       -2
340
0
 93
        0
 40
0.045
309
GRIDFORMAT_END
309
TABLEFORMAT_END
  1
CELLSTYLE_BEGIN
 90
        1
 91
        1
300
_TITLE
309
CELLSTYLE_END
300
CELLSTYLE
  1
TABLEFORMAT_BEGIN
 90
        5
170
     1
 91
        0
 92
        0
 62
   257
 93
        1
300
CONTENTFORMAT
  1
CONTENTFORMAT_BEGIN
 90
        0
 91
        0
 92
        4
 93
        0
300

 40
0.0
140
1.0
 94
        5
 62
     0
340
11
144
0.18
309
CONTENTFORMAT_END
171
     0
 94
        6
 95
        1
302
GRIDFORMAT
  1
GRIDFORMAT_BEGIN
 90
        0
 91
        1
 62
     0
 92
       -2
340
0
 93
        0
 40
0.045
309
GRIDFORMAT_END
 95
        2
302
GRIDFORMAT
  1
GRIDFORMAT_BEGIN
 90
        0
 91
        1
 62
     0
 92
       -2
340
0
 93
        0
 40
0.045
309
GRIDFORMAT_END
 95
        4
302
GRIDFORMAT
  1
GRIDFORMAT_BEGIN
 90
        0
 91
        1
 62
     0
 92
       -2
340
0
 93
        0
 40
0.045
309
GRIDFORMAT_END
 95
        8
302
GRIDFORMAT
  1
GRIDFORMAT_BEGIN
 90
        0
 91
        1
 62
     0
 92
       -2
340
0
 93
        0
 40
0.045
309
GRIDFORMAT_END
 95
       16
302
GRIDFORMAT
  1
GRIDFORMAT_BEGIN
 90
        0
 91
        1
 62
     0
 92
       -2
340
0
 93
        0
 40
0.045
309
GRIDFORMAT_END
 95
       32
302
GRIDFORMAT
  1
GRIDFORMAT_BEGIN
 90
        0
 91
        1
 62
     0
 92
       -2
340
0
 93
        0
 40
0.045
309
GRIDFORMAT_END
309
TABLEFORMAT_END
  1
CELLSTYLE_BEGIN
 90
        2
 91
        1
300
_HEADER
309
CELLSTYLE_END
300
CELLSTYLE
  1
TABLEFORMAT_BEGIN
 90
        5
170
     1
 91
        0
 92
        0
 62
   257
 93
        1
300
CONTENTFORMAT
  1
CONTENTFORMAT_BEGIN
 90
        0
 91
        0
 92
        4
 93
        0
300

 40
0.0
140
1.0
 94
        2
 62
     0
340
11
144
0.18
309
CONTENTFORMAT_END
171
     0
 94
        6
 95
        1
302
GRIDFORMAT
  1
GRIDFORMAT_BEGIN
 90
        0
 91
        1
 62
     0
 92
       -2
340
0
 93
        0
 40
0.045
309
GRIDFORMAT_END
 95
        2
302
GRIDFORMAT
  1
GRIDFORMAT_BEGIN
 90
        0
 91
        1
 62
     0
 92
       -2
340
0
 93
        0
 40
0.045
309
GRIDFORMAT_END
 95
        4
302
GRIDFORMAT
  1
GRIDFORMAT_BEGIN
 90
        0
 91
        1
 62
     0
 92
       -2
340
0
 93
        0
 40
0.045
309
GRIDFORMAT_END
 95
        8
302
GRIDFORMAT
  1
GRIDFORMAT_BEGIN
 90
        0
 91
        1
 62
     0
 92
       -2
340
0
 93
        0
 40
0.045
309
GRIDFORMAT_END
 95
       16
302
GRIDFORMAT
  1
GRIDFORMAT_BEGIN
 90
        0
 91
        1
 62
     0
 92
       -2
340
0
 93
        0
 40
0.045
309
GRIDFORMAT_END
 95
       32
302
GRIDFORMAT
  1
GRIDFORMAT_BEGIN
 90
        0
 91
        1
 62
     0
 92
       -2
340
0
 93
        0
 40
0.045
309
GRIDFORMAT_END
309
TABLEFORMAT_END
  1
CELLSTYLE_BEGIN
 90
        3
 91
        2
300
_DATA
309
CELLSTYLE_END
  0
XRECORD
  5
A69
102
{ACAD_REACTORS
330
97E
102
}
330
97E
100
AcDbXrecord
280
     1
102
ACAD_ROUNDTRIP_PRE2007_TABLESTYLE
 90
        4
 91
        0
  1

 92
        4
 93
        0
  2

 94
        4
 95
        0
  3

  0
ENDSEC
  0
EOF
