  0
SECTION
  2
HEADER
  9
$ACADVER
  1
AC1018
  9
$ACADMAINTVER
 70
   104
  9
$DWGCODEPAGE
  3
ANSI_1252
  9
$TITLE
  1
O:\RAINBIRD\SpecDraw 2006\MDC\DWG\SD210.dwg
  9
$SUBJECT
  1
 
  9
$AUTHOR
  1
dweyer
  9
$COMMENTS
  1
This drawing was opened and saved by 'dweyer' with AutoCAD version 16.1s (LMS Tech) using profile WatermarkID on 12-21-2005 @ 16:05:PM
  9
$LASTSAVEDBY
  1
dweyer
  9
$INSBASE
 10
-0.0102040656010656
 20
-0.0099921734210461
 30
0.0
  9
$EXTMIN
 10
0.0
 20
0.0
 30
0.0
  9
$EXTMAX
 10
16.48999999999999
 20
10.44
 30
0.03
  9
$LIMMIN
 10
0.0
 20
0.0
  9
$LIMMAX
 10
12.0
 20
9.0
  9
$ORTHOMODE
 70
     0
  9
$REGENMODE
 70
     1
  9
$FILLMODE
 70
     1
  9
$QTEXTMODE
 70
     0
  9
$MIRRTEXT
 70
     0
  9
$LTSCALE
 40
1.0
  9
$ATTMODE
 70
     1
  9
$TEXTSIZE
 40
0.125
  9
$TRACEWID
 40
0.05
  9
$TEXTSTYLE
  7
ROMANS
  9
$CLAYER
  8
image
  9
$CELTYPE
  6
BYLAYER
  9
$CECOLOR
 62
   256
  9
$CELTSCALE
 40
1.0
  9
$DISPSILH
 70
     0
  9
$DIMSCALE
 40
1.0
  9
$DIMASZ
 40
0.18
  9
$DIMEXO
 40
0.0625
  9
$DIMDLI
 40
0.38
  9
$DIMRND
 40
0.0
  9
$DIMDLE
 40
0.0
  9
$DIMEXE
 40
0.125
  9
$DIMTP
 40
0.0
  9
$DIMTM
 40
0.0
  9
$DIMTXT
 40
0.125
  9
$DIMCEN
 40
0.09
  9
$DIMTSZ
 40
0.0
  9
$DIMTOL
 70
     0
  9
$DIMLIM
 70
     0
  9
$DIMTIH
 70
     1
  9
$DIMTOH
 70
     1
  9
$DIMSE1
 70
     0
  9
$DIMSE2
 70
     0
  9
$DIMTAD
 70
     0
  9
$DIMZIN
 70
     0
  9
$DIMBLK
  1

  9
$DIMASO
 70
     1
  9
$DIMSHO
 70
     1
  9
$DIMPOST
  1

  9
$DIMAPOST
  1

  9
$DIMALT
 70
     0
  9
$DIMALTD
 70
     2
  9
$DIMALTF
 40
25.4
  9
$DIMLFAC
 40
1.0
  9
$DIMTOFL
 70
     0
  9
$DIMTVP
 40
0.0
  9
$DIMTIX
 70
     0
  9
$DIMSOXD
 70
     0
  9
$DIMSAH
 70
     0
  9
$DIMBLK1
  1

  9
$DIMBLK2
  1

  9
$DIMSTYLE
  2
STANDARD
  9
$DIMCLRD
 70
   256
  9
$DIMCLRE
 70
   256
  9
$DIMCLRT
 70
   256
  9
$DIMTFAC
 40
1.0
  9
$DIMGAP
 40
0.09
  9
$DIMJUST
 70
     0
  9
$DIMSD1
 70
     0
  9
$DIMSD2
 70
     0
  9
$DIMTOLJ
 70
     1
  9
$DIMTZIN
 70
     0
  9
$DIMALTZ
 70
     0
  9
$DIMALTTZ
 70
     0
  9
$DIMUPT
 70
     0
  9
$DIMDEC
 70
     4
  9
$DIMTDEC
 70
     4
  9
$DIMALTU
 70
     2
  9
$DIMALTTD
 70
     2
  9
$DIMTXSTY
  7
arial
  9
$DIMAUNIT
 70
     0
  9
$DIMADEC
 70
     0
  9
$DIMALTRND
 40
0.0
  9
$DIMAZIN
 70
     0
  9
$DIMDSEP
 70
    46
  9
$DIMATFIT
 70
     3
  9
$DIMFRAC
 70
     0
  9
$DIMLDRBLK
  1

  9
$DIMLUNIT
 70
     2
  9
$DIMLWD
 70
    -1
  9
$DIMLWE
 70
    -1
  9
$DIMTMOVE
 70
     0
  9
$LUNITS
 70
     2
  9
$LUPREC
 70
     3
  9
$SKETCHINC
 40
0.1
  9
$FILLETRAD
 40
0.0
  9
$AUNITS
 70
     0
  9
$AUPREC
 70
     0
  9
$MENU
  1
c:\acad13nt\win\SUPPORT\ACAD
  9
$ELEVATION
 40
0.0
  9
$PELEVATION
 40
0.0
  9
$THICKNESS
 40
0.0
  9
$LIMCHECK
 70
     0
  9
$CHAMFERA
 40
0.0
  9
$CHAMFERB
 40
0.0
  9
$CHAMFERC
 40
0.0
  9
$CHAMFERD
 40
0.0
  9
$SKPOLY
 70
     0
  9
$TDCREATE
 40
2449623.343430903
  9
$TDUCREATE
 40
2449623.635097569
  9
$TDUPDATE
 40
2455596.409756702
  9
$TDUUPDATE
 40
2455596.701423368
  9
$TDINDWG
 40
0.5590178356
  9
$TDUSRTIMER
 40
0.5590178356
  9
$USRTIMER
 70
     1
  9
$ANGBASE
 50
0.0
  9
$ANGDIR
 70
     0
  9
$PDMODE
 70
     0
  9
$PDSIZE
 40
0.0
  9
$PLINEWID
 40
0.037
  9
$SPLFRAME
 70
     0
  9
$SPLINETYPE
 70
     6
  9
$SPLINESEGS
 70
     8
  9
$HANDSEED
  5
1DF5
  9
$SURFTAB1
 70
     6
  9
$SURFTAB2
 70
     6
  9
$SURFTYPE
 70
     6
  9
$SURFU
 70
     6
  9
$SURFV
 70
     6
  9
$UCSBASE
  2

  9
$UCSNAME
  2

  9
$UCSORG
 10
0.0
 20
0.0
 30
0.0
  9
$UCSXDIR
 10
1.0
 20
0.0
 30
0.0
  9
$UCSYDIR
 10
0.0
 20
1.0
 30
0.0
  9
$UCSORTHOREF
  2

  9
$UCSORTHOVIEW
 70
     0
  9
$UCSORGTOP
 10
0.0
 20
0.0
 30
0.0
  9
$UCSORGBOTTOM
 10
0.0
 20
0.0
 30
0.0
  9
$UCSORGLEFT
 10
0.0
 20
0.0
 30
0.0
  9
$UCSORGRIGHT
 10
0.0
 20
0.0
 30
0.0
  9
$UCSORGFRONT
 10
0.0
 20
0.0
 30
0.0
  9
$UCSORGBACK
 10
0.0
 20
0.0
 30
0.0
  9
$PUCSBASE
  2

  9
$PUCSNAME
  2

  9
$PUCSORG
 10
0.0
 20
0.0
 30
0.0
  9
$PUCSXDIR
 10
1.0
 20
0.0
 30
0.0
  9
$PUCSYDIR
 10
0.0
 20
1.0
 30
0.0
  9
$PUCSORTHOREF
  2

  9
$PUCSORTHOVIEW
 70
     0
  9
$PUCSORGTOP
 10
0.0
 20
0.0
 30
0.0
  9
$PUCSORGBOTTOM
 10
0.0
 20
0.0
 30
0.0
  9
$PUCSORGLEFT
 10
0.0
 20
0.0
 30
0.0
  9
$PUCSORGRIGHT
 10
0.0
 20
0.0
 30
0.0
  9
$PUCSORGFRONT
 10
0.0
 20
0.0
 30
0.0
  9
$PUCSORGBACK
 10
0.0
 20
0.0
 30
0.0
  9
$USERI1
 70
     0
  9
$USERI2
 70
     0
  9
$USERI3
 70
     0
  9
$USERI4
 70
     0
  9
$USERI5
 70
     0
  9
$USERR1
 40
0.0
  9
$USERR2
 40
0.0
  9
$USERR3
 40
0.0
  9
$USERR4
 40
0.0
  9
$USERR5
 40
0.0
  9
$WORLDVIEW
 70
     1
  9
$SHADEDGE
 70
     3
  9
$SHADEDIF
 70
    70
  9
$TILEMODE
 70
     1
  9
$MAXACTVP
 70
    16
  9
$PINSBASE
 10
0.0
 20
0.0
 30
0.0
  9
$PLIMCHECK
 70
     0
  9
$PEXTMIN
 10
1.000000000000000E+20
 20
1.000000000000000E+20
 30
1.000000000000000E+20
  9
$PEXTMAX
 10
-1.000000000000000E+20
 20
-1.000000000000000E+20
 30
-1.000000000000000E+20
  9
$PLIMMIN
 10
0.0
 20
0.0
  9
$PLIMMAX
 10
12.0
 20
9.0
  9
$UNITMODE
 70
     0
  9
$VISRETAIN
 70
     0
  9
$PLINEGEN
 70
     1
  9
$PSLTSCALE
 70
     1
  9
$TREEDEPTH
 70
 -3020
  9
$CMLSTYLE
  2
STANDARD
  9
$CMLJUST
 70
     0
  9
$CMLSCALE
 40
1.0
  9
$PROXYGRAPHICS
 70
     1
  9
$MEASUREMENT
 70
     0
  9
$CELWEIGHT
370
    -1
  9
$ENDCAPS
280
     0
  9
$JOINSTYLE
280
     0
  9
$LWDISPLAY
290
     0
  9
$INSUNITS
 70
     0
  9
$HYPERLINKBASE
  1
www.aquaengineering.com
  9
$STYLESHEET
  1
OKIColorShaded.ctb
  9
$XEDIT
290
     1
  9
$CEPSNTYPE
380
     0
  9
$PSTYLEMODE
290
     1
  9
$FINGERPRINTGUID
  2
{836422F3-A604-42EF-94E6-CBC462A1BF8A}
  9
$VERSIONGUID
  2
{83198571-BA42-44C6-86B2-30BDA3090DF5}
  9
$EXTNAMES
290
     1
  9
$PSVPSCALE
 40
0.0
  9
$OLESTARTUP
290
     1
  9
$SORTENTS
280
    48
  9
$INDEXCTL
280
     0
  9
$HIDETEXT
280
     1
  9
$XCLIPFRAME
290
     0
  9
$HALOGAP
280
     0
  9
$OBSCOLOR
 70
   257
  9
$OBSLTYPE
280
     0
  9
$INTERSECTIONDISPLAY
280
     0
  9
$INTERSECTIONCOLOR
 70
   257
  9
$DIMASSOC
280
     1
  9
$PROJECTNAME
  1

  0
ENDSEC
  0
SECTION
  2
CLASSES
  0
CLASS
  1
ACDBDICTIONARYWDFLT
  2
AcDbDictionaryWithDefault
  3
ObjectDBX Classes
 90
        0
 91
        1
280
     0
281
     0
  0
CLASS
  1
DICTIONARYVAR
  2
AcDbDictionaryVar
  3
ObjectDBX Classes
 90
        0
 91
       13
280
     0
281
     0
  0
CLASS
  1
TABLESTYLE
  2
AcDbTableStyle
  3
ObjectDBX Classes
 90
     4095
 91
        1
280
     0
281
     0
  0
CLASS
  1
MATERIAL
  2
AcDbMaterial
  3
ObjectDBX Classes
 90
     1153
 91
        3
280
     0
281
     0
  0
CLASS
  1
VISUALSTYLE
  2
AcDbVisualStyle
  3
ObjectDBX Classes
 90
     4095
 91
       16
280
     0
281
     0
  0
CLASS
  1
SCALE
  2
AcDbScale
  3
ObjectDBX Classes
 90
     1153
 91
       33
280
     0
281
     0
  0
CLASS
  1
MLEADERSTYLE
  2
AcDbMLeaderStyle
  3
ACDB_MLEADERSTYLE_CLASS
 90
     4095
 91
        1
280
     0
281
     0
  0
CLASS
  1
EXACXREFPANELOBJECT
  2
ExAcXREFPanelObject
  3
EXAC_ESW
 90
     1025
 91
        1
280
     0
281
     0
  0
CLASS
  1
NPOCOLLECTION
  2
AcDbImpNonPersistentObjectsCollection
  3
ObjectDBX Classes
 90
     1153
 91
        1
280
     0
281
     0
  0
CLASS
  1
CELLSTYLEMAP
  2
AcDbCellStyleMap
  3
ObjectDBX Classes
 90
     1152
 91
        6
280
     0
281
     0
  0
CLASS
  1
SORTENTSTABLE
  2
AcDbSortentsTable
  3
ObjectDBX Classes
 90
        0
 91
        1
280
     0
281
     0
  0
ENDSEC
  0
SECTION
  2
TABLES
  0
TABLE
  2
VPORT
  5
19
330
0
100
AcDbSymbolTable
 70
     1
  0
VPORT
  5
1CB4
330
19
100
AcDbSymbolTableRecord
100
AcDbViewportTableRecord
  2
*Active
 70
     0
 10
0.0
 20
0.0
 11
1.0
 21
1.0
 12
8.244999999999995
 22
5.22
 13
0.0
 23
0.0
 14
0.14
 24
0.14
 15
0.14
 25
0.14
 16
0.0
 26
0.0
 36
1.0
 17
0.0
 27
0.0
 37
0.0
 40
10.53157894736842
 41
2.281112737920937
 42
50.0
 43
0.0
 44
0.0
 50
0.0
 51
0.0
 71
     0
 72
  1000
 73
     1
 74
     1
 75
     0
 76
     0
 77
     0
 78
     0
281
     0
 65
     1
110
0.0
120
0.0
130
0.0
111
1.0
121
0.0
131
0.0
112
0.0
122
1.0
132
0.0
 79
     0
146
0.0
  0
ENDTAB
  0
TABLE
  2
LTYPE
  5
14
330
0
100
AcDbSymbolTable
 70
     1
  0
LTYPE
  5
15
330
14
100
AcDbSymbolTableRecord
100
AcDbLinetypeTableRecord
  2
BYBLOCK
 70
     0
  3

 72
    65
 73
     0
 40
0.0
  0
LTYPE
  5
16
330
14
100
AcDbSymbolTableRecord
100
AcDbLinetypeTableRecord
  2
BYLAYER
 70
     0
  3

 72
    65
 73
     0
 40
0.0
  0
LTYPE
  5
8
330
14
100
AcDbSymbolTableRecord
100
AcDbLinetypeTableRecord
  2
CONTINUOUS
 70
     0
  3
Solid line
 72
    65
 73
     0
 40
0.0
  0
ENDTAB
  0
TABLE
  2
LAYER
  5
10
102
{ACAD_XDICTIONARY
360
1C93
102
}
330
0
100
AcDbSymbolTable
 70
     3
  0
LAYER
  5
4
330
10
100
AcDbSymbolTableRecord
100
AcDbLayerTableRecord
  2
0
 70
     0
 62
     7
  6
CONTINUOUS
370
    -3
390
5
  0
LAYER
  5
22
330
10
100
AcDbSymbolTableRecord
100
AcDbLayerTableRecord
  2
image
 70
     0
 62
     7
  6
CONTINUOUS
370
    -3
390
5
  0
LAYER
  5
1C5E
330
10
100
AcDbSymbolTableRecord
100
AcDbLayerTableRecord
  2
title
 70
     0
 62
     4
  6
CONTINUOUS
370
    -3
390
5
  0
ENDTAB
  0
TABLE
  2
STYLE
  5
11
330
0
100
AcDbSymbolTable
 70
     6
  0
STYLE
  5
12
330
11
100
AcDbSymbolTableRecord
100
AcDbTextStyleTableRecord
  2
STANDARD
 70
     0
 40
0.0
 41
1.0
 50
0.0
 71
     0
 42
0.2
  3
txt
  4

  0
STYLE
  5
23
330
11
100
AcDbSymbolTableRecord
100
AcDbTextStyleTableRecord
  2
ROMANS
 70
     0
 40
0.0
 41
1.0
 50
0.0
 71
     0
 42
0.125
  3
romans.shx
  4

  0
STYLE
  5
3B
330
11
100
AcDbSymbolTableRecord
100
AcDbTextStyleTableRecord
  2
arial
 70
     0
 40
0.0
 41
1.0
 50
0.0
 71
     0
 42
0.15
  3
ARIAL.TTF
  4

1001
ACAD
1000
Arial
1071
       34
  0
STYLE
  5
1C5F
330
11
100
AcDbSymbolTableRecord
100
AcDbTextStyleTableRecord
  2
L100
 70
     0
 40
0.1
 41
1.0
 50
0.0
 71
     0
 42
0.1
  3
romans.shx
  4

  0
STYLE
  5
1C60
330
11
100
AcDbSymbolTableRecord
100
AcDbTextStyleTableRecord
  2
L200
 70
     0
 40
0.2
 41
1.0
 50
0.0
 71
     0
 42
0.081
  3
ARIAL.TTF
  4

1001
ACAD
1000
Arial
1071
       34
  0
STYLE
  5
1C61
330
11
100
AcDbSymbolTableRecord
100
AcDbTextStyleTableRecord
  2
L80
 70
     0
 40
0.08
 41
1.0
 50
0.0
 71
     0
 42
0.08
  3
ROMANS
  4

  0
ENDTAB
  0
TABLE
  2
VIEW
  5
17
330
0
100
AcDbSymbolTable
 70
     0
  0
ENDTAB
  0
TABLE
  2
UCS
  5
18
330
0
100
AcDbSymbolTable
 70
     0
  0
ENDTAB
  0
TABLE
  2
APPID
  5
1B
330
0
100
AcDbSymbolTable
 70
    14
  0
APPID
  5
1C
330
1B
100
AcDbSymbolTableRecord
100
AcDbRegAppTableRecord
  2
ACAD
 70
     0
  0
APPID
  5
3C
330
1B
100
AcDbSymbolTableRecord
100
AcDbRegAppTableRecord
  2
TCAD
 70
     0
  0
APPID
  5
1C62
330
1B
100
AcDbSymbolTableRecord
100
AcDbRegAppTableRecord
  2
RAK
 70
     0
  0
APPID
  5
1C63
330
1B
100
AcDbSymbolTableRecord
100
AcDbRegAppTableRecord
  2
DCO15
 70
     0
  0
APPID
  5
1CA1
330
1B
100
AcDbSymbolTableRecord
100
AcDbRegAppTableRecord
  2
BBSI_PltSel
 70
     0
  0
APPID
  5
1CA2
330
1B
100
AcDbSymbolTableRecord
100
AcDbRegAppTableRecord
  2
BBSI_Bookmarks
 70
     0
  0
APPID
  5
1CA3
330
1B
100
AcDbSymbolTableRecord
100
AcDbRegAppTableRecord
  2
BBSI_StampsEx
 70
     0
  0
APPID
  5
1CA4
330
1B
100
AcDbSymbolTableRecord
100
AcDbRegAppTableRecord
  2
BBSI_Attachs
 70
     0
  0
APPID
  5
1CA5
330
1B
100
AcDbSymbolTableRecord
100
AcDbRegAppTableRecord
  2
BBSI_DigSigs
 70
     0
  0
APPID
  5
1CA6
330
1B
100
AcDbSymbolTableRecord
100
AcDbRegAppTableRecord
  2
BBSI_Plots
 70
     0
  0
APPID
  5
1CA7
330
1B
100
AcDbSymbolTableRecord
100
AcDbRegAppTableRecord
  2
ACAD_PSEXT
 70
     0
  0
APPID
  5
1D03
330
1B
100
AcDbSymbolTableRecord
100
AcDbRegAppTableRecord
  2
ACAD_MLEADERVER
 70
     0
  0
APPID
  5
1D1A
330
1B
100
AcDbSymbolTableRecord
100
AcDbRegAppTableRecord
  2
BBSI_BookmarksEx
 70
     0
  0
APPID
  5
1D3A
330
1B
100
AcDbSymbolTableRecord
100
AcDbRegAppTableRecord
  2
ACAD_EXEMPT_FROM_CAD_STANDARDS
 70
     0
  0
ENDTAB
  0
TABLE
  2
DIMSTYLE
  5
1D
330
0
100
AcDbSymbolTable
 70
     1
100
AcDbDimStyleTable
 71
     0
  0
DIMSTYLE
105
25
330
1D
100
AcDbSymbolTableRecord
100
AcDbDimStyleTableRecord
  2
STANDARD
 70
     0
340
12
  0
ENDTAB
  0
TABLE
  2
BLOCK_RECORD
  5
1
330
0
100
AcDbSymbolTable
 70
     2
  0
BLOCK_RECORD
  5
2
102
{ACAD_XDICTIONARY
360
1D98
102
}
330
1
100
AcDbSymbolTableRecord
100
AcDbBlockTableRecord
  2
*MODEL_SPACE
340
A
  0
BLOCK_RECORD
  5
C
330
1
100
AcDbSymbolTableRecord
100
AcDbBlockTableRecord
  2
*PAPER_SPACE
340
F
  0
BLOCK_RECORD
  5
1C64
102
{ACAD_XDICTIONARY
360
1DA6
102
}
330
1
100
AcDbSymbolTableRecord
100
AcDbBlockTableRecord
  2
titleblock
340
0
102
{BLKREFS
331
1C72
102
}
  0
ENDTAB
  0
ENDSEC
  0
SECTION
  2
BLOCKS
  0
BLOCK
  5
3
330
2
100
AcDbEntity
  8
0
100
AcDbBlockBegin
  2
*MODEL_SPACE
 70
     0
 10
0.0
 20
0.0
 30
0.0
  3
*MODEL_SPACE
  1

  0
ENDBLK
  5
9
330
2
100
AcDbEntity
  8
0
100
AcDbBlockEnd
  0
BLOCK
  5
D
330
C
100
AcDbEntity
 67
     1
  8
0
100
AcDbBlockBegin
  2
*PAPER_SPACE
 70
     0
 10
0.0
 20
0.0
 30
0.0
  3
*PAPER_SPACE
  1

  0
ENDBLK
  5
E
330
C
100
AcDbEntity
 67
     1
  8
0
100
AcDbBlockEnd
  0
BLOCK
  5
1C70
330
1C64
100
AcDbEntity
  8
0
100
AcDbBlockBegin
  2
titleblock
 70
     2
 10
0.0
 20
0.0
 30
0.0
  3
titleblock
  1

  0
LWPOLYLINE
  5
1C65
330
1C64
100
AcDbEntity
  8
title
100
AcDbPolyline
 90
        4
 70
     1
 43
0.0
 10
0.0
 20
0.0
 10
16.48999999999999
 20
0.0000000000000001
 10
16.48999999999999
 20
10.44
 10
0.0
 20
10.44
  0
ATTDEF
  5
1C66
330
1C64
100
AcDbEntity
  8
title
100
AcDbText
 10
0.5055556038023421
 20
0.7842270964783673
 30
0.0
 40
0.2
  1
D
  7
L200
 72
     4
 11
0.6064423705144839
 21
0.8842270964783672
 31
0.0
100
AcDbAttributeDefinition
  3
#
  2
D
 70
     0
  0
ATTDEF
  5
1C67
330
1C64
100
AcDbEntity
  8
title
100
AcDbText
 10
1.231442370514484
 20
1.34371230274675
 30
0.0
 40
0.2
  1

  7
L200
100
AcDbAttributeDefinition
  3
DETAIL TITLE TOP LINE
  2
TITLE1
 70
     0
  0
ATTDEF
  5
1C68
330
1C64
100
AcDbEntity
  8
title
100
AcDbText
 10
1.231442370514484
 20
0.9842270964783674
 30
0.0
 40
0.2
  1
TITLE
  7
L200
100
AcDbAttributeDefinition
  3
DETAIL TITLE TOP 2ND LINE
  2
TITLE2
 70
     0
  0
ATTDEF
  5
1C69
330
1C64
100
AcDbEntity
  8
title
100
AcDbText
 10
2.713645751168312
 20
0.5927927664583189
 30
0.0
 40
0.2
  1
TITLE2
  7
L200
100
AcDbAttributeDefinition
  3
DETAIL TITLE BOTTOM 1
  2
TITLE3
 70
     0
  0
ATTDEF
  5
1C6A
330
1C64
100
AcDbEntity
  8
title
100
AcDbText
 10
2.713645751168312
 20
0.2692560808167741
 30
0.0
 40
0.2
  1

  7
L200
100
AcDbAttributeDefinition
  3
DETAIL TITLE BOTTOM 2
  2
TITLE4
 70
     0
  0
ATTDEF
  5
1C6B
330
1C64
100
AcDbEntity
  8
title
 62
     7
100
AcDbText
 10
8.177214829966379
 20
0.9696027915446398
 30
0.0
 40
0.08
  1
-
  7
L80
 72
     2
 11
8.261024353775903
 21
0.9696027915446398
 31
0.0
100
AcDbAttributeDefinition
  3
REVISION DATE
  2
REVISED
 70
     0
  0
ATTDEF
  5
1C6C
330
1C64
100
AcDbEntity
  8
title
 62
     7
100
AcDbText
 10
0.2639423705144838
 20
0.0847116480207214
 30
0.0
 40
0.08
  1
-
  7
L80
100
AcDbAttributeDefinition
  3
DWG-NAME
  2
DWG-NAME
 70
     0
  0
LWPOLYLINE
  5
1C6D
330
1C64
100
AcDbEntity
  8
title
 62
     3
100
AcDbPolyline
 90
        2
 70
     1
 43
0.03
 10
0.6064423705144839
 20
0.5417270964783675
 42
0.9999999999999998
 10
0.6064423705144839
 20
1.226727096478367
 42
0.9999999999999998
  0
ATTDEF
  5
1C6E
330
1C64
100
AcDbEntity
  8
title
 62
     7
100
AcDbText
 10
1.231442370514484
 20
0.7005637793954894
 30
0.0
 40
0.1
  1
N.T.S.
  7
L100
100
AcDbAttributeDefinition
  3
SCALE
  2
SCALE
 70
     0
  0
LWPOLYLINE
  5
1C6F
330
1C64
100
AcDbEntity
  8
title
 62
     3
100
AcDbPolyline
 90
        2
 70
     0
 43
0.04
 39
0.03
 10
0.9489423705144833
 20
0.8842270964783672
 10
8.261024353775903
 20
0.8842270964783672
  0
ENDBLK
  5
1C71
330
1C64
100
AcDbEntity
  8
0
100
AcDbBlockEnd
  0
ENDSEC
  0
SECTION
  2
ENTITIES
  0
POLYLINE
  5
BF8
330
2
100
AcDbEntity
  8
image
 62
     5
100
AcDb2dPolyline
 66
     1
 10
0.0
 20
0.0
 30
0.0
 70
     4
 40
0.037
 41
0.037
 75
     6
  0
VERTEX
  5
BF9
330
BF8
100
AcDbEntity
  8
image
 62
     5
100
AcDbVertex
100
AcDb2dVertex
 10
5.720315939491611
 20
6.613063114604615
 30
0.0
 70
    16
  0
VERTEX
  5
BFA
330
BF8
100
AcDbEntity
  8
image
 62
     5
100
AcDbVertex
100
AcDb2dVertex
 10
5.720315939491611
 20
6.613063114604615
 30
0.0
 70
     8
  0
VERTEX
  5
BFB
330
BF8
100
AcDbEntity
  8
image
 62
     5
100
AcDbVertex
100
AcDb2dVertex
 10
5.638663276167739
 20
6.615705188200655
 30
0.0
 70
     8
  0
VERTEX
  5
BFC
330
BF8
100
AcDbEntity
  8
image
 62
     5
100
AcDbVertex
100
AcDb2dVertex
 10
5.563115928096642
 20
6.618195010046006
 30
0.0
 70
     8
  0
VERTEX
  5
BFD
330
BF8
100
AcDbEntity
  8
image
 62
     5
100
AcDbVertex
100
AcDb2dVertex
 10
5.493149087113216
 20
6.620577479794869
 30
0.0
 70
     8
  0
VERTEX
  5
BFE
330
BF8
100
AcDbEntity
  8
image
 62
     5
100
AcDbVertex
100
AcDb2dVertex
 10
5.428237945052358
 20
6.622897497101446
 30
0.0
 70
     8
  0
VERTEX
  5
BFF
330
BF8
100
AcDbEntity
  8
image
 62
     5
100
AcDbVertex
100
AcDb2dVertex
 10
5.367857693748965
 20
6.625199961619932
 30
0.0
 70
     8
  0
VERTEX
  5
C00
330
BF8
100
AcDbEntity
  8
image
 62
     5
100
AcDbVertex
100
AcDb2dVertex
 10
5.311483525037934
 20
6.627529773004527
 30
0.0
 70
     8
  0
VERTEX
  5
C01
330
BF8
100
AcDbEntity
  8
image
 62
     5
100
AcDbVertex
100
AcDb2dVertex
 10
5.258590630754162
 20
6.629931830909425
 30
0.0
 70
     8
  0
VERTEX
  5
C02
330
BF8
100
AcDbEntity
  8
image
 62
     5
100
AcDbVertex
100
AcDb2dVertex
 10
5.208654202732552
 20
6.632451034988834
 30
0.0
 70
     8
  0
VERTEX
  5
C03
330
BF8
100
AcDbEntity
  8
image
 62
     5
100
AcDbVertex
100
AcDb2dVertex
 10
5.161152468271672
 20
6.635138305531091
 30
0.0
 70
     8
  0
VERTEX
  5
C04
330
BF8
100
AcDbEntity
  8
image
 62
     5
100
AcDbVertex
100
AcDb2dVertex
 10
5.115575796524772
 20
6.638068645361135
 30
0.0
 70
     8
  0
VERTEX
  5
C05
330
BF8
100
AcDbEntity
  8
image
 62
     5
100
AcDbVertex
100
AcDb2dVertex
 10
5.071417592108782
 20
6.641323077938045
 30
0.0
 70
     8
  0
VERTEX
  5
C06
330
BF8
100
AcDbEntity
  8
image
 62
     5
100
AcDbVertex
100
AcDb2dVertex
 10
5.028171259640621
 20
6.644982626720901
 30
0.0
 70
     8
  0
VERTEX
  5
C07
330
BF8
100
AcDbEntity
  8
image
 62
     5
100
AcDbVertex
100
AcDb2dVertex
 10
4.985330203737219
 20
6.649128315168782
 30
0.0
 70
     8
  0
VERTEX
  5
C08
330
BF8
100
AcDbEntity
  8
image
 62
     5
100
AcDbVertex
100
AcDb2dVertex
 10
4.942387829015493
 20
6.653841166740773
 30
0.0
 70
     8
  0
VERTEX
  5
C09
330
BF8
100
AcDbEntity
  8
image
 62
     5
100
AcDbVertex
100
AcDb2dVertex
 10
4.898837540092379
 20
6.659202204895956
 30
0.0
 70
     8
  0
VERTEX
  5
C0A
330
BF8
100
AcDbEntity
  8
image
 62
     5
100
AcDbVertex
100
AcDb2dVertex
 10
4.854172741584792
 20
6.665292453093409
 30
0.0
 70
     8
  0
VERTEX
  5
C0B
330
BF8
100
AcDbEntity
  8
image
 62
     5
100
AcDbVertex
100
AcDb2dVertex
 10
4.807996600411722
 20
6.672189558764811
 30
0.0
 70
     8
  0
VERTEX
  5
C0C
330
BF8
100
AcDbEntity
  8
image
 62
     5
100
AcDbVertex
100
AcDb2dVertex
 10
4.76035133270038
 20
6.679957665232278
 30
0.0
 70
     8
  0
VERTEX
  5
C0D
330
BF8
100
AcDbEntity
  8
image
 62
     5
100
AcDbVertex
100
AcDb2dVertex
 10
4.711388916880035
 20
6.688657539790513
 30
0.0
 70
     8
  0
VERTEX
  5
C0E
330
BF8
100
AcDbEntity
  8
image
 62
     5
100
AcDbVertex
100
AcDb2dVertex
 10
4.661261331379964
 20
6.698349949734231
 30
0.0
 70
     8
  0
VERTEX
  5
C0F
330
BF8
100
AcDbEntity
  8
image
 62
     5
100
AcDbVertex
100
AcDb2dVertex
 10
4.610120554629438
 20
6.709095662358135
 30
0.0
 70
     8
  0
VERTEX
  5
C10
330
BF8
100
AcDbEntity
  8
image
 62
     5
100
AcDbVertex
100
AcDb2dVertex
 10
4.558118565057724
 20
6.720955444956944
 30
0.0
 70
     8
  0
VERTEX
  5
C11
330
BF8
100
AcDbEntity
  8
image
 62
     5
100
AcDbVertex
100
AcDb2dVertex
 10
4.505407341094101
 20
6.733990064825357
 30
0.0
 70
     8
  0
VERTEX
  5
C12
330
BF8
100
AcDbEntity
  8
image
 62
     5
100
AcDbVertex
100
AcDb2dVertex
 10
4.452138861167838
 20
6.748260289258093
 30
0.0
 70
     8
  0
VERTEX
  5
C13
330
BF8
100
AcDbEntity
  8
image
 62
     5
100
AcDbVertex
100
AcDb2dVertex
 10
4.398503942756721
 20
6.76379987783911
 30
0.0
 70
     8
  0
VERTEX
  5
C14
330
BF8
100
AcDbEntity
  8
image
 62
     5
100
AcDbVertex
100
AcDb2dVertex
 10
4.344848759532612
 20
6.780534559309378
 30
0.0
 70
     8
  0
VERTEX
  5
C15
330
BF8
100
AcDbEntity
  8
image
 62
     5
100
AcDbVertex
100
AcDb2dVertex
 10
4.291558324215883
 20
6.798363054699125
 30
0.0
 70
     8
  0
VERTEX
  5
C16
330
BF8
100
AcDbEntity
  8
image
 62
     5
100
AcDbVertex
100
AcDb2dVertex
 10
4.239017649526913
 20
6.817184085038563
 30
0.0
 70
     8
  0
VERTEX
  5
C17
330
BF8
100
AcDbEntity
  8
image
 62
     5
100
AcDbVertex
100
AcDb2dVertex
 10
4.187611748186077
 20
6.836896371357925
 30
0.0
 70
     8
  0
VERTEX
  5
C18
330
BF8
100
AcDbEntity
  8
image
 62
     5
100
AcDbVertex
100
AcDb2dVertex
 10
4.137725632913748
 20
6.857398634687429
 30
0.0
 70
     8
  0
VERTEX
  5
C19
330
BF8
100
AcDbEntity
  8
image
 62
     5
100
AcDbVertex
100
AcDb2dVertex
 10
4.089744316430301
 20
6.878589596057297
 30
0.0
 70
     8
  0
VERTEX
  5
C1A
330
BF8
100
AcDbEntity
  8
image
 62
     5
100
AcDbVertex
100
AcDb2dVertex
 10
4.044052811456114
 20
6.900367976497753
 30
0.0
 70
     8
  0
VERTEX
  5
C1B
330
BF8
100
AcDbEntity
  8
image
 62
     5
100
AcDbVertex
100
AcDb2dVertex
 10
4.000938188850859
 20
6.922710144307286
 30
0.0
 70
     8
  0
VERTEX
  5
C1C
330
BF8
100
AcDbEntity
  8
image
 62
     5
100
AcDbVertex
100
AcDb2dVertex
 10
3.960295752031426
 20
6.945903056857455
 30
0.0
 70
     8
  0
VERTEX
  5
C1D
330
BF8
100
AcDbEntity
  8
image
 62
     5
100
AcDbVertex
100
AcDb2dVertex
 10
3.921922862554001
 20
6.970311318788082
 30
0.0
 70
     8
  0
VERTEX
  5
C1E
330
BF8
100
AcDbEntity
  8
image
 62
     5
100
AcDbVertex
100
AcDb2dVertex
 10
3.885616881974768
 20
6.996299534738996
 30
0.0
 70
     8
  0
VERTEX
  5
C1F
330
BF8
100
AcDbEntity
  8
image
 62
     5
100
AcDbVertex
100
AcDb2dVertex
 10
3.851175171849912
 20
7.02423230935002
 30
0.0
 70
     8
  0
VERTEX
  5
C20
330
BF8
100
AcDbEntity
  8
image
 62
     5
100
AcDbVertex
100
AcDb2dVertex
 10
3.818395093735623
 20
7.054474247260978
 30
0.0
 70
     8
  0
VERTEX
  5
C21
330
BF8
100
AcDbEntity
  8
image
 62
     5
100
AcDbVertex
100
AcDb2dVertex
 10
3.787074009188084
 20
7.087389953111694
 30
0.0
 70
     8
  0
VERTEX
  5
C22
330
BF8
100
AcDbEntity
  8
image
 62
     5
100
AcDbVertex
100
AcDb2dVertex
 10
3.757009279763487
 20
7.123344031541998
 30
0.0
 70
     8
  0
VERTEX
  5
C23
330
BF8
100
AcDbEntity
  8
image
 62
     5
100
AcDbVertex
100
AcDb2dVertex
 10
3.728048082308841
 20
7.162593056194376
 30
0.0
 70
     8
  0
VERTEX
  5
C24
330
BF8
100
AcDbEntity
  8
image
 62
     5
100
AcDbVertex
100
AcDb2dVertex
 10
3.700236854834493
 20
7.204961476722006
 30
0.0
 70
     8
  0
VERTEX
  5
C25
330
BF8
100
AcDbEntity
  8
image
 62
     5
100
AcDbVertex
100
AcDb2dVertex
 10
3.673671850641611
 20
7.250165711780715
 30
0.0
 70
     8
  0
VERTEX
  5
C26
330
BF8
100
AcDbEntity
  8
image
 62
     5
100
AcDbVertex
100
AcDb2dVertex
 10
3.648449323031361
 20
7.297922180026349
 30
0.0
 70
     8
  0
VERTEX
  5
C27
330
BF8
100
AcDbEntity
  8
image
 62
     5
100
AcDbVertex
100
AcDb2dVertex
 10
3.624665525304919
 20
7.347947300114737
 30
0.0
 70
     8
  0
VERTEX
  5
C28
330
BF8
100
AcDbEntity
  8
image
 62
     5
100
AcDbVertex
100
AcDb2dVertex
 10
3.602416710763449
 20
7.399957490701725
 30
0.0
 70
     8
  0
VERTEX
  5
C29
330
BF8
100
AcDbEntity
  8
image
 62
     5
100
AcDbVertex
100
AcDb2dVertex
 10
3.58179913270813
 20
7.453669170443147
 30
0.0
 70
     8
  0
VERTEX
  5
C2A
330
BF8
100
AcDbEntity
  8
image
 62
     5
100
AcDbVertex
100
AcDb2dVertex
 10
3.562909044440125
 20
7.508798757994837
 30
0.0
 70
     8
  0
VERTEX
  5
C2B
330
BF8
100
AcDbEntity
  8
image
 62
     5
100
AcDbVertex
100
AcDb2dVertex
 10
3.545837918972747
 20
7.564962442916217
 30
0.0
 70
     8
  0
VERTEX
  5
C2C
330
BF8
100
AcDbEntity
  8
image
 62
     5
100
AcDbVertex
100
AcDb2dVertex
 10
3.530658108167855
 20
7.62137549838104
 30
0.0
 70
     8
  0
VERTEX
  5
C2D
330
BF8
100
AcDbEntity
  8
image
 62
     5
100
AcDbVertex
100
AcDb2dVertex
 10
3.517437183599447
 20
7.677152968466641
 30
0.0
 70
     8
  0
VERTEX
  5
C2E
330
BF8
100
AcDbEntity
  8
image
 62
     5
100
AcDbVertex
100
AcDb2dVertex
 10
3.506242716841526
 20
7.731409897250349
 30
0.0
 70
     8
  0
VERTEX
  5
C2F
330
BF8
100
AcDbEntity
  8
image
 62
     5
100
AcDbVertex
100
AcDb2dVertex
 10
3.497142279468086
 20
7.7832613288095
 30
0.0
 70
     8
  0
VERTEX
  5
C30
330
BF8
100
AcDbEntity
  8
image
 62
     5
100
AcDbVertex
100
AcDb2dVertex
 10
3.490203443053129
 20
7.831822307221431
 30
0.0
 70
     8
  0
VERTEX
  5
C31
330
BF8
100
AcDbEntity
  8
image
 62
     5
100
AcDbVertex
100
AcDb2dVertex
 10
3.485493779170653
 20
7.876207876563471
 30
0.0
 70
     8
  0
VERTEX
  5
C32
330
BF8
100
AcDbEntity
  8
image
 62
     5
100
AcDbVertex
100
AcDb2dVertex
 10
3.483080859394661
 20
7.915533080912959
 30
0.0
 70
     8
  0
VERTEX
  5
C33
330
BF8
100
AcDbEntity
  8
image
 62
     5
100
AcDbVertex
100
AcDb2dVertex
 10
5.493968587477509
 20
6.620351557332034
 30
0.0
 70
    16
  0
VERTEX
  5
C34
330
BF8
100
AcDbEntity
  8
image
 62
     5
100
AcDbVertex
100
AcDb2dVertex
 10
5.182716516363945
 20
6.630722546149319
 30
0.0
 70
    16
  0
VERTEX
  5
C35
330
BF8
100
AcDbEntity
  8
image
 62
     5
100
AcDbVertex
100
AcDb2dVertex
 10
4.871464527905263
 20
6.656649962412336
 30
0.0
 70
    16
  0
VERTEX
  5
C36
330
BF8
100
AcDbEntity
  8
image
 62
     5
100
AcDbVertex
100
AcDb2dVertex
 10
4.456461821523766
 20
6.734432322761778
 30
0.0
 70
    16
  0
VERTEX
  5
C37
330
BF8
100
AcDbEntity
  8
image
 62
     5
100
AcDbVertex
100
AcDb2dVertex
 10
4.015521353006689
 20
6.89518248208911
 30
0.0
 70
    16
  0
VERTEX
  5
C38
330
BF8
100
AcDbEntity
  8
image
 62
     5
100
AcDbVertex
100
AcDb2dVertex
 10
3.745769635186157
 20
7.087045607868295
 30
0.0
 70
    16
  0
VERTEX
  5
C39
330
BF8
100
AcDbEntity
  8
image
 62
     5
100
AcDbVertex
100
AcDb2dVertex
 10
3.5434557848296
 20
7.496699275689687
 30
0.0
 70
    16
  0
VERTEX
  5
C3A
330
BF8
100
AcDbEntity
  8
image
 62
     5
100
AcDbVertex
100
AcDb2dVertex
 10
3.486392923034003
 20
7.818199650124546
 30
0.0
 70
    16
  0
VERTEX
  5
C3B
330
BF8
100
AcDbEntity
  8
image
 62
     5
100
AcDbVertex
100
AcDb2dVertex
 10
3.483080859394661
 20
7.915533080912959
 30
0.0
 70
    16
  0
SEQEND
  5
C3C
330
BF8
100
AcDbEntity
  8
image
 62
     5
  0
POLYLINE
  5
C3D
330
2
100
AcDbEntity
  8
image
 62
     5
100
AcDb2dPolyline
 66
     1
 10
0.0
 20
0.0
 30
0.0
 70
     4
 40
0.037
 41
0.037
 75
     6
  0
VERTEX
  5
C3E
330
C3D
100
AcDbEntity
  8
image
 62
     5
100
AcDbVertex
100
AcDb2dVertex
 10
3.535024078011375
 20
7.916637975045533
 30
0.0
 70
    16
  0
VERTEX
  5
C3F
330
C3D
100
AcDbEntity
  8
image
 62
     5
100
AcDbVertex
100
AcDb2dVertex
 10
3.535024078011375
 20
7.916637975045533
 30
0.0
 70
     8
  0
VERTEX
  5
C40
330
C3D
100
AcDbEntity
  8
image
 62
     5
100
AcDbVertex
100
AcDb2dVertex
 10
3.546473909276748
 20
7.838508201605433
 30
0.0
 70
     8
  0
VERTEX
  5
C41
330
C3D
100
AcDbEntity
  8
image
 62
     5
100
AcDbVertex
100
AcDb2dVertex
 10
3.55828642538696
 20
7.773870100596001
 30
0.0
 70
     8
  0
VERTEX
  5
C42
330
C3D
100
AcDbEntity
  8
image
 62
     5
100
AcDbVertex
100
AcDb2dVertex
 10
3.570447819506433
 20
7.720773073789024
 30
0.0
 70
     8
  0
VERTEX
  5
C43
330
C3D
100
AcDbEntity
  8
image
 62
     5
100
AcDbVertex
100
AcDb2dVertex
 10
3.582944284799587
 20
7.677266522956303
 30
0.0
 70
     8
  0
VERTEX
  5
C44
330
C3D
100
AcDbEntity
  8
image
 62
     5
100
AcDbVertex
100
AcDb2dVertex
 10
3.595762014430839
 20
7.64139984986963
 30
0.0
 70
     8
  0
VERTEX
  5
C45
330
C3D
100
AcDbEntity
  8
image
 62
     5
100
AcDbVertex
100
AcDb2dVertex
 10
3.608887201564609
 20
7.611222456300806
 30
0.0
 70
     8
  0
VERTEX
  5
C46
330
C3D
100
AcDbEntity
  8
image
 62
     5
100
AcDbVertex
100
AcDb2dVertex
 10
3.622306039365316
 20
7.584783744021626
 30
0.0
 70
     8
  0
VERTEX
  5
C47
330
C3D
100
AcDbEntity
  8
image
 62
     5
100
AcDbVertex
100
AcDb2dVertex
 10
3.636004720997377
 20
7.560133114803887
 30
0.0
 70
     8
  0
VERTEX
  5
C48
330
C3D
100
AcDbEntity
  8
image
 62
     5
100
AcDbVertex
100
AcDb2dVertex
 10
3.649990831498818
 20
7.53565091819288
 30
0.0
 70
     8
  0
VERTEX
  5
C49
330
C3D
100
AcDbEntity
  8
image
 62
     5
100
AcDbVertex
100
AcDb2dVertex
 10
3.664357523402102
 20
7.511041294827885
 30
0.0
 70
     8
  0
VERTEX
  5
C4A
330
C3D
100
AcDbEntity
  8
image
 62
     5
100
AcDbVertex
100
AcDb2dVertex
 10
3.679219341113295
 20
7.486339333121682
 30
0.0
 70
     8
  0
VERTEX
  5
C4B
330
C3D
100
AcDbEntity
  8
image
 62
     5
100
AcDbVertex
100
AcDb2dVertex
 10
3.694690829038464
 20
7.461580121487047
 30
0.0
 70
     8
  0
VERTEX
  5
C4C
330
C3D
100
AcDbEntity
  8
image
 62
     5
100
AcDbVertex
100
AcDb2dVertex
 10
3.710886531583675
 20
7.436798748336757
 30
0.0
 70
     8
  0
VERTEX
  5
C4D
330
C3D
100
AcDbEntity
  8
image
 62
     5
100
AcDbVertex
100
AcDb2dVertex
 10
3.727920993154995
 20
7.412030302083591
 30
0.0
 70
     8
  0
VERTEX
  5
C4E
330
C3D
100
AcDbEntity
  8
image
 62
     5
100
AcDbVertex
100
AcDb2dVertex
 10
3.745908758158485
 20
7.387309871140329
 30
0.0
 70
     8
  0
VERTEX
  5
C4F
330
C3D
100
AcDbEntity
  8
image
 62
     5
100
AcDbVertex
100
AcDb2dVertex
 10
3.764964371000224
 20
7.362672543919744
 30
0.0
 70
     8
  0
VERTEX
  5
C50
330
C3D
100
AcDbEntity
  8
image
 62
     5
100
AcDbVertex
100
AcDb2dVertex
 10
3.785137713993594
 20
7.338194960986475
 30
0.0
 70
     8
  0
VERTEX
  5
C51
330
C3D
100
AcDbEntity
  8
image
 62
     5
100
AcDbVertex
100
AcDb2dVertex
 10
3.806220021081279
 20
7.314119971512612
 30
0.0
 70
     8
  0
VERTEX
  5
C52
330
C3D
100
AcDbEntity
  8
image
 62
     5
100
AcDbVertex
100
AcDb2dVertex
 10
3.827937864113287
 20
7.290731976822099
 30
0.0
 70
     8
  0
VERTEX
  5
C53
330
C3D
100
AcDbEntity
  8
image
 62
     5
100
AcDbVertex
100
AcDb2dVertex
 10
3.850017814939621
 20
7.268315378238879
 30
0.0
 70
     8
  0
VERTEX
  5
C54
330
C3D
100
AcDbEntity
  8
image
 62
     5
100
AcDbVertex
100
AcDb2dVertex
 10
3.872186445410288
 20
7.247154577086897
 30
0.0
 70
     8
  0
VERTEX
  5
C55
330
C3D
100
AcDbEntity
  8
image
 62
     5
100
AcDbVertex
100
AcDb2dVertex
 10
3.894170327375291
 20
7.227533974690105
 30
0.0
 70
     8
  0
VERTEX
  5
C56
330
C3D
100
AcDbEntity
  8
image
 62
     5
100
AcDbVertex
100
AcDb2dVertex
 10
3.915696032684642
 20
7.209737972372446
 30
0.0
 70
     8
  0
VERTEX
  5
C57
330
C3D
100
AcDbEntity
  8
image
 62
     5
100
AcDbVertex
100
AcDb2dVertex
 10
3.936490133188342
 20
7.194050971457867
 30
0.0
 70
     8
  0
VERTEX
  5
C58
330
C3D
100
AcDbEntity
  8
image
 62
     5
100
AcDbVertex
100
AcDb2dVertex
 10
3.95636541682409
 20
7.180665035165153
 30
0.0
 70
     8
  0
VERTEX
  5
C59
330
C3D
100
AcDbEntity
  8
image
 62
     5
100
AcDbVertex
100
AcDb2dVertex
 10
3.975479535880366
 20
7.169402874292449
 30
0.0
 70
     8
  0
VERTEX
  5
C5A
330
C3D
100
AcDbEntity
  8
image
 62
     5
100
AcDbVertex
100
AcDb2dVertex
 10
3.994076358733351
 20
7.159994861532743
 30
0.0
 70
     8
  0
VERTEX
  5
C5B
330
C3D
100
AcDbEntity
  8
image
 62
     5
100
AcDbVertex
100
AcDb2dVertex
 10
4.012399753759207
 20
7.15217136957902
 30
0.0
 70
     8
  0
VERTEX
  5
C5C
330
C3D
100
AcDbEntity
  8
image
 62
     5
100
AcDbVertex
100
AcDb2dVertex
 10
4.030693589334116
 20
7.145662771124266
 30
0.0
 70
     8
  0
VERTEX
  5
C5D
330
C3D
100
AcDbEntity
  8
image
 62
     5
100
AcDbVertex
100
AcDb2dVertex
 10
4.049201733834244
 20
7.140199438861467
 30
0.0
 70
     8
  0
VERTEX
  5
C5E
330
C3D
100
AcDbEntity
  8
image
 62
     5
100
AcDbVertex
100
AcDb2dVertex
 10
4.068168055635772
 20
7.13551174548361
 30
0.0
 70
     8
  0
VERTEX
  5
C5F
330
C3D
100
AcDbEntity
  8
image
 62
     5
100
AcDbVertex
100
AcDb2dVertex
 10
4.087836423114871
 20
7.131330063683678
 30
0.0
 70
     8
  0
VERTEX
  5
C60
330
C3D
100
AcDbEntity
  8
image
 62
     5
100
AcDbVertex
100
AcDb2dVertex
 10
4.108421144846988
 20
7.127424779385011
 30
0.0
 70
     8
  0
VERTEX
  5
C61
330
C3D
100
AcDbEntity
  8
image
 62
     5
100
AcDbVertex
100
AcDb2dVertex
 10
4.130018290204666
 20
7.123726331432338
 30
0.0
 70
     8
  0
VERTEX
  5
C62
330
C3D
100
AcDbEntity
  8
image
 62
     5
100
AcDbVertex
100
AcDb2dVertex
 10
4.15269436875971
 20
7.120205171900741
 30
0.0
 70
     8
  0
VERTEX
  5
C63
330
C3D
100
AcDbEntity
  8
image
 62
     5
100
AcDbVertex
100
AcDb2dVertex
 10
4.176515890083947
 20
7.116831752865303
 30
0.0
 70
     8
  0
VERTEX
  5
C64
330
C3D
100
AcDbEntity
  8
image
 62
     5
100
AcDbVertex
100
AcDb2dVertex
 10
4.201549363749182
 20
7.113576526401105
 30
0.0
 70
     8
  0
VERTEX
  5
C65
330
C3D
100
AcDbEntity
  8
image
 62
     5
100
AcDbVertex
100
AcDb2dVertex
 10
4.227861299327233
 20
7.11040994458323
 30
0.0
 70
     8
  0
VERTEX
  5
C66
330
C3D
100
AcDbEntity
  8
image
 62
     5
100
AcDbVertex
100
AcDb2dVertex
 10
4.255518206389914
 20
7.107302459486755
 30
0.0
 70
     8
  0
VERTEX
  5
C67
330
C3D
100
AcDbEntity
  8
image
 62
     5
100
AcDbVertex
100
AcDb2dVertex
 10
4.284586594509039
 20
7.104224523186763
 30
0.0
 70
     8
  0
VERTEX
  5
C68
330
C3D
100
AcDbEntity
  8
image
 62
     5
100
AcDbVertex
100
AcDb2dVertex
 10
4.315096947258534
 20
7.101152127982912
 30
0.0
 70
     8
  0
VERTEX
  5
C69
330
C3D
100
AcDbEntity
  8
image
 62
     5
100
AcDbVertex
100
AcDb2dVertex
 10
4.34693564422078
 20
7.09808342707315
 30
0.0
 70
     8
  0
VERTEX
  5
C6A
330
C3D
100
AcDbEntity
  8
image
 62
     5
100
AcDbVertex
100
AcDb2dVertex
 10
4.379953038980274
 20
7.09502211388
 30
0.0
 70
     8
  0
VERTEX
  5
C6B
330
C3D
100
AcDbEntity
  8
image
 62
     5
100
AcDbVertex
100
AcDb2dVertex
 10
4.413999485121514
 20
7.091971881825989
 30
0.0
 70
     8
  0
VERTEX
  5
C6C
330
C3D
100
AcDbEntity
  8
image
 62
     5
100
AcDbVertex
100
AcDb2dVertex
 10
4.448925336228984
 20
7.088936424333637
 30
0.0
 70
     8
  0
VERTEX
  5
C6D
330
C3D
100
AcDbEntity
  8
image
 62
     5
100
AcDbVertex
100
AcDb2dVertex
 10
4.484580945887187
 20
7.085919434825468
 30
0.0
 70
     8
  0
VERTEX
  5
C6E
330
C3D
100
AcDbEntity
  8
image
 62
     5
100
AcDbVertex
100
AcDb2dVertex
 10
4.520816667680615
 20
7.082924606724011
 30
0.0
 70
     8
  0
VERTEX
  5
C6F
330
C3D
100
AcDbEntity
  8
image
 62
     5
100
AcDbVertex
100
AcDb2dVertex
 10
4.557482855193764
 20
7.079955633451783
 30
0.0
 70
     8
  0
VERTEX
  5
C70
330
C3D
100
AcDbEntity
  8
image
 62
     5
100
AcDbVertex
100
AcDb2dVertex
 10
4.594654448275981
 20
7.076995937357944
 30
0.0
 70
     8
  0
VERTEX
  5
C71
330
C3D
100
AcDbEntity
  8
image
 62
     5
100
AcDbVertex
100
AcDb2dVertex
 10
4.633304731836036
 20
7.073947856498184
 30
0.0
 70
     8
  0
VERTEX
  5
C72
330
C3D
100
AcDbEntity
  8
image
 62
     5
100
AcDbVertex
100
AcDb2dVertex
 10
4.674631577047555
 20
7.070693457854821
 30
0.0
 70
     8
  0
VERTEX
  5
C73
330
C3D
100
AcDbEntity
  8
image
 62
     5
100
AcDbVertex
100
AcDb2dVertex
 10
4.719832855084159
 20
7.067114808410179
 30
0.0
 70
     8
  0
VERTEX
  5
C74
330
C3D
100
AcDbEntity
  8
image
 62
     5
100
AcDbVertex
100
AcDb2dVertex
 10
4.770106437119472
 20
7.06309397514658
 30
0.0
 70
     8
  0
VERTEX
  5
C75
330
C3D
100
AcDbEntity
  8
image
 62
     5
100
AcDbVertex
100
AcDb2dVertex
 10
4.826650194327124
 20
7.058513025046343
 30
0.0
 70
     8
  0
VERTEX
  5
C76
330
C3D
100
AcDbEntity
  8
image
 62
     5
100
AcDbVertex
100
AcDb2dVertex
 10
4.890661997880733
 20
7.053254025091794
 30
0.0
 70
     8
  0
VERTEX
  5
C77
330
C3D
100
AcDbEntity
  8
image
 62
     5
100
AcDbVertex
100
AcDb2dVertex
 10
4.963339718953927
 20
7.047199042265253
 30
0.0
 70
     8
  0
VERTEX
  5
C78
330
C3D
100
AcDbEntity
  8
image
 62
     5
100
AcDbVertex
100
AcDb2dVertex
 10
3.565061108849839
 20
7.688569150872654
 30
0.0
 70
    16
  0
VERTEX
  5
C79
330
C3D
100
AcDbEntity
  8
image
 62
     5
100
AcDbVertex
100
AcDb2dVertex
 10
3.633166993042451
 20
7.561866609916039
 30
0.0
 70
    16
  0
VERTEX
  5
C7A
330
C3D
100
AcDbEntity
  8
image
 62
     5
100
AcDbVertex
100
AcDb2dVertex
 10
3.752352187060921
 20
7.361411827808206
 30
0.0
 70
    16
  0
VERTEX
  5
C7B
330
C3D
100
AcDbEntity
  8
image
 62
     5
100
AcDbVertex
100
AcDb2dVertex
 10
3.947210484715216
 20
7.168521342369599
 30
0.0
 70
    16
  0
VERTEX
  5
C7C
330
C3D
100
AcDbEntity
  8
image
 62
     5
100
AcDbVertex
100
AcDb2dVertex
 10
4.077746673208266
 20
7.128808631460602
 30
0.0
 70
    16
  0
VERTEX
  5
C7D
330
C3D
100
AcDbEntity
  8
image
 62
     5
100
AcDbVertex
100
AcDb2dVertex
 10
4.268821361140957
 20
7.104224513890065
 30
0.0
 70
    16
  0
VERTEX
  5
C7E
330
C3D
100
AcDbEntity
  8
image
 62
     5
100
AcDbVertex
100
AcDb2dVertex
 10
4.554487449282144
 20
7.079640452099726
 30
0.0
 70
    16
  0
VERTEX
  5
C7F
330
C3D
100
AcDbEntity
  8
image
 62
     5
100
AcDbVertex
100
AcDb2dVertex
 10
4.756913131689414
 20
7.064511802981067
 30
0.0
 70
    16
  0
VERTEX
  5
C80
330
C3D
100
AcDbEntity
  8
image
 62
     5
100
AcDbVertex
100
AcDb2dVertex
 10
4.963339718953927
 20
7.047199042265253
 30
0.0
 70
    16
  0
SEQEND
  5
C81
330
C3D
100
AcDbEntity
  8
image
 62
     5
  0
LWPOLYLINE
  5
C83
330
2
100
AcDbEntity
  8
image
 62
     5
100
AcDbPolyline
 90
        5
 70
     0
 43
0.037
 10
8.171570621809159
 20
3.948426569025823
 10
8.167560006628256
 20
4.057863540350879
 10
8.155528246681853
 20
4.182095406001124
 42
0.0139660527627623
 10
8.103390591715339
 20
4.451264437124503
 42
-0.0209163935724073
 10
8.08333760140713
 20
4.637129308836614
 42
-1.093220757323432
  0
LWPOLYLINE
  5
C84
330
2
100
AcDbEntity
  8
image
 62
     5
100
AcDbPolyline
 90
        5
 70
     0
 43
0.037
 10
8.2053308342674
 20
3.948426569025823
 10
8.21028300887611
 20
4.057863540350879
 10
8.195426485049971
 20
4.182095406001124
 42
0.0883144897389773
 10
8.140952478757824
 20
4.451264437124503
 42
0.0043157219152193
 10
8.124445144465802
 20
4.637129308836614
 42
-1.093220757323432
  0
MTEXT
  5
C85
330
2
100
AcDbEntity
  8
image
100
AcDbMText
 10
7.891563694704699
 20
3.608677673760256
 30
0.0
 40
0.125
 41
0.8262
 71
     1
 72
     5
  1
SD-210\PTURF\PM13009
  7
arial
 73
     1
 44
1.0
  0
TEXT
  5
C8A
330
2
100
AcDbEntity
  8
image
100
AcDbText
 10
4.224607808256528
 20
5.823266186947039
 30
0.0
 40
0.125
  1
CONNECTORS
  7
arial
100
AcDbText
  0
POLYLINE
  5
C8B
330
2
100
AcDbEntity
  8
image
 62
     5
100
AcDb2dPolyline
 66
     1
 10
0.0
 20
0.0
 30
0.0
 70
     4
 40
0.037
 41
0.037
  0
VERTEX
  5
C8C
330
C8B
100
AcDbEntity
  8
image
 62
     5
100
AcDbVertex
100
AcDb2dVertex
 10
8.124445144465802
 20
4.637129308836614
 30
0.0
 70
    16
  0
VERTEX
  5
C8D
330
C8B
100
AcDbEntity
  8
image
 62
     5
100
AcDbVertex
100
AcDb2dVertex
 10
8.124445144465802
 20
4.637129308836616
 30
0.0
 70
     8
  0
VERTEX
  5
C8E
330
C8B
100
AcDbEntity
  8
image
 62
     5
100
AcDbVertex
100
AcDb2dVertex
 10
8.123330181149782
 20
4.794817103080033
 30
0.0
 70
     8
  0
VERTEX
  5
C8F
330
C8B
100
AcDbEntity
  8
image
 62
     5
100
AcDbVertex
100
AcDb2dVertex
 10
8.116124906676802
 20
4.935380787496947
 30
0.0
 70
     8
  0
VERTEX
  5
C90
330
C8B
100
AcDbEntity
  8
image
 62
     5
100
AcDbVertex
100
AcDb2dVertex
 10
8.103573565510657
 20
5.060787615070372
 30
0.0
 70
     8
  0
VERTEX
  5
C91
330
C8B
100
AcDbEntity
  8
image
 62
     5
100
AcDbVertex
100
AcDb2dVertex
 10
8.086420402115145
 20
5.173004838783304
 30
0.0
 70
     8
  0
VERTEX
  5
C92
330
C8B
100
AcDbEntity
  8
image
 62
     5
100
AcDbVertex
100
AcDb2dVertex
 10
8.06540966095406
 20
5.273999711618754
 30
0.0
 70
     8
  0
VERTEX
  5
C93
330
C8B
100
AcDbEntity
  8
image
 62
     5
100
AcDbVertex
100
AcDb2dVertex
 10
8.041285586491191
 20
5.365739486559716
 30
0.0
 70
     8
  0
VERTEX
  5
C94
330
C8B
100
AcDbEntity
  8
image
 62
     5
100
AcDbVertex
100
AcDb2dVertex
 10
8.014792423190328
 20
5.450191416589204
 30
0.0
 70
     8
  0
VERTEX
  5
C95
330
C8B
100
AcDbEntity
  8
image
 62
     5
100
AcDbVertex
100
AcDb2dVertex
 10
7.986674415515281
 20
5.529322754690218
 30
0.0
 70
     8
  0
VERTEX
  5
C96
330
C8B
100
AcDbEntity
  8
image
 62
     5
100
AcDbVertex
100
AcDb2dVertex
 10
7.957489740968568
 20
5.604806062426915
 30
0.0
 70
     8
  0
VERTEX
  5
C97
330
C8B
100
AcDbEntity
  8
image
 62
     5
100
AcDbVertex
100
AcDb2dVertex
 10
7.927052309207667
 20
5.67713513568807
 30
0.0
 70
     8
  0
VERTEX
  5
C98
330
C8B
100
AcDbEntity
  8
image
 62
     5
100
AcDbVertex
100
AcDb2dVertex
 10
7.894989962928782
 20
5.746509078943608
 30
0.0
 70
     8
  0
VERTEX
  5
C99
330
C8B
100
AcDbEntity
  8
image
 62
     5
100
AcDbVertex
100
AcDb2dVertex
 10
7.860930544828121
 20
5.813126996663458
 30
0.0
 70
     8
  0
VERTEX
  5
C9A
330
C8B
100
AcDbEntity
  8
image
 62
     5
100
AcDbVertex
100
AcDb2dVertex
 10
7.824501897601891
 20
5.87718799331755
 30
0.0
 70
     8
  0
VERTEX
  5
C9B
330
C8B
100
AcDbEntity
  8
image
 62
     5
100
AcDbVertex
100
AcDb2dVertex
 10
7.785331863946311
 20
5.938891173375806
 30
0.0
 70
     8
  0
VERTEX
  5
C9C
330
C8B
100
AcDbEntity
  8
image
 62
     5
100
AcDbVertex
100
AcDb2dVertex
 10
7.743048286557574
 20
5.998435641308153
 30
0.0
 70
     8
  0
VERTEX
  5
C9D
330
C8B
100
AcDbEntity
  8
image
 62
     5
100
AcDbVertex
100
AcDb2dVertex
 10
7.697279008131893
 20
6.056020501584521
 30
0.0
 70
     8
  0
VERTEX
  5
C9E
330
C8B
100
AcDbEntity
  8
image
 62
     5
100
AcDbVertex
100
AcDb2dVertex
 10
7.647715644743321
 20
6.111846605219612
 30
0.0
 70
     8
  0
VERTEX
  5
C9F
330
C8B
100
AcDbEntity
  8
image
 62
     5
100
AcDbVertex
100
AcDb2dVertex
 10
7.594304905977288
 20
6.166121789407215
 30
0.0
 70
     8
  0
VERTEX
  5
CA0
330
C8B
100
AcDbEntity
  8
image
 62
     5
100
AcDbVertex
100
AcDb2dVertex
 10
7.537057274797064
 20
6.219055637885896
 30
0.0
 70
     8
  0
VERTEX
  5
CA1
330
C8B
100
AcDbEntity
  8
image
 62
     5
100
AcDbVertex
100
AcDb2dVertex
 10
7.475983234165916
 20
6.270857734394217
 30
0.0
 70
     8
  0
VERTEX
  5
CA2
330
C8B
100
AcDbEntity
  8
image
 62
     5
100
AcDbVertex
100
AcDb2dVertex
 10
7.411093267047128
 20
6.321737662670747
 30
0.0
 70
     8
  0
VERTEX
  5
CA3
330
C8B
100
AcDbEntity
  8
image
 62
     5
100
AcDbVertex
100
AcDb2dVertex
 10
7.342397856403955
 20
6.371905006454047
 30
0.0
 70
     8
  0
VERTEX
  5
CA4
330
C8B
100
AcDbEntity
  8
image
 62
     5
100
AcDbVertex
100
AcDb2dVertex
 10
7.269907485199681
 20
6.421569349482682
 30
0.0
 70
     8
  0
VERTEX
  5
CA5
330
C8B
100
AcDbEntity
  8
image
 62
     5
100
AcDbVertex
100
AcDb2dVertex
 10
7.19363263639758
 20
6.470940275495218
 30
0.0
 70
     8
  0
VERTEX
  5
CA6
330
C8B
100
AcDbEntity
  8
image
 62
     5
100
AcDbVertex
100
AcDb2dVertex
 10
7.113674648430347
 20
6.520136548610176
 30
0.0
 70
     8
  0
VERTEX
  5
CA7
330
C8B
100
AcDbEntity
  8
image
 62
     5
100
AcDbVertex
100
AcDb2dVertex
 10
7.030498281608451
 20
6.568913654465896
 30
0.0
 70
     8
  0
VERTEX
  5
CA8
330
C8B
100
AcDbEntity
  8
image
 62
     5
100
AcDbVertex
100
AcDb2dVertex
 10
6.944659151711775
 20
6.616936259080675
 30
0.0
 70
     8
  0
VERTEX
  5
CA9
330
C8B
100
AcDbEntity
  8
image
 62
     5
100
AcDbVertex
100
AcDb2dVertex
 10
6.856712874520226
 20
6.663869028472808
 30
0.0
 70
     8
  0
VERTEX
  5
CAA
330
C8B
100
AcDbEntity
  8
image
 62
     5
100
AcDbVertex
100
AcDb2dVertex
 10
6.767215065813687
 20
6.70937662866059
 30
0.0
 70
     8
  0
VERTEX
  5
CAB
330
C8B
100
AcDbEntity
  8
image
 62
     5
100
AcDbVertex
100
AcDb2dVertex
 10
6.676721341372051
 20
6.753123725662325
 30
0.0
 70
     8
  0
VERTEX
  5
CAC
330
C8B
100
AcDbEntity
  8
image
 62
     5
100
AcDbVertex
100
AcDb2dVertex
 10
6.585787316975221
 20
6.794774985496301
 30
0.0
 70
     8
  0
VERTEX
  5
CAD
330
C8B
100
AcDbEntity
  8
image
 62
     5
100
AcDbVertex
100
AcDb2dVertex
 10
6.494968608403077
 20
6.833995074180817
 30
0.0
 70
     8
  0
VERTEX
  5
CAE
330
C8B
100
AcDbEntity
  8
image
 62
     5
100
AcDbVertex
100
AcDb2dVertex
 10
6.404764920441579
 20
6.87048708146497
 30
0.0
 70
     8
  0
VERTEX
  5
CAF
330
C8B
100
AcDbEntity
  8
image
 62
     5
100
AcDbVertex
100
AcDb2dVertex
 10
6.31545231390082
 20
6.904107792021038
 30
0.0
 70
     8
  0
VERTEX
  5
CB0
330
C8B
100
AcDbEntity
  8
image
 62
     5
100
AcDbVertex
100
AcDb2dVertex
 10
6.227250938596988
 20
6.934752414252111
 30
0.0
 70
     8
  0
VERTEX
  5
CB1
330
C8B
100
AcDbEntity
  8
image
 62
     5
100
AcDbVertex
100
AcDb2dVertex
 10
6.140380944346233
 20
6.962316156561266
 30
0.0
 70
     8
  0
VERTEX
  5
CB2
330
C8B
100
AcDbEntity
  8
image
 62
     5
100
AcDbVertex
100
AcDb2dVertex
 10
6.055062480964728
 20
6.986694227351586
 30
0.0
 70
     8
  0
VERTEX
  5
CB3
330
C8B
100
AcDbEntity
  8
image
 62
     5
100
AcDbVertex
100
AcDb2dVertex
 10
5.971515698268631
 20
7.007781835026152
 30
0.0
 70
     8
  0
VERTEX
  5
CB4
330
C8B
100
AcDbEntity
  8
image
 62
     5
100
AcDbVertex
100
AcDb2dVertex
 10
5.889960746074101
 20
7.025474187988047
 30
0.0
 70
     8
  0
VERTEX
  5
CB5
330
C8B
100
AcDbEntity
  8
image
 62
     5
100
AcDbVertex
100
AcDb2dVertex
 10
5.810617774197317
 20
7.039666494640352
 30
0.0
 70
     8
  0
VERTEX
  5
CB6
330
C8B
100
AcDbEntity
  8
image
 62
     5
100
AcDbVertex
100
AcDb2dVertex
 10
5.733800428272444
 20
7.050317578138455
 30
0.0
 70
     8
  0
VERTEX
  5
CB7
330
C8B
100
AcDbEntity
  8
image
 62
     5
100
AcDbVertex
100
AcDb2dVertex
 10
5.660196337205696
 20
7.057640720646984
 30
0.0
 70
     8
  0
VERTEX
  5
CB8
330
C8B
100
AcDbEntity
  8
image
 62
     5
100
AcDbVertex
100
AcDb2dVertex
 10
5.590586625721292
 20
7.061912819082868
 30
0.0
 70
     8
  0
VERTEX
  5
CB9
330
C8B
100
AcDbEntity
  8
image
 62
     5
100
AcDbVertex
100
AcDb2dVertex
 10
5.525752418543446
 20
7.063410770363043
 30
0.0
 70
     8
  0
VERTEX
  5
CBA
330
C8B
100
AcDbEntity
  8
image
 62
     5
100
AcDbVertex
100
AcDb2dVertex
 10
5.466474840396393
 20
7.062411471404436
 30
0.0
 70
     8
  0
VERTEX
  5
CBB
330
C8B
100
AcDbEntity
  8
image
 62
     5
100
AcDbVertex
100
AcDb2dVertex
 10
5.413535016004344
 20
7.059191819123979
 30
0.0
 70
     8
  0
VERTEX
  5
CBC
330
C8B
100
AcDbEntity
  8
image
 62
     5
100
AcDbVertex
100
AcDb2dVertex
 10
5.367714070091522
 20
7.054028710438609
 30
0.0
 70
     8
  0
VERTEX
  5
CBD
330
C8B
100
AcDbEntity
  8
image
 62
     5
100
AcDbVertex
100
AcDb2dVertex
 10
5.329793127382152
 20
7.047199042265253
 30
0.0
 70
     8
  0
VERTEX
  5
CBE
330
C8B
100
AcDbEntity
  8
image
 62
     5
100
AcDbVertex
100
AcDb2dVertex
 10
8.130253874466838
 20
5.082210909239281
 30
0.0
 70
    16
  0
VERTEX
  5
CBF
330
C8B
100
AcDbEntity
  8
image
 62
     5
100
AcDbVertex
100
AcDb2dVertex
 10
7.996067481226198
 20
5.565091703441895
 30
0.0
 70
    16
  0
VERTEX
  5
CC0
330
C8B
100
AcDbEntity
  8
image
 62
     5
100
AcDbVertex
100
AcDb2dVertex
 10
7.73842949709973
 20
6.074799202235746
 30
0.0
 70
    16
  0
VERTEX
  5
CC1
330
C8B
100
AcDbEntity
  8
image
 62
     5
100
AcDbVertex
100
AcDb2dVertex
 10
7.233888579166233
 20
6.471834497122253
 30
0.0
 70
    16
  0
VERTEX
  5
CC2
330
C8B
100
AcDbEntity
  8
image
 62
     5
100
AcDbVertex
100
AcDb2dVertex
 10
6.487812004620806
 20
6.863504462246554
 30
0.0
 70
    16
  0
VERTEX
  5
CC3
330
C8B
100
AcDbEntity
  8
image
 62
     5
100
AcDbVertex
100
AcDb2dVertex
 10
5.784675052769023
 20
7.078118098976434
 30
0.0
 70
    16
  0
VERTEX
  5
CC4
330
C8B
100
AcDbEntity
  8
image
 62
     5
100
AcDbVertex
100
AcDb2dVertex
 10
5.419687970581015
 20
7.067387439452017
 30
0.0
 70
    16
  0
VERTEX
  5
CC5
330
C8B
100
AcDbEntity
  8
image
 62
     5
100
AcDbVertex
100
AcDb2dVertex
 10
5.329793127382152
 20
7.047199042265253
 30
0.0
 70
    16
  0
SEQEND
  5
CC6
330
C8B
100
AcDbEntity
  8
image
 62
     5
  0
POLYLINE
  5
CC7
330
2
100
AcDbEntity
  8
image
 62
     5
100
AcDb2dPolyline
 66
     1
 10
0.0
 20
0.0
 30
0.0
 70
     4
 40
0.037
 41
0.037
  0
VERTEX
  5
CC8
330
CC7
100
AcDbEntity
  8
image
 62
     5
100
AcDbVertex
100
AcDb2dVertex
 10
8.08333760140713
 20
4.637129308836614
 30
0.0
 70
    16
  0
VERTEX
  5
CC9
330
CC7
100
AcDbEntity
  8
image
 62
     5
100
AcDbVertex
100
AcDb2dVertex
 10
8.08333760140713
 20
4.637129308836616
 30
0.0
 70
     8
  0
VERTEX
  5
CCA
330
CC7
100
AcDbEntity
  8
image
 62
     5
100
AcDbVertex
100
AcDb2dVertex
 10
8.077757778931356
 20
4.765067305690157
 30
0.0
 70
     8
  0
VERTEX
  5
CCB
330
CC7
100
AcDbEntity
  8
image
 62
     5
100
AcDbVertex
100
AcDb2dVertex
 10
8.062764593549488
 20
4.896038477865124
 30
0.0
 70
     8
  0
VERTEX
  5
CCC
330
CC7
100
AcDbEntity
  8
image
 62
     5
100
AcDbVertex
100
AcDb2dVertex
 10
8.039495120437081
 20
5.028028038952053
 30
0.0
 70
     8
  0
VERTEX
  5
CCD
330
CC7
100
AcDbEntity
  8
image
 62
     5
100
AcDbVertex
100
AcDb2dVertex
 10
8.009086434769685
 20
5.159021202541479
 30
0.0
 70
     8
  0
VERTEX
  5
CCE
330
CC7
100
AcDbEntity
  8
image
 62
     5
100
AcDbVertex
100
AcDb2dVertex
 10
7.972675611722863
 20
5.287003182223932
 30
0.0
 70
     8
  0
VERTEX
  5
CCF
330
CC7
100
AcDbEntity
  8
image
 62
     5
100
AcDbVertex
100
AcDb2dVertex
 10
7.931399726472157
 20
5.409959191589949
 30
0.0
 70
     8
  0
VERTEX
  5
CD0
330
CC7
100
AcDbEntity
  8
image
 62
     5
100
AcDbVertex
100
AcDb2dVertex
 10
7.886395854193132
 20
5.525874444230067
 30
0.0
 70
     8
  0
VERTEX
  5
CD1
330
CC7
100
AcDbEntity
  8
image
 62
     5
100
AcDbVertex
100
AcDb2dVertex
 10
7.838801070061329
 20
5.632734153734817
 30
0.0
 70
     8
  0
VERTEX
  5
CD2
330
CC7
100
AcDbEntity
  8
image
 62
     5
100
AcDbVertex
100
AcDb2dVertex
 10
7.78951314457128
 20
5.729052607159557
 30
0.0
 70
     8
  0
VERTEX
  5
CD3
330
CC7
100
AcDbEntity
  8
image
 62
     5
100
AcDbVertex
100
AcDb2dVertex
 10
7.738472629493401
 20
5.815460385418946
 30
0.0
 70
     8
  0
VERTEX
  5
CD4
330
CC7
100
AcDbEntity
  8
image
 62
     5
100
AcDbVertex
100
AcDb2dVertex
 10
7.68538077191706
 20
5.893117142892462
 30
0.0
 70
     8
  0
VERTEX
  5
CD5
330
CC7
100
AcDbEntity
  8
image
 62
     5
100
AcDbVertex
100
AcDb2dVertex
 10
7.629938818931655
 20
5.963182533959583
 30
0.0
 70
     8
  0
VERTEX
  5
CD6
330
CC7
100
AcDbEntity
  8
image
 62
     5
100
AcDbVertex
100
AcDb2dVertex
 10
7.571848017626564
 20
6.026816212999792
 30
0.0
 70
     8
  0
VERTEX
  5
CD7
330
CC7
100
AcDbEntity
  8
image
 62
     5
100
AcDbVertex
100
AcDb2dVertex
 10
7.510809615091162
 20
6.085177834392561
 30
0.0
 70
     8
  0
VERTEX
  5
CD8
330
CC7
100
AcDbEntity
  8
image
 62
     5
100
AcDbVertex
100
AcDb2dVertex
 10
7.446524858414839
 20
6.139427052517378
 30
0.0
 70
     8
  0
VERTEX
  5
CD9
330
CC7
100
AcDbEntity
  8
image
 62
     5
100
AcDbVertex
100
AcDb2dVertex
 10
7.378694994686973
 20
6.190723521753715
 30
0.0
 70
     8
  0
VERTEX
  5
CDA
330
CC7
100
AcDbEntity
  8
image
 62
     5
100
AcDbVertex
100
AcDb2dVertex
 10
7.307200236728377
 20
6.239989032073912
 30
0.0
 70
     8
  0
VERTEX
  5
CDB
330
CC7
100
AcDbEntity
  8
image
 62
     5
100
AcDbVertex
100
AcDb2dVertex
 10
7.232636660285606
 20
6.287193915821729
 30
0.0
 70
     8
  0
VERTEX
  5
CDC
330
CC7
100
AcDbEntity
  8
image
 62
     5
100
AcDbVertex
100
AcDb2dVertex
 10
7.155779306836627
 20
6.332070640933787
 30
0.0
 70
     8
  0
VERTEX
  5
CDD
330
CC7
100
AcDbEntity
  8
image
 62
     5
100
AcDbVertex
100
AcDb2dVertex
 10
7.077403217859412
 20
6.374351675346696
 30
0.0
 70
     8
  0
VERTEX
  5
CDE
330
CC7
100
AcDbEntity
  8
image
 62
     5
100
AcDbVertex
100
AcDb2dVertex
 10
6.998283434831954
 20
6.413769486997081
 30
0.0
 70
     8
  0
VERTEX
  5
CDF
330
CC7
100
AcDbEntity
  8
image
 62
     5
100
AcDbVertex
100
AcDb2dVertex
 10
6.91919499923221
 20
6.450056543821558
 30
0.0
 70
     8
  0
VERTEX
  5
CE0
330
CC7
100
AcDbEntity
  8
image
 62
     5
100
AcDbVertex
100
AcDb2dVertex
 10
6.840912952538168
 20
6.482945313756742
 30
0.0
 70
     8
  0
VERTEX
  5
CE1
330
CC7
100
AcDbEntity
  8
image
 62
     5
100
AcDbVertex
100
AcDb2dVertex
 10
6.764212336227807
 20
6.512168264739253
 30
0.0
 70
     8
  0
VERTEX
  5
CE2
330
CC7
100
AcDbEntity
  8
image
 62
     5
100
AcDbVertex
100
AcDb2dVertex
 10
6.689450663402148
 20
6.537518772072713
 30
0.0
 70
     8
  0
VERTEX
  5
CE3
330
CC7
100
AcDbEntity
  8
image
 62
     5
100
AcDbVertex
100
AcDb2dVertex
 10
6.615315333654464
 20
6.559033840528774
 30
0.0
 70
     8
  0
VERTEX
  5
CE4
330
CC7
100
AcDbEntity
  8
image
 62
     5
100
AcDbVertex
100
AcDb2dVertex
 10
6.540076218201079
 20
6.576811382246097
 30
0.0
 70
     8
  0
VERTEX
  5
CE5
330
CC7
100
AcDbEntity
  8
image
 62
     5
100
AcDbVertex
100
AcDb2dVertex
 10
6.462003188258307
 20
6.590949309363333
 30
0.0
 70
     8
  0
VERTEX
  5
CE6
330
CC7
100
AcDbEntity
  8
image
 62
     5
100
AcDbVertex
100
AcDb2dVertex
 10
6.379366115042479
 20
6.601545534019146
 30
0.0
 70
     8
  0
VERTEX
  5
CE7
330
CC7
100
AcDbEntity
  8
image
 62
     5
100
AcDbVertex
100
AcDb2dVertex
 10
6.29043486976991
 20
6.608697968352194
 30
0.0
 70
     8
  0
VERTEX
  5
CE8
330
CC7
100
AcDbEntity
  8
image
 62
     5
100
AcDbVertex
100
AcDb2dVertex
 10
6.193479323656923
 20
6.612504524501131
 30
0.0
 70
     8
  0
VERTEX
  5
CE9
330
CC7
100
AcDbEntity
  8
image
 62
     5
100
AcDbVertex
100
AcDb2dVertex
 10
6.08676934791984
 20
6.613063114604615
 30
0.0
 70
     8
  0
VERTEX
  5
CEA
330
CC7
100
AcDbEntity
  8
image
 62
     5
100
AcDbVertex
100
AcDb2dVertex
 10
8.082019958835893
 20
4.972462145431299
 30
0.0
 70
    16
  0
VERTEX
  5
CEB
330
CC7
100
AcDbEntity
  8
image
 62
     5
100
AcDbVertex
100
AcDb2dVertex
 10
7.854308661284989
 20
5.750817668879696
 30
0.0
 70
    16
  0
VERTEX
  5
CEC
330
CC7
100
AcDbEntity
  8
image
 62
     5
100
AcDbVertex
100
AcDb2dVertex
 10
7.419696167616663
 20
6.209849863183022
 30
0.0
 70
    16
  0
VERTEX
  5
CED
330
CC7
100
AcDbEntity
  8
image
 62
     5
100
AcDbVertex
100
AcDb2dVertex
 10
6.739076636370185
 20
6.554124008910518
 30
0.0
 70
    16
  0
VERTEX
  5
CEE
330
CC7
100
AcDbEntity
  8
image
 62
     5
100
AcDbVertex
100
AcDb2dVertex
 10
6.38587308163634
 20
6.615817129377118
 30
0.0
 70
    16
  0
VERTEX
  5
CEF
330
CC7
100
AcDbEntity
  8
image
 62
     5
100
AcDbVertex
100
AcDb2dVertex
 10
6.08676934791984
 20
6.613063114604615
 30
0.0
 70
    16
  0
SEQEND
  5
CF0
330
CC7
100
AcDbEntity
  8
image
 62
     5
  0
LINE
  5
CF1
330
2
100
AcDbEntity
  8
image
100
AcDbLine
 10
5.803644258016816
 20
6.480821232432697
 30
0.0
 11
5.803644258016816
 21
5.917916931573168
 31
0.0
  0
LINE
  5
CF2
330
2
100
AcDbEntity
  8
image
100
AcDbLine
 10
5.990694823884083
 20
6.480821232432697
 30
0.0
 11
5.990694823884083
 21
5.917916931573168
 31
0.0
  0
TEXT
  5
CF3
330
2
100
AcDbEntity
  8
image
100
AcDbText
 10
4.224607808256528
 20
6.064227987765592
 30
0.0
 40
0.125
  1
DB SERIES WIRE
  7
arial
100
AcDbText
  0
ARC
  5
CF4
330
2
100
AcDbEntity
  8
image
100
AcDbCircle
 10
5.897169540950449
 20
5.917916931573168
 30
0.0
 40
0.093525282933636
100
AcDbArc
 50
180.0
 51
0.0
  0
LINE
  5
CF6
330
2
100
AcDbEntity
  8
image
100
AcDbLine
 10
5.046668037479128
 20
6.914957160093335
 30
0.0
 11
5.046668037479128
 21
6.352052859233806
 31
0.0
  0
LINE
  5
CF7
330
2
100
AcDbEntity
  8
image
100
AcDbLine
 10
5.233718603346399
 20
6.914957160093335
 30
0.0
 11
5.233718603346399
 21
6.352052859233806
 31
0.0
  0
ARC
  5
CF8
330
2
100
AcDbEntity
  8
image
100
AcDbCircle
 10
5.140193320412765
 20
6.352052859233806
 30
0.0
 40
0.093525282933636
100
AcDbArc
 50
180.0
 51
0.0
  0
LINE
  5
CF9
330
2
100
AcDbEntity
  8
image
100
AcDbLine
 10
5.803644258016816
 20
6.480821232432697
 30
0.0
 11
5.990694823884083
 21
6.480821232432697
 31
0.0
  0
LINE
  5
CFA
330
2
100
AcDbEntity
  8
image
100
AcDbLine
 10
5.666144566071792
 20
6.574824498072972
 30
0.0
 11
6.128194515829107
 21
6.574824498072972
 31
0.0
  0
LINE
  5
CFB
330
2
100
AcDbEntity
  8
image
100
AcDbLine
 10
5.666144566071792
 20
6.589163979272337
 30
0.0
 11
6.128194515829107
 21
6.589163979272337
 31
0.0
  0
LINE
  5
CFC
330
2
100
AcDbEntity
  8
image
100
AcDbLine
 10
5.720315939491611
 20
6.636962249936894
 30
0.0
 11
5.720315939491611
 21
6.589163979272337
 31
0.0
  0
LINE
  5
CFD
330
2
100
AcDbEntity
  8
image
100
AcDbLine
 10
5.812725929443074
 20
6.636962249936894
 30
0.0
 11
5.812725929443074
 21
6.589163979272337
 31
0.0
  0
LINE
  5
CFE
330
2
100
AcDbEntity
  8
image
100
AcDbLine
 10
5.825472134953627
 20
6.636962249936894
 30
0.0
 11
5.825472134953627
 21
6.589163979272337
 31
0.0
  0
LINE
  5
CFF
330
2
100
AcDbEntity
  8
image
100
AcDbLine
 10
5.720315939491611
 20
6.636962249936894
 30
0.0
 11
5.825472134953627
 21
6.636962249936894
 31
0.0
  0
LINE
  5
D00
330
2
100
AcDbEntity
  8
image
100
AcDbLine
 10
5.803644258016816
 20
6.480821232432697
 30
0.0
 11
5.717448043251748
 21
6.560485016873608
 31
0.0
  0
LINE
  5
D01
330
2
100
AcDbEntity
  8
image
100
AcDbLine
 10
5.717448043251748
 20
6.560485016873608
 30
0.0
 11
5.717448043251748
 21
6.574824498072972
 31
0.0
  0
LINE
  5
D02
330
2
100
AcDbEntity
  8
image
100
AcDbLine
 10
5.666144566071792
 20
6.560485016873608
 30
0.0
 11
5.666144566071792
 21
6.589163979272337
 31
0.0
  0
LINE
  5
D03
330
2
100
AcDbEntity
  8
image
100
AcDbLine
 10
5.666144566071792
 20
6.560485016873608
 30
0.0
 11
5.717448043251748
 21
6.560485016873608
 31
0.0
  0
LINE
  5
D04
330
2
100
AcDbEntity
  8
image
100
AcDbLine
 10
6.07689103864915
 20
6.560485016873608
 30
0.0
 11
6.128194515829107
 21
6.560485016873608
 31
0.0
  0
LINE
  5
D05
330
2
100
AcDbEntity
  8
image
100
AcDbLine
 10
6.07689103864915
 20
6.560485016873608
 30
0.0
 11
6.07689103864915
 21
6.574824498072972
 31
0.0
  0
LINE
  5
D06
330
2
100
AcDbEntity
  8
image
100
AcDbLine
 10
6.086769347919839
 20
6.636962249936894
 30
0.0
 11
6.086769347919839
 21
6.589163979272337
 31
0.0
  0
LINE
  5
D07
330
2
100
AcDbEntity
  8
image
100
AcDbLine
 10
6.128194515829107
 20
6.589163979272337
 30
0.0
 11
6.128194515829107
 21
6.560485016873608
 31
0.0
  0
LINE
  5
D08
330
2
100
AcDbEntity
  8
image
100
AcDbLine
 10
5.968866946947271
 20
6.636962249936894
 30
0.0
 11
5.968866946947271
 21
6.589163979272337
 31
0.0
  0
LINE
  5
D09
330
2
100
AcDbEntity
  8
image
100
AcDbLine
 10
5.981613152457824
 20
6.636962249936894
 30
0.0
 11
5.981613152457824
 21
6.589163979272337
 31
0.0
  0
LINE
  5
D0A
330
2
100
AcDbEntity
  8
image
100
AcDbLine
 10
5.968866946947271
 20
6.636962249936894
 30
0.0
 11
6.086769347919839
 21
6.636962249936894
 31
0.0
  0
LINE
  5
D0B
330
2
100
AcDbEntity
  8
image
100
AcDbLine
 10
5.990694823884083
 20
6.480821232432697
 30
0.0
 11
6.07689103864915
 21
6.560485016873608
 31
0.0
  0
LINE
  5
D0C
330
2
100
AcDbEntity
  8
image
100
AcDbLine
 10
5.211890726409591
 20
7.071098177597532
 30
0.0
 11
5.329793127382152
 21
7.071098177597532
 31
0.0
  0
LINE
  5
D0D
330
2
100
AcDbEntity
  8
image
100
AcDbLine
 10
5.233718603346399
 20
6.914957160093335
 30
0.0
 11
5.319914818111469
 21
6.994620944534245
 31
0.0
  0
LINE
  5
D0E
330
2
100
AcDbEntity
  8
image
100
AcDbLine
 10
4.909168345534108
 20
7.00896042573361
 30
0.0
 11
5.371218295291426
 21
7.00896042573361
 31
0.0
  0
LINE
  5
D0F
330
2
100
AcDbEntity
  8
image
100
AcDbLine
 10
4.909168345534108
 20
7.023299906932974
 30
0.0
 11
5.371218295291426
 21
7.023299906932974
 31
0.0
  0
LINE
  5
D10
330
2
100
AcDbEntity
  8
image
100
AcDbLine
 10
5.046668037479128
 20
6.914957160093335
 30
0.0
 11
5.233718603346399
 21
6.914957160093335
 31
0.0
  0
LINE
  5
D11
330
2
100
AcDbEntity
  8
image
100
AcDbLine
 10
5.055749708905394
 20
7.071098177597532
 30
0.0
 11
5.055749708905394
 21
7.023299906932974
 31
0.0
  0
LINE
  5
D12
330
2
100
AcDbEntity
  8
image
100
AcDbLine
 10
5.068495914415939
 20
7.071098177597532
 30
0.0
 11
5.068495914415939
 21
7.023299906932974
 31
0.0
  0
LINE
  5
D13
330
2
100
AcDbEntity
  8
image
100
AcDbLine
 10
5.211890726409591
 20
7.071098177597532
 30
0.0
 11
5.211890726409591
 21
7.023299906932974
 31
0.0
  0
LINE
  5
D14
330
2
100
AcDbEntity
  8
image
100
AcDbLine
 10
5.22463693192014
 20
7.071098177597532
 30
0.0
 11
5.22463693192014
 21
7.023299906932974
 31
0.0
  0
LINE
  5
D15
330
2
100
AcDbEntity
  8
image
100
AcDbLine
 10
4.963339718953927
 20
7.071098177597532
 30
0.0
 11
4.963339718953927
 21
7.023299906932974
 31
0.0
  0
LINE
  5
D16
330
2
100
AcDbEntity
  8
image
100
AcDbLine
 10
4.960471822714061
 20
6.994620944534245
 30
0.0
 11
4.960471822714061
 21
7.00896042573361
 31
0.0
  0
LINE
  5
D17
330
2
100
AcDbEntity
  8
image
100
AcDbLine
 10
4.909168345534108
 20
6.994620944534245
 30
0.0
 11
4.909168345534108
 21
7.023299906932974
 31
0.0
  0
LINE
  5
D18
330
2
100
AcDbEntity
  8
image
100
AcDbLine
 10
4.909168345534108
 20
6.994620944534245
 30
0.0
 11
4.960471822714061
 21
6.994620944534245
 31
0.0
  0
LINE
  5
D19
330
2
100
AcDbEntity
  8
image
100
AcDbLine
 10
4.963339718953927
 20
7.071098177597532
 30
0.0
 11
5.068495914415939
 21
7.071098177597532
 31
0.0
  0
LINE
  5
D1A
330
2
100
AcDbEntity
  8
image
100
AcDbLine
 10
5.046668037479128
 20
6.914957160093335
 30
0.0
 11
4.960471822714061
 21
6.994620944534245
 31
0.0
  0
LINE
  5
D1B
330
2
100
AcDbEntity
  8
image
100
AcDbLine
 10
5.371218295291426
 20
7.023299906932974
 30
0.0
 11
5.371218295291426
 21
6.994620944534245
 31
0.0
  0
LINE
  5
D1C
330
2
100
AcDbEntity
  8
image
100
AcDbLine
 10
5.319914818111469
 20
6.994620944534245
 30
0.0
 11
5.319914818111469
 21
7.00896042573361
 31
0.0
  0
LINE
  5
D1D
330
2
100
AcDbEntity
  8
image
100
AcDbLine
 10
5.329793127382152
 20
7.071098177597532
 30
0.0
 11
5.329793127382152
 21
7.023299906932974
 31
0.0
  0
LINE
  5
D1E
330
2
100
AcDbEntity
  8
image
100
AcDbLine
 10
5.319914818111469
 20
6.994620944534245
 30
0.0
 11
5.371218295291426
 21
6.994620944534245
 31
0.0
  0
LWPOLYLINE
  5
D22
330
2
100
AcDbEntity
  8
image
100
AcDbPolyline
 90
        2
 70
     0
 43
0.09
 10
3.485493779170653
 20
10.1376993095557
 10
3.504917286455394
 20
7.916072363852871
  0
TEXT
  5
D23
330
2
100
AcDbEntity
  8
image
100
AcDbText
 10
3.753047893173878
 20
9.014963601214248
 30
0.0
 40
0.125
  1
CABLE
  7
arial
100
AcDbText
  0
TEXT
  5
D24
330
2
100
AcDbEntity
  8
image
100
AcDbText
 10
3.753047893173878
 20
9.255925402032801
 30
0.0
 40
0.125
  1
TWO-WIRE
  7
arial
100
AcDbText
  0
HATCH
  5
13DE
330
2
100
AcDbEntity
  8
image
100
AcDbHatch
 10
0.0
 20
0.0
 30
0.0
210
0.0
220
0.0
230
1.0
  2
EARTH
 70
     0
 71
     0
 91
        1
 92
        1
 93
       11
 72
     1
 10
3.86858299996956
 20
2.150415885904293
 11
3.57695953607051
 21
2.109379015464652
 72
     1
 10
3.57695953607051
 20
2.109379015464652
 11
3.439889273766868
 21
1.875681453036977
 72
     1
 10
3.439889273766872
 20
1.875681453036977
 11
3.669683493000706
 21
1.629896080947978
 72
     1
 10
3.669683493000703
 20
1.629896080947979
 11
4.072831242001071
 21
1.569457057466247
 72
     1
 10
4.072831242001071
 20
1.569457057466247
 11
4.334877267333175
 21
1.847476580377146
 72
     1
 10
4.334877267333179
 20
1.847476580377148
 11
4.193775543664918
 21
2.181905848607707
 72
     1
 10
4.193775543664918
 20
2.181905848607707
 11
4.073505274545332
 21
2.150203347858637
 72
     1
 10
4.073505274545332
 20
2.150203347858639
 11
4.073505274545332
 21
1.844559734643001
 72
     1
 10
4.073505274545332
 20
1.844559734643001
 11
3.971044137257446
 21
1.644587488739249
 72
     1
 10
3.971044137257442
 20
1.644587488739249
 11
3.86858299996956
 21
1.844559734643001
 72
     1
 10
3.86858299996956
 20
1.844559734643001
 11
3.86858299996956
 21
2.150415885904294
 97
        0
 75
     0
 76
     1
 52
45.0
 41
0.75
 77
     0
 78
     6
 53
135.0
 43
10.88459243808377
 44
-3.574804501025941
 45
0.0
 46
0.2651650429449553
 79
     2
 49
0.1875
 49
-0.1875
 53
135.0
 43
10.93431088363596
 44
-3.525086055473762
 45
0.0
 46
0.2651650429449553
 79
     2
 49
0.1875
 49
-0.1875
 53
135.0
 43
10.98402932918814
 44
-3.475367609921583
 45
0.0
 46
0.2651650429449553
 79
     2
 49
0.1875
 49
-0.1875
 53
45.0
 43
10.98402932918814
 44
-3.442221979553464
 45
0.2651650429449553
 46
0.0
 79
     2
 49
0.1875
 49
-0.1875
 53
45.0
 43
10.93431088363596
 44
-3.392503534001285
 45
0.2651650429449553
 46
0.0
 79
     2
 49
0.1875
 49
-0.1875
 53
45.0
 43
10.88459243808377
 44
-3.342785088449105
 45
0.2651650429449553
 46
0.0
 79
     2
 49
0.1875
 49
-0.1875
 98
        1
 10
10.88459243808377
 20
-3.574804501025941
  0
HATCH
  5
13DF
330
2
100
AcDbEntity
  8
image
100
AcDbHatch
 10
0.0
 20
0.0
 30
0.0
210
0.0
220
0.0
230
1.0
  2
EARTH
 70
     0
 71
     0
 91
        2
 92
        1
 93
        6
 72
     1
 10
3.289791861559797
 20
4.10741088035464
 11
2.802517958495832
 21
4.106143163550749
 72
     1
 10
2.802517958495832
 20
4.106143163550749
 11
2.827017496884436
 21
3.99047774228309
 72
     1
 10
2.827017496884429
 20
3.990477742283092
 11
3.033635737273114
 21
3.881151535617034
 72
     1
 10
3.033635737273114
 20
3.881151535617032
 11
3.201766293318335
 21
3.925691855828143
 72
     1
 10
3.201766293318342
 20
3.925691855828143
 11
3.260946311539785
 21
3.93776512440611
 72
     1
 10
3.260946311539782
 20
3.93776512440611
 11
3.289791861559794
 21
4.107410880354642
 97
        0
 92
        1
 93
        5
 72
     1
 10
5.220392834420628
 20
4.10741088035464
 11
5.252716445322358
 21
3.9173103553463
 72
     1
 10
5.252716445322362
 20
3.9173103553463
 11
5.488595830342901
 21
3.939252426882886
 72
     1
 10
5.488595830342908
 20
3.939252426882886
 11
5.735048109518962
 21
3.931788252887615
 72
     1
 10
5.735048109518955
 20
3.931788252887615
 11
5.707666807640818
 21
4.106143163550751
 72
     1
 10
5.707666807640825
 20
4.106143163550749
 11
5.220392834420635
 21
4.10741088035464
 97
        0
 75
     0
 76
     1
 52
45.0
 41
0.75
 77
     0
 78
     6
 53
135.0
 43
10.88459243808377
 44
-3.574804501025941
 45
0.0
 46
0.2651650429449553
 79
     2
 49
0.1875
 49
-0.1875
 53
135.0
 43
10.93431088363596
 44
-3.525086055473762
 45
0.0
 46
0.2651650429449553
 79
     2
 49
0.1875
 49
-0.1875
 53
135.0
 43
10.98402932918814
 44
-3.475367609921583
 45
0.0
 46
0.2651650429449553
 79
     2
 49
0.1875
 49
-0.1875
 53
45.0
 43
10.98402932918814
 44
-3.442221979553464
 45
0.2651650429449553
 46
0.0
 79
     2
 49
0.1875
 49
-0.1875
 53
45.0
 43
10.93431088363596
 44
-3.392503534001285
 45
0.2651650429449553
 46
0.0
 79
     2
 49
0.1875
 49
-0.1875
 53
45.0
 43
10.88459243808377
 44
-3.342785088449105
 45
0.2651650429449553
 46
0.0
 79
     2
 49
0.1875
 49
-0.1875
 98
        1
 10
10.88459243808377
 20
-3.574804501025941
  0
LINE
  5
13E0
330
2
100
AcDbEntity
  8
image
100
AcDbLine
 10
5.08147127588237
 20
4.189545613608251
 30
0.0
 11
5.423753463420474
 21
2.17652383339138
 31
0.0
  0
LINE
  5
13E1
330
2
100
AcDbEntity
  8
image
100
AcDbLine
 10
5.525997922804875
 20
2.310093102957081
 30
0.0
 11
5.206427207435843
 21
4.189545643359666
 31
0.0
  0
LINE
  5
13E2
330
2
100
AcDbEntity
  8
image
100
AcDbLine
 10
5.358733475804092
 20
2.498953286643276
 30
0.0
 11
4.073474271091298
 21
2.498953286643276
 31
0.0
  0
LINE
  5
13E3
330
2
100
AcDbEntity
  8
image
100
AcDbLine
 10
3.289791861559797
 20
4.10741088035464
 30
0.0
 11
5.22039290457686
 21
4.10741088035464
 31
0.0
  0
LINE
  5
13E4
330
2
100
AcDbEntity
  8
image
100
AcDbLine
 10
5.132064417650247
 20
4.452657935526312
 30
0.0
 11
5.24187765410874
 21
4.10741088035464
 31
0.0
  0
LINE
  5
13E5
330
2
100
AcDbEntity
  8
image
100
AcDbLine
 10
5.182541570060059
 20
4.445732524690606
 30
0.0
 11
5.264061589546037
 21
4.10741088035464
 31
0.0
  0
HATCH
  5
13E6
330
2
100
AcDbEntity
  8
image
100
AcDbHatch
 10
0.0
 20
0.0
 30
0.0
210
0.0
220
0.0
230
1.0
  2
EARTH
 70
     0
 71
     0
 91
        2
 92
        1
 93
        7
 72
     1
 10
5.358733475804092
 20
2.498953286643276
 11
4.073505274545325
 21
2.498953286643276
 72
     1
 10
4.073505274545332
 20
2.498953286643276
 11
4.073505274545332
 21
2.336022157734806
 72
     1
 10
4.073505274545332
 20
2.336022157734805
 11
4.634776289544411
 21
2.22574714958078
 72
     1
 10
4.634776289544411
 20
2.225747149580782
 11
5.073671405721699
 21
2.233580271083536
 72
     1
 10
5.073671405721696
 20
2.233580271083534
 11
5.253931898494733
 21
2.311911461286195
 72
     1
 10
5.253931898494733
 20
2.311911461286195
 11
5.396607971633215
 21
2.336171247694429
 72
     1
 10
5.396607971633215
 20
2.336171247694429
 11
5.358733475804092
 21
2.498953286643275
 97
        0
 92
        1
 93
        6
 72
     1
 10
3.868815158128881
 20
2.498953286643276
 11
3.144321927948506
 21
2.498953286643276
 72
     1
 10
3.144321927948509
 20
2.498953286643276
 11
3.110030121891731
 21
2.315305821610567
 72
     1
 10
3.110030121891731
 20
2.315305821610565
 11
3.30241610720754
 21
2.264912757094555
 72
     1
 10
3.30241610720754
 20
2.264912757094555
 11
3.623750065831784
 21
2.304078339783439
 72
     1
 10
3.623750065831784
 20
2.304078339783439
 11
3.869497357661525
 21
2.336022157734805
 72
     1
 10
3.869497357661521
 20
2.336022157734806
 11
3.868815158128881
 21
2.498953286643276
 97
        0
 75
     0
 76
     1
 52
45.0
 41
0.75
 77
     0
 78
     6
 53
135.0
 43
10.88459243808377
 44
-3.574804501025941
 45
0.0
 46
0.2651650429449553
 79
     2
 49
0.1875
 49
-0.1875
 53
135.0
 43
10.93431088363596
 44
-3.525086055473762
 45
0.0
 46
0.2651650429449553
 79
     2
 49
0.1875
 49
-0.1875
 53
135.0
 43
10.98402932918814
 44
-3.475367609921583
 45
0.0
 46
0.2651650429449553
 79
     2
 49
0.1875
 49
-0.1875
 53
45.0
 43
10.98402932918814
 44
-3.442221979553464
 45
0.2651650429449553
 46
0.0
 79
     2
 49
0.1875
 49
-0.1875
 53
45.0
 43
10.93431088363596
 44
-3.392503534001285
 45
0.2651650429449553
 46
0.0
 79
     2
 49
0.1875
 49
-0.1875
 53
45.0
 43
10.88459243808377
 44
-3.342785088449105
 45
0.2651650429449553
 46
0.0
 79
     2
 49
0.1875
 49
-0.1875
 98
        1
 10
10.88459243808377
 20
-3.574804501025941
  0
LINE
  5
13E7
330
2
100
AcDbEntity
  8
image
100
AcDbLine
 10
5.823389003049967
 20
2.17652383339138
 30
0.0
 11
5.423752231404647
 21
2.17652383339138
 31
0.0
  0
LINE
  5
13E8
330
2
100
AcDbEntity
  8
image
100
AcDbLine
 10
5.525998111509699
 20
2.310093135043305
 30
0.0
 11
5.823389003049967
 21
2.310093135043305
 31
0.0
  0
LINE
  5
13E9
330
2
100
AcDbEntity
  8
image
100
AcDbLine
 10
5.823389003049967
 20
2.310093135043305
 30
0.0
 11
5.823389003049967
 21
2.17767660855276
 31
0.0
  0
LINE
  5
13EA
330
2
100
AcDbEntity
  8
image
100
AcDbLine
 10
5.220392834420628
 20
4.10741088035464
 30
0.0
 11
5.707666807640825
 21
4.106143163550749
 31
0.0
  0
LINE
  5
13EB
330
2
100
AcDbEntity
  8
image
100
AcDbLine
 10
5.533110184899341
 20
4.445732524690606
 30
0.0
 11
5.614630204385327
 21
4.10741088035464
 31
0.0
  0
LINE
  5
13EC
330
2
100
AcDbEntity
  8
image
100
AcDbLine
 10
5.559431297125036
 20
4.402916531481855
 30
0.0
 11
5.48057000101734
 21
4.10741088035464
 31
0.0
  0
LINE
  5
13ED
330
2
100
AcDbEntity
  8
image
100
AcDbLine
 10
5.527775013162531
 20
4.423177748401533
 30
0.0
 11
5.554112250227226
 21
4.107410880354647
 31
0.0
  0
LINE
  5
13EE
330
2
100
AcDbEntity
  8
image
100
AcDbLine
 10
5.397661537137991
 20
4.434455136546079
 30
0.0
 11
5.553534980990348
 21
4.10741088035464
 31
0.0
  0
LINE
  5
13EF
330
2
100
AcDbEntity
  8
image
100
AcDbLine
 10
5.689661100328826
 20
4.409413371324808
 30
0.0
 11
5.586816731417456
 21
4.10741088035464
 31
0.0
  0
LINE
  5
13F0
330
2
100
AcDbEntity
  8
image
100
AcDbLine
 10
5.634283874841464
 20
4.398182278745812
 30
0.0
 11
5.607024056242287
 21
4.10741088035464
 31
0.0
  0
LINE
  5
13F1
330
2
100
AcDbEntity
  8
image
100
AcDbLine
 10
5.596708699969645
 20
4.417119289689969
 30
0.0
 11
5.558939381758007
 21
4.10741088035464
 31
0.0
  0
LINE
  5
13F2
330
2
100
AcDbEntity
  8
image
100
AcDbLine
 10
5.681329500419891
 20
4.421910031597635
 30
0.0
 11
5.707666737484593
 21
4.106143163550749
 31
0.0
  0
LINE
  5
13F3
330
2
100
AcDbEntity
  8
image
100
AcDbLine
 10
5.640648886296964
 20
4.457009912835134
 30
0.0
 11
5.640648886296964
 21
4.10741088035464
 31
0.0
  0
LINE
  5
13F4
330
2
100
AcDbEntity
  8
image
100
AcDbLine
 10
5.695598014550859
 20
4.398182278745812
 30
0.0
 11
5.668338195951682
 21
4.10741088035464
 31
0.0
  0
LINE
  5
13F5
330
2
100
AcDbEntity
  8
image
100
AcDbLine
 10
5.702420994601019
 20
4.400622972112474
 30
0.0
 11
5.632242890869597
 21
4.107410880354647
 31
0.0
  0
LINE
  5
13F6
330
2
100
AcDbEntity
  8
image
100
AcDbLine
 10
5.723743227282915
 20
4.380661713064382
 30
0.0
 11
5.67857529462855
 21
4.10741088035464
 31
0.0
  0
LINE
  5
13F7
330
2
100
AcDbEntity
  8
image
100
AcDbLine
 10
5.611508077221464
 20
4.374511015065619
 30
0.0
 11
5.538270943510382
 21
4.10741088035464
 31
0.0
  0
LINE
  5
13F8
330
2
100
AcDbEntity
  8
image
100
AcDbLine
 10
5.296140878197269
 20
4.402916531481851
 30
0.0
 11
5.220392834420628
 21
4.10741088035464
 31
0.0
  0
LINE
  5
13F9
330
2
100
AcDbEntity
  8
image
100
AcDbLine
 10
5.264484594234764
 20
4.423177748401529
 30
0.0
 11
5.290821831299459
 21
4.107410880354644
 31
0.0
  0
LINE
  5
13FA
330
2
100
AcDbEntity
  8
image
100
AcDbLine
 10
5.225882353355699
 20
4.393448026009769
 30
0.0
 11
5.252939921187937
 21
4.10741088035464
 31
0.0
  0
LINE
  5
13FB
330
2
100
AcDbEntity
  8
image
100
AcDbLine
 10
5.226182726617799
 20
4.457009912835131
 30
0.0
 11
5.226182726617799
 21
4.10741088035464
 31
0.0
  0
LINE
  5
13FC
330
2
100
AcDbEntity
  8
image
100
AcDbLine
 10
5.488556179700004
 20
4.457009912835134
 30
0.0
 11
5.488556179700004
 21
4.10741088035464
 31
0.0
  0
LINE
  5
13FD
330
2
100
AcDbEntity
  8
image
100
AcDbLine
 10
5.496990545496323
 20
4.393448026009769
 30
0.0
 11
5.524048113328567
 21
4.10741088035464
 31
0.0
  0
LINE
  5
13FE
330
2
100
AcDbEntity
  8
image
100
AcDbLine
 10
5.437828763669762
 20
4.457009912835131
 30
0.0
 11
5.437828763669762
 21
4.10741088035464
 31
0.0
  0
LINE
  5
13FF
330
2
100
AcDbEntity
  8
image
100
AcDbLine
 10
5.485510987638831
 20
4.417119289689965
 30
0.0
 11
5.447741669427208
 21
4.10741088035464
 31
0.0
  0
LINE
  5
1400
330
2
100
AcDbEntity
  8
image
100
AcDbLine
 10
5.377358467369197
 20
4.457009912835131
 30
0.0
 11
5.377358467369197
 21
4.10741088035464
 31
0.0
  0
LINE
  5
1401
330
2
100
AcDbEntity
  8
image
100
AcDbLine
 10
5.402187444865766
 20
4.457009912835131
 30
0.0
 11
5.402187444865766
 21
4.10741088035464
 31
0.0
  0
LINE
  5
1402
330
2
100
AcDbEntity
  8
image
100
AcDbLine
 10
5.4559447480797
 20
4.374511015065612
 30
0.0
 11
5.382707614368618
 21
4.10741088035464
 31
0.0
  0
LINE
  5
1403
330
2
100
AcDbEntity
  8
image
100
AcDbLine
 10
5.486626047041098
 20
4.40062297211247
 30
0.0
 11
5.416447943309683
 21
4.10741088035464
 31
0.0
  0
LINE
  5
1404
330
2
100
AcDbEntity
  8
image
100
AcDbLine
 10
5.334335246887426
 20
4.417119289689965
 30
0.0
 11
5.296565928675796
 21
4.10741088035464
 31
0.0
  0
LINE
  5
1405
330
2
100
AcDbEntity
  8
image
100
AcDbLine
 10
5.348217658293683
 20
4.374511015065616
 30
0.0
 11
5.274980524582608
 21
4.10741088035464
 31
0.0
  0
LINE
  5
1406
330
2
100
AcDbEntity
  8
image
100
AcDbLine
 10
5.356611174497827
 20
4.402916531481851
 30
0.0
 11
5.280863130721193
 21
4.114127114583462
 31
0.0
  0
LINE
  5
1407
330
2
100
AcDbEntity
  8
image
100
AcDbLine
 10
5.324954890535315
 20
4.423177748401529
 30
0.0
 11
5.351292127600024
 21
4.107410880354644
 31
0.0
  0
LINE
  5
1408
330
2
100
AcDbEntity
  8
image
100
AcDbLine
 10
5.408687954594262
 20
4.374511015065616
 30
0.0
 11
5.335450820883173
 21
4.10741088035464
 31
0.0
  0
LINE
  5
1409
330
2
100
AcDbEntity
  8
image
100
AcDbLine
 10
5.524094502443992
 20
4.355513419534348
 30
0.0
 11
5.323526312489696
 21
4.10741088035464
 31
0.0
  0
LINE
  5
140A
330
2
100
AcDbEntity
  8
image
100
AcDbLine
 10
3.086432578515576
 20
2.17652383339138
 30
0.0
 11
3.428713014899179
 21
4.189545220094382
 31
0.0
  0
LINE
  5
140B
330
2
100
AcDbEntity
  8
image
100
AcDbLine
 10
3.303757488544589
 20
4.189545190343066
 30
0.0
 11
2.984186698410524
 21
2.310093135043305
 31
0.0
  0
LINE
  5
140C
330
2
100
AcDbEntity
  8
image
100
AcDbLine
 10
4.073505274545332
 20
3.320148532488525
 30
0.0
 11
4.073505274545332
 21
2.948413539236044
 31
0.0
  0
LINE
  5
140D
330
2
100
AcDbEntity
  8
image
100
AcDbLine
 10
3.869497357661521
 20
2.948413539236044
 30
0.0
 11
3.869497357661521
 21
3.320148532488525
 31
0.0
  0
ARC
  5
140E
330
2
100
AcDbEntity
  8
image
100
AcDbCircle
 10
3.922840725138271
 20
2.327998766236744
 30
0.0
 40
0.0539433931532925
100
AcDbArc
 50
8.200075434117991
 51
171.4462450453796
  0
ARC
  5
140F
330
2
100
AcDbEntity
  8
image
100
AcDbCircle
 10
3.922840725138271
 20
2.158226739356701
 30
0.0
 40
0.0539433931532925
100
AcDbArc
 50
188.5537549546203
 51
351.7999245658821
  0
ARC
  5
1410
330
2
100
AcDbEntity
  8
image
100
AcDbCircle
 10
3.922840725138271
 20
2.344045549232868
 30
0.0
 40
0.0539433931532925
100
AcDbArc
 50
188.5537549546203
 51
351.7999245658821
  0
LINE
  5
1411
330
2
100
AcDbEntity
  8
image
100
AcDbLine
 10
4.073505274545332
 20
1.844559734643001
 30
0.0
 11
3.86858299996956
 21
1.844559734643001
 31
0.0
  0
LINE
  5
1412
330
2
100
AcDbEntity
  8
image
100
AcDbLine
 10
3.86858299996956
 20
1.844559734643001
 30
0.0
 11
3.971044137257442
 21
1.644587488739249
 31
0.0
  0
LINE
  5
1413
330
2
100
AcDbEntity
  8
image
100
AcDbLine
 10
3.732006101425439
 20
2.787732264471946
 30
0.0
 11
4.208751818122506
 21
2.787732264471946
 31
0.0
  0
LINE
  5
1414
330
2
100
AcDbEntity
  8
image
100
AcDbLine
 10
4.208751818122506
 20
2.948413539236044
 30
0.0
 11
3.732006101425439
 21
2.948413539236044
 31
0.0
  0
LINE
  5
1415
330
2
100
AcDbEntity
  8
image
100
AcDbLine
 10
4.073505274545332
 20
2.787732264471946
 30
0.0
 11
4.073505274545332
 21
2.336022157734805
 31
0.0
  0
LINE
  5
1416
330
2
100
AcDbEntity
  8
image
100
AcDbLine
 10
4.073505274545332
 20
2.150415885904293
 30
0.0
 11
4.073505274545332
 21
1.844559734643001
 31
0.0
  0
LINE
  5
1417
330
2
100
AcDbEntity
  8
image
100
AcDbLine
 10
4.073505274545332
 20
1.844559734643001
 30
0.0
 11
3.971044137257442
 21
1.644587488739249
 31
0.0
  0
ARC
  5
1418
330
2
100
AcDbEntity
  8
image
100
AcDbCircle
 10
4.024850430778925
 20
2.155503603883593
 30
0.0
 40
0.048942686234648
100
AcDbArc
 50
186.6051331238572
 51
353.7829516856578
  0
ARC
  5
1419
330
2
100
AcDbEntity
  8
image
100
AcDbCircle
 10
4.024937329928753
 20
2.129844596519659
 30
0.0
 40
0.052662358477015
100
AcDbArc
 50
22.74249693840021
 51
157.6455878711146
  0
ARC
  5
141A
330
2
100
AcDbEntity
  8
image
100
AcDbCircle
 10
4.024850430778925
 20
2.341322413759761
 30
0.0
 40
0.048942686234648
100
AcDbArc
 50
186.6051331238572
 51
353.7829516856578
  0
LINE
  5
141B
330
2
100
AcDbEntity
  8
image
100
AcDbLine
 10
4.208751818122506
 20
2.787732264471946
 30
0.0
 11
4.208751818122506
 21
2.948413539236044
 31
0.0
  0
LWPOLYLINE
  5
141C
330
2
100
AcDbEntity
  8
image
  6
Continuous
 62
     3
100
AcDbPolyline
 90
       22
 70
     0
 43
0.037
 10
4.082526782330702
 20
2.948413539236044
 10
4.087882478061351
 20
2.97868876843894
 10
4.096785265448189
 20
3.008129303906899
 10
4.110438534236833
 20
3.035690018761203
 10
4.128465583121253
 20
3.060610497496854
 10
4.150369035761481
 20
3.082203170196928
 10
4.175544563674431
 20
3.09987228297034
 10
4.203297559994029
 20
3.113130335134195
 10
4.232862304062336
 20
3.121611529629719
 10
4.263423088089843
 20
3.125081865567254
 10
4.294573638136525
 20
3.123422317755251
 10
4.295132234246351
 20
3.133907448674131
 10
4.263107853903945
 20
3.135613549858488
 10
4.230808106772118
 20
3.131945745618127
 10
4.19956107604922
 20
3.122981956032928
 10
4.170228884752467
 20
3.108969497060423
 10
4.143620824410606
 20
3.09029498026428
 10
4.120471026258946
 20
3.067473645985524
 10
4.101418206148841
 20
3.04113514757393
 10
4.086988042020876
 20
3.012006178900707
 10
4.077578670157108
 20
2.98089042446899
 10
4.073335055970509
 20
2.948413539236044
1001
TCAD
1000
TCW25Brush
1002
}
1000
Solid
1071
       -5
1070
     0
1002
{
  0
LINE
  5
141D
330
2
100
AcDbEntity
  8
image
100
AcDbLine
 10
3.869497357661521
 20
2.336022157734805
 30
0.0
 11
3.869497357661521
 21
2.787732264471946
 31
0.0
  0
LINE
  5
141E
330
2
100
AcDbEntity
  8
image
100
AcDbLine
 10
3.86858299996956
 20
1.844559734643001
 30
0.0
 11
3.86858299996956
 21
2.150415885904293
 31
0.0
  0
LINE
  5
141F
330
2
100
AcDbEntity
  8
image
100
AcDbLine
 10
2.984186698410524
 20
2.310093135043305
 30
0.0
 11
2.686795806870256
 21
2.310093135043305
 31
0.0
  0
LINE
  5
1420
330
2
100
AcDbEntity
  8
image
100
AcDbLine
 10
2.686795806870256
 20
2.17652383339138
 30
0.0
 11
3.086432578515576
 21
2.17652383339138
 31
0.0
  0
LINE
  5
1421
330
2
100
AcDbEntity
  8
image
100
AcDbLine
 10
2.686795806870256
 20
2.310093135043305
 30
0.0
 11
2.686795806870256
 21
2.17767660855276
 31
0.0
  0
LINE
  5
1422
330
2
100
AcDbEntity
  8
image
100
AcDbLine
 10
3.868815158128881
 20
2.498953286643276
 30
0.0
 11
3.144321927948509
 21
2.498953286643276
 31
0.0
  0
LWPOLYLINE
  5
1423
330
2
100
AcDbEntity
  8
image
100
AcDbPolyline
 90
        5
 70
     0
 43
0.0
 10
3.625604170300348
 20
2.940159748150039
 10
3.625604170300348
 20
2.803363616797687
 10
3.589106642687617
 20
2.803363616797687
 10
3.589106642687617
 20
2.940159748150039
 10
3.625604170300348
 20
2.940159748150039
  0
LINE
  5
1424
330
2
100
AcDbEntity
  8
image
100
AcDbLine
 10
3.732006101425439
 20
2.948413539236044
 30
0.0
 11
3.732006101425439
 21
2.787732264471946
 31
0.0
  0
LINE
  5
1425
330
2
100
AcDbEntity
  8
image
100
AcDbLine
 10
3.732006101425439
 20
2.788717634483925
 30
0.0
 11
3.654396339542826
 21
2.82750275744492
 31
0.0
  0
LINE
  5
1426
330
2
100
AcDbEntity
  8
image
100
AcDbLine
 10
3.625921799084337
 20
2.90573417585273
 30
0.0
 11
3.588772159553719
 21
2.90573417585273
 31
0.0
  0
LINE
  5
1427
330
2
100
AcDbEntity
  8
image
100
AcDbLine
 10
3.625921799084337
 20
2.837517248629604
 30
0.0
 11
3.588772159553719
 21
2.837517248629604
 31
0.0
  0
LINE
  5
1428
330
2
100
AcDbEntity
  8
image
100
AcDbLine
 10
3.732006101425439
 20
2.948413539236044
 30
0.0
 11
3.654396339542826
 21
2.909628416275053
 31
0.0
  0
LINE
  5
1429
330
2
100
AcDbEntity
  8
image
100
AcDbLine
 10
3.654347372159732
 20
2.885344527356236
 30
0.0
 11
3.625604170300348
 21
2.885344527356236
 31
0.0
  0
LINE
  5
142A
330
2
100
AcDbEntity
  8
image
100
AcDbLine
 10
3.625604170300348
 20
2.85115308319458
 30
0.0
 11
3.654347372159732
 21
2.85115308319458
 31
0.0
  0
LINE
  5
142B
330
2
100
AcDbEntity
  8
image
100
AcDbLine
 10
3.654396339542826
 20
2.909628416275053
 30
0.0
 11
3.654396339542826
 21
2.82750275744492
 31
0.0
  0
LINE
  5
142C
330
2
100
AcDbEntity
  8
image
100
AcDbLine
 10
3.869497357661521
 20
3.831318911364098
 30
0.0
 11
4.073505274545332
 21
3.831318911364098
 31
0.0
  0
LINE
  5
142D
330
2
100
AcDbEntity
  8
image
100
AcDbLine
 10
4.208751818122506
 20
3.48082980725262
 30
0.0
 11
3.732006101425439
 21
3.48082980725262
 31
0.0
  0
LINE
  5
142E
330
2
100
AcDbEntity
  8
image
100
AcDbLine
 10
3.732006101425439
 20
3.320148532488525
 30
0.0
 11
4.208751818122506
 21
3.320148532488525
 31
0.0
  0
LINE
  5
142F
330
2
100
AcDbEntity
  8
image
100
AcDbLine
 10
5.206427207435843
 20
4.189545643359666
 30
0.0
 11
3.303757488544589
 21
4.189545190343066
 31
0.0
  0
LINE
  5
1430
330
2
100
AcDbEntity
  8
image
100
AcDbLine
 10
4.073505274545332
 20
3.831318911364098
 30
0.0
 11
4.073505274545332
 21
3.48082980725262
 31
0.0
  0
LWPOLYLINE
  5
1431
330
2
100
AcDbEntity
  8
image
  6
Continuous
 62
     3
100
AcDbPolyline
 90
       20
 70
     0
 43
0.037
 10
4.084474860949284
 20
3.48082980725262
 10
4.087037254492577
 20
3.489303359940839
 10
4.100690523281222
 20
3.516864074795142
 10
4.118717572165649
 20
3.541784553530794
 10
4.140621024805873
 20
3.563377226230867
 10
4.165796552718822
 20
3.581046339004279
 10
4.193549549038421
 20
3.594304391168135
 10
4.223114293106731
 20
3.602785585663658
 10
4.253675077134238
 20
3.606255921601194
 10
4.284825627180917
 20
3.60459637378919
 10
4.285384223290743
 20
3.61508150470807
 10
4.253359842948341
 20
3.616787605892428
 10
4.22106009581651
 20
3.613119801652066
 10
4.189813065093612
 20
3.604156012066868
 10
4.160480873796859
 20
3.590143553094362
 10
4.133872813454998
 20
3.571469036298219
 10
4.110723015303334
 20
3.548647702019463
 10
4.09167019519323
 20
3.52230920360787
 10
4.077240031065271
 20
3.493180234934646
 10
4.073505274545332
 20
3.48082980725262
1001
TCAD
1000
TCW25Brush
1002
}
1000
Solid
1071
       -5
1070
     0
1002
{
  0
LINE
  5
1432
330
2
100
AcDbEntity
  8
image
100
AcDbLine
 10
4.208751818122506
 20
3.320148532488525
 30
0.0
 11
4.208751818122506
 21
3.48082980725262
 31
0.0
  0
LINE
  5
1433
330
2
100
AcDbEntity
  8
image
100
AcDbLine
 10
3.869497357661521
 20
3.48082980725262
 30
0.0
 11
3.869497357661521
 21
3.831318911364098
 31
0.0
  0
LINE
  5
1434
330
2
100
AcDbEntity
  8
image
100
AcDbLine
 10
3.625921799084337
 20
3.369933516646179
 30
0.0
 11
3.588772159553719
 21
3.369933516646179
 31
0.0
  0
LINE
  5
1435
330
2
100
AcDbEntity
  8
image
100
AcDbLine
 10
3.625921799084337
 20
3.438150443869306
 30
0.0
 11
3.588772159553719
 21
3.438150443869306
 31
0.0
  0
LWPOLYLINE
  5
1436
330
2
100
AcDbEntity
  8
image
100
AcDbPolyline
 90
        5
 70
     0
 43
0.0
 10
3.625604170300348
 20
3.472576016166614
 10
3.625604170300348
 20
3.335779884814263
 10
3.589106642687617
 20
3.335779884814263
 10
3.589106642687617
 20
3.472576016166614
 10
3.625604170300348
 20
3.472576016166614
  0
LINE
  5
1437
330
2
100
AcDbEntity
  8
image
100
AcDbLine
 10
3.732006101425439
 20
3.48082980725262
 30
0.0
 11
3.732006101425439
 21
3.320148532488525
 31
0.0
  0
LINE
  5
1438
330
2
100
AcDbEntity
  8
image
100
AcDbLine
 10
3.654396339542826
 20
3.442044684291628
 30
0.0
 11
3.654396339542826
 21
3.359919025461495
 31
0.0
  0
LINE
  5
1439
330
2
100
AcDbEntity
  8
image
100
AcDbLine
 10
3.732006101425439
 20
3.321133902500504
 30
0.0
 11
3.654396339542826
 21
3.359919025461495
 31
0.0
  0
LINE
  5
143A
330
2
100
AcDbEntity
  8
image
100
AcDbLine
 10
3.654347372159732
 20
3.417760795372812
 30
0.0
 11
3.625604170300348
 21
3.417760795372812
 31
0.0
  0
LINE
  5
143B
330
2
100
AcDbEntity
  8
image
100
AcDbLine
 10
3.625604170300348
 20
3.383569351211155
 30
0.0
 11
3.654347372159732
 21
3.383569351211155
 31
0.0
  0
LINE
  5
143C
330
2
100
AcDbEntity
  8
image
100
AcDbLine
 10
3.732006101425439
 20
3.48082980725262
 30
0.0
 11
3.654396339542826
 21
3.442044684291628
 31
0.0
  0
LINE
  5
143D
330
2
100
AcDbEntity
  8
image
100
AcDbLine
 10
3.289791861559797
 20
4.10741088035464
 30
0.0
 11
2.802517958495832
 21
4.106143163550749
 31
0.0
  0
LINE
  5
143E
330
2
100
AcDbEntity
  8
image
100
AcDbLine
 10
3.327643125920373
 20
4.445732524690606
 30
0.0
 11
3.246123106434395
 21
4.10741088035464
 31
0.0
  0
LINE
  5
143F
330
2
100
AcDbEntity
  8
image
100
AcDbLine
 10
3.284302342624726
 20
4.393448026009769
 30
0.0
 11
3.257244774792488
 21
4.10741088035464
 31
0.0
  0
LINE
  5
1440
330
2
100
AcDbEntity
  8
image
100
AcDbLine
 10
3.214043817783163
 20
4.402916531481851
 30
0.0
 11
3.289791861559797
 21
4.10741088035464
 31
0.0
  0
LINE
  5
1441
330
2
100
AcDbEntity
  8
image
100
AcDbLine
 10
3.378120278330178
 20
4.452657935526312
 30
0.0
 11
3.268307041871685
 21
4.10741088035464
 31
0.0
  0
LINE
  5
1442
330
2
100
AcDbEntity
  8
image
100
AcDbLine
 10
3.284001969362626
 20
4.457009912835131
 30
0.0
 11
3.284001969362626
 21
4.10741088035464
 31
0.0
  0
LINE
  5
1443
330
2
100
AcDbEntity
  8
image
100
AcDbLine
 10
2.977074511081084
 20
4.445732524690606
 30
0.0
 11
2.895554491595098
 21
4.10741088035464
 31
0.0
  0
LINE
  5
1444
330
2
100
AcDbEntity
  8
image
100
AcDbLine
 10
2.898676618758968
 20
4.374511015065619
 30
0.0
 11
2.971913752470043
 21
4.10741088035464
 31
0.0
  0
LINE
  5
1445
330
2
100
AcDbEntity
  8
image
100
AcDbLine
 10
2.950753398855396
 20
4.402916531481855
 30
0.0
 11
3.029614694963085
 21
4.10741088035464
 31
0.0
  0
LINE
  5
1446
330
2
100
AcDbEntity
  8
image
100
AcDbLine
 10
2.982409682817901
 20
4.423177748401533
 30
0.0
 11
2.956072445753199
 21
4.107410880354647
 31
0.0
  0
LINE
  5
1447
330
2
100
AcDbEntity
  8
image
100
AcDbLine
 10
3.112523158842434
 20
4.434455136546079
 30
0.0
 11
2.956649714990077
 21
4.10741088035464
 31
0.0
  0
LINE
  5
1448
330
2
100
AcDbEntity
  8
image
100
AcDbLine
 10
3.021628516280421
 20
4.457009912835134
 30
0.0
 11
3.021628516280421
 21
4.10741088035464
 31
0.0
  0
LINE
  5
1449
330
2
100
AcDbEntity
  8
image
100
AcDbLine
 10
3.013194150484102
 20
4.393448026009769
 30
0.0
 11
2.986136582651865
 21
4.10741088035464
 31
0.0
  0
LINE
  5
144A
330
2
100
AcDbEntity
  8
image
100
AcDbLine
 10
3.072355932310663
 20
4.457009912835131
 30
0.0
 11
3.072355932310663
 21
4.10741088035464
 31
0.0
  0
LINE
  5
144B
330
2
100
AcDbEntity
  8
image
100
AcDbLine
 10
3.024673708341594
 20
4.417119289689965
 30
0.0
 11
3.062443026553224
 21
4.10741088035464
 31
0.0
  0
LINE
  5
144C
330
2
100
AcDbEntity
  8
image
100
AcDbLine
 10
3.10149674138617
 20
4.374511015065616
 30
0.0
 11
3.174733875097252
 21
4.10741088035464
 31
0.0
  0
LINE
  5
144D
330
2
100
AcDbEntity
  8
image
100
AcDbLine
 10
3.132826228611228
 20
4.457009912835131
 30
0.0
 11
3.132826228611228
 21
4.10741088035464
 31
0.0
  0
LINE
  5
144E
330
2
100
AcDbEntity
  8
image
100
AcDbLine
 10
3.107997251114666
 20
4.457009912835131
 30
0.0
 11
3.107997251114666
 21
4.10741088035464
 31
0.0
  0
LINE
  5
144F
330
2
100
AcDbEntity
  8
image
100
AcDbLine
 10
3.245700101745661
 20
4.423177748401529
 30
0.0
 11
3.219362864680966
 21
4.107410880354644
 31
0.0
  0
LINE
  5
1450
330
2
100
AcDbEntity
  8
image
100
AcDbLine
 10
3.175849449092999
 20
4.417119289689965
 30
0.0
 11
3.213618767304629
 21
4.10741088035464
 31
0.0
  0
LINE
  5
1451
330
2
100
AcDbEntity
  8
image
100
AcDbLine
 10
3.161967037686742
 20
4.374511015065616
 30
0.0
 11
3.235204171397817
 21
4.10741088035464
 31
0.0
  0
LINE
  5
1452
330
2
100
AcDbEntity
  8
image
100
AcDbLine
 10
3.153573521482598
 20
4.402916531481851
 30
0.0
 11
3.229321565259232
 21
4.114127114583462
 31
0.0
  0
LINE
  5
1453
330
2
100
AcDbEntity
  8
image
100
AcDbLine
 10
3.18522980544511
 20
4.423177748401529
 30
0.0
 11
3.158892568380408
 21
4.107410880354644
 31
0.0
  0
LINE
  5
1454
330
2
100
AcDbEntity
  8
image
100
AcDbLine
 10
3.054239947900724
 20
4.374511015065612
 30
0.0
 11
3.127477081611806
 21
4.10741088035464
 31
0.0
  0
LINE
  5
1455
330
2
100
AcDbEntity
  8
image
100
AcDbLine
 10
3.023558648939327
 20
4.40062297211247
 30
0.0
 11
3.093736752670749
 21
4.10741088035464
 31
0.0
  0
LINE
  5
1456
330
2
100
AcDbEntity
  8
image
100
AcDbLine
 10
2.98609019353644
 20
4.355513419534348
 30
0.0
 11
3.186658383490736
 21
4.10741088035464
 31
0.0
  0
LINE
  5
1457
330
2
100
AcDbEntity
  8
image
100
AcDbLine
 10
2.820523595651599
 20
4.409413371324808
 30
0.0
 11
2.923367964562969
 21
4.10741088035464
 31
0.0
  0
LINE
  5
1458
330
2
100
AcDbEntity
  8
image
100
AcDbLine
 10
2.913475996010787
 20
4.417119289689969
 30
0.0
 11
2.951245314222417
 21
4.10741088035464
 31
0.0
  0
LINE
  5
1459
330
2
100
AcDbEntity
  8
image
100
AcDbLine
 10
2.786441468697517
 20
4.380661713064382
 30
0.0
 11
2.831609401351882
 21
4.10741088035464
 31
0.0
  0
LINE
  5
145A
330
2
100
AcDbEntity
  8
image
100
AcDbLine
 10
2.875900821138961
 20
4.398182278745812
 30
0.0
 11
2.903160639738138
 21
4.10741088035464
 31
0.0
  0
LINE
  5
145B
330
2
100
AcDbEntity
  8
image
100
AcDbLine
 10
2.869535809683461
 20
4.457009912835134
 30
0.0
 11
2.869535809683461
 21
4.10741088035464
 31
0.0
  0
LINE
  5
145C
330
2
100
AcDbEntity
  8
image
100
AcDbLine
 10
2.814586681429566
 20
4.398182278745812
 30
0.0
 11
2.841846500028743
 21
4.10741088035464
 31
0.0
  0
LINE
  5
145D
330
2
100
AcDbEntity
  8
image
100
AcDbLine
 10
2.828855195560534
 20
4.421910031597635
 30
0.0
 11
2.802517958495832
 21
4.106143163550749
 31
0.0
  0
LINE
  5
145E
330
2
100
AcDbEntity
  8
image
100
AcDbLine
 10
2.807763701379413
 20
4.400622972112474
 30
0.0
 11
2.877941805110828
 21
4.107410880354647
 31
0.0
  0
LWPOLYLINE
  5
1462
330
2
100
AcDbEntity
  8
image
100
AcDbPolyline
 90
        2
 70
     0
 43
0.0
 10
8.039294380196075
 20
3.946163906974549
 10
7.607685136487183
 20
3.946163906974549
  0
LWPOLYLINE
  5
1463
330
2
100
AcDbEntity
  8
image
100
AcDbPolyline
 90
        2
 70
     0
 43
0.0
 10
8.10481423110918
 20
3.946163906974549
 10
8.053343636957499
 20
3.946163906974549
  0
LWPOLYLINE
  5
1464
330
2
100
AcDbEntity
  8
image
100
AcDbPolyline
 90
        2
 70
     0
 43
0.0
 10
8.170334082022279
 20
3.946163906974549
 10
8.118863487870598
 20
3.946163906974549
  0
LWPOLYLINE
  5
1465
330
2
100
AcDbEntity
  8
image
100
AcDbPolyline
 90
        2
 70
     0
 43
0.0
 10
8.263775024165191
 20
3.946163906974549
 10
8.21230443001351
 20
3.946163906974549
  0
LWPOLYLINE
  5
1466
330
2
100
AcDbEntity
  8
image
100
AcDbPolyline
 90
        2
 70
     0
 43
0.0
 10
8.329294875078296
 20
3.946163906974549
 10
8.277824280926616
 20
3.946163906974549
  0
LWPOLYLINE
  5
1467
330
2
100
AcDbEntity
  8
image
100
AcDbPolyline
 90
        2
 70
     0
 43
0.0
 10
8.440501927211968
 20
3.946163906974549
 10
8.389031333060287
 20
3.946163906974549
  0
LINE
  5
1468
330
2
100
AcDbEntity
  8
image
100
AcDbLine
 10
8.454551183973386
 20
3.946163906974549
 30
0.0
 11
8.480051183973394
 21
3.946163906974549
 31
0.0
  0
LWPOLYLINE
  5
1469
330
2
100
AcDbEntity
  8
image
100
AcDbPolyline
 90
        2
 70
     0
 43
0.0
 10
8.887685136487185
 20
3.946163906974549
 10
8.887685136487185
 20
1.97616390697455
  0
LWPOLYLINE
  5
146A
330
2
100
AcDbEntity
  8
image
100
AcDbPolyline
 90
        2
 70
     0
 43
0.0
 10
7.607685136487183
 20
3.946163906974549
 10
7.607685136487183
 20
1.97616390697455
  0
LWPOLYLINE
  5
146B
330
2
100
AcDbEntity
  8
image
100
AcDbPolyline
 90
        2
 70
     0
 43
0.0
 10
8.887685136487185
 20
1.97616390697455
 10
7.607685136487183
 20
1.97616390697455
  0
LWPOLYLINE
  5
146C
330
2
100
AcDbEntity
  8
image
100
AcDbPolyline
 90
        2
 70
     0
 43
0.0
 10
8.887685136487185
 20
3.946163906974549
 10
7.607685136487183
 20
3.946163906974549
  0
LWPOLYLINE
  5
146D
330
2
100
AcDbEntity
  8
image
100
AcDbPolyline
 90
        2
 70
     0
 43
0.0
 10
8.887685136487185
 20
3.915613560362102
 10
7.607685136487183
 20
3.915613560362102
  0
POLYLINE
  5
146E
330
2
100
AcDbEntity
  8
image
 62
     3
100
AcDb2dPolyline
 66
     1
 10
0.0
 20
0.0
 30
0.0
 70
     4
 40
0.037
 41
0.037
  0
VERTEX
  5
146F
330
146E
100
AcDbEntity
  8
image
 62
     3
100
AcDbVertex
100
AcDb2dVertex
 10
8.131464726789047
 20
3.946163906974549
 30
0.0
 70
    16
  0
VERTEX
  5
1470
330
146E
100
AcDbEntity
  8
image
 62
     3
100
AcDbVertex
100
AcDb2dVertex
 10
8.131464726789047
 20
3.946163906974547
 30
0.0
 70
     8
  0
VERTEX
  5
1471
330
146E
100
AcDbEntity
  8
image
 62
     3
100
AcDbVertex
100
AcDb2dVertex
 10
8.092057370158336
 20
4.179775907283552
 30
0.0
 70
     8
  0
VERTEX
  5
1472
330
146E
100
AcDbEntity
  8
image
 62
     3
100
AcDbVertex
100
AcDb2dVertex
 10
8.058297855023042
 20
4.371079817327261
 30
0.0
 70
     8
  0
VERTEX
  5
1473
330
146E
100
AcDbEntity
  8
image
 62
     3
100
AcDbVertex
100
AcDb2dVertex
 10
8.029106975312387
 20
4.525161088993622
 30
0.0
 70
     8
  0
VERTEX
  5
1474
330
146E
100
AcDbEntity
  8
image
 62
     3
100
AcDbVertex
100
AcDb2dVertex
 10
8.003405524955603
 20
4.647105174170579
 30
0.0
 70
     8
  0
VERTEX
  5
1475
330
146E
100
AcDbEntity
  8
image
 62
     3
100
AcDbVertex
100
AcDb2dVertex
 10
7.980114297881904
 20
4.74199752474608
 30
0.0
 70
     8
  0
VERTEX
  5
1476
330
146E
100
AcDbEntity
  8
image
 62
     3
100
AcDbVertex
100
AcDb2dVertex
 10
7.958154088020513
 20
4.814923592608073
 30
0.0
 70
     8
  0
VERTEX
  5
1477
330
146E
100
AcDbEntity
  8
image
 62
     3
100
AcDbVertex
100
AcDb2dVertex
 10
7.936445689300668
 20
4.870968829644498
 30
0.0
 70
     8
  0
VERTEX
  5
1478
330
146E
100
AcDbEntity
  8
image
 62
     3
100
AcDbVertex
100
AcDb2dVertex
 10
7.913909895651592
 20
4.915218687743307
 30
0.0
 70
     8
  0
VERTEX
  5
1479
330
146E
100
AcDbEntity
  8
image
 62
     3
100
AcDbVertex
100
AcDb2dVertex
 10
7.889615214797082
 20
4.952013899201942
 30
0.0
 70
     8
  0
VERTEX
  5
147A
330
146E
100
AcDbEntity
  8
image
 62
     3
100
AcDbVertex
100
AcDb2dVertex
 10
7.863221009639303
 20
4.982716317955842
 30
0.0
 70
     8
  0
VERTEX
  5
147B
330
146E
100
AcDbEntity
  8
image
 62
     3
100
AcDbVertex
100
AcDb2dVertex
 10
7.834534356874996
 20
5.007943078349947
 30
0.0
 70
     8
  0
VERTEX
  5
147C
330
146E
100
AcDbEntity
  8
image
 62
     3
100
AcDbVertex
100
AcDb2dVertex
 10
7.803362333200901
 20
5.028311314729188
 30
0.0
 70
     8
  0
VERTEX
  5
147D
330
146E
100
AcDbEntity
  8
image
 62
     3
100
AcDbVertex
100
AcDb2dVertex
 10
7.76951201531375
 20
5.044438161438504
 30
0.0
 70
     8
  0
VERTEX
  5
147E
330
146E
100
AcDbEntity
  8
image
 62
     3
100
AcDbVertex
100
AcDb2dVertex
 10
7.732790479910292
 20
5.056940752822834
 30
0.0
 70
     8
  0
VERTEX
  5
147F
330
146E
100
AcDbEntity
  8
image
 62
     3
100
AcDbVertex
100
AcDb2dVertex
 10
7.693004803687266
 20
5.066436223227109
 30
0.0
 70
     8
  0
VERTEX
  5
1480
330
146E
100
AcDbEntity
  8
image
 62
     3
100
AcDbVertex
100
AcDb2dVertex
 10
7.649962063341405
 20
5.073541706996275
 30
0.0
 70
     8
  0
VERTEX
  5
1481
330
146E
100
AcDbEntity
  8
image
 62
     3
100
AcDbVertex
100
AcDb2dVertex
 10
7.603527633330948
 20
5.078762704314661
 30
0.0
 70
     8
  0
VERTEX
  5
1482
330
146E
100
AcDbEntity
  8
image
 62
     3
100
AcDbVertex
100
AcDb2dVertex
 10
7.553800079160097
 20
5.082158178724226
 30
0.0
 70
     8
  0
VERTEX
  5
1483
330
146E
100
AcDbEntity
  8
image
 62
     3
100
AcDbVertex
100
AcDb2dVertex
 10
7.500936264094548
 20
5.083675459606313
 30
0.0
 70
     8
  0
VERTEX
  5
1484
330
146E
100
AcDbEntity
  8
image
 62
     3
100
AcDbVertex
100
AcDb2dVertex
 10
7.445093051399993
 20
5.083261876342278
 30
0.0
 70
     8
  0
VERTEX
  5
1485
330
146E
100
AcDbEntity
  8
image
 62
     3
100
AcDbVertex
100
AcDb2dVertex
 10
7.386427304342134
 20
5.080864758313476
 30
0.0
 70
     8
  0
VERTEX
  5
1486
330
146E
100
AcDbEntity
  8
image
 62
     3
100
AcDbVertex
100
AcDb2dVertex
 10
7.325095886186666
 20
5.076431434901254
 30
0.0
 70
     8
  0
VERTEX
  5
1487
330
146E
100
AcDbEntity
  8
image
 62
     3
100
AcDbVertex
100
AcDb2dVertex
 10
7.261255660199275
 20
5.069909235486962
 30
0.0
 70
     8
  0
VERTEX
  5
1488
330
146E
100
AcDbEntity
  8
image
 62
     3
100
AcDbVertex
100
AcDb2dVertex
 10
7.195063489645669
 20
5.061245489451957
 30
0.0
 70
     8
  0
VERTEX
  5
1489
330
146E
100
AcDbEntity
  8
image
 62
     3
100
AcDbVertex
100
AcDb2dVertex
 10
7.126723771440694
 20
5.050335354160234
 30
0.0
 70
     8
  0
VERTEX
  5
148A
330
146E
100
AcDbEntity
  8
image
 62
     3
100
AcDbVertex
100
AcDb2dVertex
 10
7.056631037095797
 20
5.036865298906347
 30
0.0
 70
     8
  0
VERTEX
  5
148B
330
146E
100
AcDbEntity
  8
image
 62
     3
100
AcDbVertex
100
AcDb2dVertex
 10
6.985227351771577
 20
5.020469620967505
 30
0.0
 70
     8
  0
VERTEX
  5
148C
330
146E
100
AcDbEntity
  8
image
 62
     3
100
AcDbVertex
100
AcDb2dVertex
 10
6.912954780628638
 20
5.000782617620904
 30
0.0
 70
     8
  0
VERTEX
  5
148D
330
146E
100
AcDbEntity
  8
image
 62
     3
100
AcDbVertex
100
AcDb2dVertex
 10
6.840255388827578
 20
4.977438586143756
 30
0.0
 70
     8
  0
VERTEX
  5
148E
330
146E
100
AcDbEntity
  8
image
 62
     3
100
AcDbVertex
100
AcDb2dVertex
 10
6.767571241529005
 20
4.950071823813262
 30
0.0
 70
     8
  0
VERTEX
  5
148F
330
146E
100
AcDbEntity
  8
image
 62
     3
100
AcDbVertex
100
AcDb2dVertex
 10
6.695344403893514
 20
4.918316627906621
 30
0.0
 70
     8
  0
VERTEX
  5
1490
330
146E
100
AcDbEntity
  8
image
 62
     3
100
AcDbVertex
100
AcDb2dVertex
 10
6.624016941081706
 20
4.881807295701038
 30
0.0
 70
     8
  0
VERTEX
  5
1491
330
146E
100
AcDbEntity
  8
image
 62
     3
100
AcDbVertex
100
AcDb2dVertex
 10
6.554023296393033
 20
4.840320342199254
 30
0.0
 70
     8
  0
VERTEX
  5
1492
330
146E
100
AcDbEntity
  8
image
 62
     3
100
AcDbVertex
100
AcDb2dVertex
 10
6.485767425682325
 20
4.79420115330612
 30
0.0
 70
     8
  0
VERTEX
  5
1493
330
146E
100
AcDbEntity
  8
image
 62
     3
100
AcDbVertex
100
AcDb2dVertex
 10
6.419645662943253
 20
4.743937332652043
 30
0.0
 70
     8
  0
VERTEX
  5
1494
330
146E
100
AcDbEntity
  8
image
 62
     3
100
AcDbVertex
100
AcDb2dVertex
 10
6.3560543421695
 20
4.690016483867417
 30
0.0
 70
     8
  0
VERTEX
  5
1495
330
146E
100
AcDbEntity
  8
image
 62
     3
100
AcDbVertex
100
AcDb2dVertex
 10
6.295389797354737
 20
4.632926210582633
 30
0.0
 70
     8
  0
VERTEX
  5
1496
330
146E
100
AcDbEntity
  8
image
 62
     3
100
AcDbVertex
100
AcDb2dVertex
 10
6.238048362492648
 20
4.573154116428092
 30
0.0
 70
     8
  0
VERTEX
  5
1497
330
146E
100
AcDbEntity
  8
image
 62
     3
100
AcDbVertex
100
AcDb2dVertex
 10
6.184426371576904
 20
4.511187805034186
 30
0.0
 70
     8
  0
VERTEX
  5
1498
330
146E
100
AcDbEntity
  8
image
 62
     3
100
AcDbVertex
100
AcDb2dVertex
 10
6.134920158601175
 20
4.447514880031313
 30
0.0
 70
     8
  0
VERTEX
  5
1499
330
146E
100
AcDbEntity
  8
image
 62
     3
100
AcDbVertex
100
AcDb2dVertex
 10
6.089647861452078
 20
4.382614056460827
 30
0.0
 70
     8
  0
VERTEX
  5
149A
330
146E
100
AcDbEntity
  8
image
 62
     3
100
AcDbVertex
100
AcDb2dVertex
 10
6.047614833587907
 20
4.316928495007914
 30
0.0
 70
     8
  0
VERTEX
  5
149B
330
146E
100
AcDbEntity
  8
image
 62
     3
100
AcDbVertex
100
AcDb2dVertex
 10
6.007548232359893
 20
4.250892467768718
 30
0.0
 70
     8
  0
VERTEX
  5
149C
330
146E
100
AcDbEntity
  8
image
 62
     3
100
AcDbVertex
100
AcDb2dVertex
 10
5.96817521511928
 20
4.184940246839381
 30
0.0
 70
     8
  0
VERTEX
  5
149D
330
146E
100
AcDbEntity
  8
image
 62
     3
100
AcDbVertex
100
AcDb2dVertex
 10
5.928222939217284
 20
4.11950610431605
 30
0.0
 70
     8
  0
VERTEX
  5
149E
330
146E
100
AcDbEntity
  8
image
 62
     3
100
AcDbVertex
100
AcDb2dVertex
 10
5.886418562005153
 20
4.055024312294866
 30
0.0
 70
     8
  0
VERTEX
  5
149F
330
146E
100
AcDbEntity
  8
image
 62
     3
100
AcDbVertex
100
AcDb2dVertex
 10
5.841489240834106
 20
3.991929142871976
 30
0.0
 70
     8
  0
VERTEX
  5
14A0
330
146E
100
AcDbEntity
  8
image
 62
     3
100
AcDbVertex
100
AcDb2dVertex
 10
5.792162133055376
 20
3.930654868143523
 30
0.0
 70
     8
  0
VERTEX
  5
14A1
330
146E
100
AcDbEntity
  8
image
 62
     3
100
AcDbVertex
100
AcDb2dVertex
 10
5.735598657332857
 20
3.87172652357076
 30
0.0
 70
     8
  0
VERTEX
  5
14A2
330
146E
100
AcDbEntity
  8
image
 62
     3
100
AcDbVertex
100
AcDb2dVertex
 10
5.662697277581115
 20
3.816032198075381
 30
0.0
 70
     8
  0
VERTEX
  5
14A3
330
146E
100
AcDbEntity
  8
image
 62
     3
100
AcDbVertex
100
AcDb2dVertex
 10
5.562790719027353
 20
3.764550743944191
 30
0.0
 70
     8
  0
VERTEX
  5
14A4
330
146E
100
AcDbEntity
  8
image
 62
     3
100
AcDbVertex
100
AcDb2dVertex
 10
5.425211706898791
 20
3.718261013463992
 30
0.0
 70
     8
  0
VERTEX
  5
14A5
330
146E
100
AcDbEntity
  8
image
 62
     3
100
AcDbVertex
100
AcDb2dVertex
 10
5.239292966422651
 20
3.678141858921589
 30
0.0
 70
     8
  0
VERTEX
  5
14A6
330
146E
100
AcDbEntity
  8
image
 62
     3
100
AcDbVertex
100
AcDb2dVertex
 10
4.994367222826144
 20
3.645172132603786
 30
0.0
 70
     8
  0
VERTEX
  5
14A7
330
146E
100
AcDbEntity
  8
image
 62
     3
100
AcDbVertex
100
AcDb2dVertex
 10
4.679767201336495
 20
3.620330686797384
 30
0.0
 70
     8
  0
VERTEX
  5
14A8
330
146E
100
AcDbEntity
  8
image
 62
     3
100
AcDbVertex
100
AcDb2dVertex
 10
4.284825627180913
 20
3.60459637378919
 30
0.0
 70
     8
  0
VERTEX
  5
14A9
330
146E
100
AcDbEntity
  8
image
 62
     3
100
AcDbVertex
100
AcDb2dVertex
 10
8.017888692828137
 20
4.630060429830461
 30
0.0
 70
    16
  0
VERTEX
  5
14AA
330
146E
100
AcDbEntity
  8
image
 62
     3
100
AcDbVertex
100
AcDb2dVertex
 10
7.934246972985036
 20
4.986791242939807
 30
0.0
 70
    16
  0
VERTEX
  5
14AB
330
146E
100
AcDbEntity
  8
image
 62
     3
100
AcDbVertex
100
AcDb2dVertex
 10
7.686761929219699
 20
5.092452131424833
 30
0.0
 70
    16
  0
VERTEX
  5
14AC
330
146E
100
AcDbEntity
  8
image
 62
     3
100
AcDbVertex
100
AcDb2dVertex
 10
7.218477690184585
 20
5.0846504733385
 30
0.0
 70
    16
  0
VERTEX
  5
14AD
330
146E
100
AcDbEntity
  8
image
 62
     3
100
AcDbVertex
100
AcDb2dVertex
 10
6.609708247915982
 20
4.936418911932916
 30
0.0
 70
    16
  0
VERTEX
  5
14AE
330
146E
100
AcDbEntity
  8
image
 62
     3
100
AcDbVertex
100
AcDb2dVertex
 10
6.086790964641728
 20
4.460517653136077
 30
0.0
 70
    16
  0
VERTEX
  5
14AF
330
146E
100
AcDbEntity
  8
image
 62
     3
100
AcDbVertex
100
AcDb2dVertex
 10
5.85264884512417
 20
3.906599755710661
 30
0.0
 70
    16
  0
VERTEX
  5
14B0
330
146E
100
AcDbEntity
  8
image
 62
     3
100
AcDbVertex
100
AcDb2dVertex
 10
5.454607250503953
 20
3.633541607158498
 30
0.0
 70
    16
  0
VERTEX
  5
14B1
330
146E
100
AcDbEntity
  8
image
 62
     3
100
AcDbVertex
100
AcDb2dVertex
 10
4.284825627180917
 20
3.60459637378919
 30
0.0
 70
    16
  0
SEQEND
  5
14B2
330
146E
100
AcDbEntity
  8
image
 62
     3
  0
POLYLINE
  5
14B3
330
2
100
AcDbEntity
  8
image
 62
     3
100
AcDb2dPolyline
 66
     1
 10
0.0
 20
0.0
 30
0.0
 70
     4
 40
0.037
 41
0.037
 75
     6
  0
VERTEX
  5
14B4
330
14B3
100
AcDbEntity
  8
image
 62
     3
100
AcDbVertex
100
AcDb2dVertex
 10
4.294573638136525
 20
3.123422317755251
 30
0.0
 70
    16
  0
VERTEX
  5
14B5
330
14B3
100
AcDbEntity
  8
image
 62
     3
100
AcDbVertex
100
AcDb2dVertex
 10
4.294573638136525
 20
3.123422317755252
 30
0.0
 70
     8
  0
VERTEX
  5
14B6
330
14B3
100
AcDbEntity
  8
image
 62
     3
100
AcDbVertex
100
AcDb2dVertex
 10
4.698982855792752
 20
3.125907061000349
 30
0.0
 70
     8
  0
VERTEX
  5
14B7
330
14B3
100
AcDbEntity
  8
image
 62
     3
100
AcDbVertex
100
AcDb2dVertex
 10
5.015085071325557
 20
3.13123801123781
 30
0.0
 70
     8
  0
VERTEX
  5
14B8
330
14B3
100
AcDbEntity
  8
image
 62
     3
100
AcDbVertex
100
AcDb2dVertex
 10
5.254911957904261
 20
3.139618072264603
 30
0.0
 70
     8
  0
VERTEX
  5
14B9
330
14B3
100
AcDbEntity
  8
image
 62
     3
100
AcDbVertex
100
AcDb2dVertex
 10
5.430495188698194
 20
3.151250147877695
 30
0.0
 70
     8
  0
VERTEX
  5
14BA
330
14B3
100
AcDbEntity
  8
image
 62
     3
100
AcDbVertex
100
AcDb2dVertex
 10
5.55386643687668
 20
3.16633714187405
 30
0.0
 70
     8
  0
VERTEX
  5
14BB
330
14B3
100
AcDbEntity
  8
image
 62
     3
100
AcDbVertex
100
AcDb2dVertex
 10
5.637057375609052
 20
3.185081958050634
 30
0.0
 70
     8
  0
VERTEX
  5
14BC
330
14B3
100
AcDbEntity
  8
image
 62
     3
100
AcDbVertex
100
AcDb2dVertex
 10
5.692099678064628
 20
3.207687500204414
 30
0.0
 70
     8
  0
VERTEX
  5
14BD
330
14B3
100
AcDbEntity
  8
image
 62
     3
100
AcDbVertex
100
AcDb2dVertex
 10
5.731025017412746
 20
3.234356672132355
 30
0.0
 70
     8
  0
VERTEX
  5
14BE
330
14B3
100
AcDbEntity
  8
image
 62
     3
100
AcDbVertex
100
AcDb2dVertex
 10
5.763988088417547
 20
3.265294114763312
 30
0.0
 70
     8
  0
VERTEX
  5
14BF
330
14B3
100
AcDbEntity
  8
image
 62
     3
100
AcDbVertex
100
AcDb2dVertex
 10
5.793635672222456
 20
3.300711417553696
 30
0.0
 70
     8
  0
VERTEX
  5
14C0
330
14B3
100
AcDbEntity
  8
image
 62
     3
100
AcDbVertex
100
AcDb2dVertex
 10
5.820737571565728
 20
3.340821907091802
 30
0.0
 70
     8
  0
VERTEX
  5
14C1
330
14B3
100
AcDbEntity
  8
image
 62
     3
100
AcDbVertex
100
AcDb2dVertex
 10
5.846063589185617
 20
3.385838909965931
 30
0.0
 70
     8
  0
VERTEX
  5
14C2
330
14B3
100
AcDbEntity
  8
image
 62
     3
100
AcDbVertex
100
AcDb2dVertex
 10
5.870383527820378
 20
3.435975752764381
 30
0.0
 70
     8
  0
VERTEX
  5
14C3
330
14B3
100
AcDbEntity
  8
image
 62
     3
100
AcDbVertex
100
AcDb2dVertex
 10
5.894467190208252
 20
3.49144576207545
 30
0.0
 70
     8
  0
VERTEX
  5
14C4
330
14B3
100
AcDbEntity
  8
image
 62
     3
100
AcDbVertex
100
AcDb2dVertex
 10
5.919084379087499
 20
3.552462264487434
 30
0.0
 70
     8
  0
VERTEX
  5
14C5
330
14B3
100
AcDbEntity
  8
image
 62
     3
100
AcDbVertex
100
AcDb2dVertex
 10
5.945004897196361
 20
3.619238586588632
 30
0.0
 70
     8
  0
VERTEX
  5
14C6
330
14B3
100
AcDbEntity
  8
image
 62
     3
100
AcDbVertex
100
AcDb2dVertex
 10
5.972855003233731
 20
3.691726475861241
 30
0.0
 70
     8
  0
VERTEX
  5
14C7
330
14B3
100
AcDbEntity
  8
image
 62
     3
100
AcDbVertex
100
AcDb2dVertex
 10
6.002686779741025
 20
3.768831363363032
 30
0.0
 70
     8
  0
VERTEX
  5
14C8
330
14B3
100
AcDbEntity
  8
image
 62
     3
100
AcDbVertex
100
AcDb2dVertex
 10
6.03440876522029
 20
3.849197101045676
 30
0.0
 70
     8
  0
VERTEX
  5
14C9
330
14B3
100
AcDbEntity
  8
image
 62
     3
100
AcDbVertex
100
AcDb2dVertex
 10
6.06792949817359
 20
3.931467540860849
 30
0.0
 70
     8
  0
VERTEX
  5
14CA
330
14B3
100
AcDbEntity
  8
image
 62
     3
100
AcDbVertex
100
AcDb2dVertex
 10
6.103157517102964
 20
4.014286534760215
 30
0.0
 70
     8
  0
VERTEX
  5
14CB
330
14B3
100
AcDbEntity
  8
image
 62
     3
100
AcDbVertex
100
AcDb2dVertex
 10
6.140001360510467
 20
4.096297934695446
 30
0.0
 70
     8
  0
VERTEX
  5
14CC
330
14B3
100
AcDbEntity
  8
image
 62
     3
100
AcDbVertex
100
AcDb2dVertex
 10
6.178369566898155
 20
4.176145592618214
 30
0.0
 70
     8
  0
VERTEX
  5
14CD
330
14B3
100
AcDbEntity
  8
image
 62
     3
100
AcDbVertex
100
AcDb2dVertex
 10
6.218170674768074
 20
4.252473360480191
 30
0.0
 70
     8
  0
VERTEX
  5
14CE
330
14B3
100
AcDbEntity
  8
image
 62
     3
100
AcDbVertex
100
AcDb2dVertex
 10
6.259391981259788
 20
4.324196827785723
 30
0.0
 70
     8
  0
VERTEX
  5
14CF
330
14B3
100
AcDbEntity
  8
image
 62
     3
100
AcDbVertex
100
AcDb2dVertex
 10
6.302335818062886
 20
4.391318534249874
 30
0.0
 70
     8
  0
VERTEX
  5
14D0
330
14B3
100
AcDbEntity
  8
image
 62
     3
100
AcDbVertex
100
AcDb2dVertex
 10
6.347383275504462
 20
4.454112757140391
 30
0.0
 70
     8
  0
VERTEX
  5
14D1
330
14B3
100
AcDbEntity
  8
image
 62
     3
100
AcDbVertex
100
AcDb2dVertex
 10
6.394915443911607
 20
4.512853773725014
 30
0.0
 70
     8
  0
VERTEX
  5
14D2
330
14B3
100
AcDbEntity
  8
image
 62
     3
100
AcDbVertex
100
AcDb2dVertex
 10
6.445313413611422
 20
4.567815861271489
 30
0.0
 70
     8
  0
VERTEX
  5
14D3
330
14B3
100
AcDbEntity
  8
image
 62
     3
100
AcDbVertex
100
AcDb2dVertex
 10
6.498958274930998
 20
4.619273297047556
 30
0.0
 70
     8
  0
VERTEX
  5
14D4
330
14B3
100
AcDbEntity
  8
image
 62
     3
100
AcDbVertex
100
AcDb2dVertex
 10
6.55623111819743
 20
4.667500358320959
 30
0.0
 70
     8
  0
VERTEX
  5
14D5
330
14B3
100
AcDbEntity
  8
image
 62
     3
100
AcDbVertex
100
AcDb2dVertex
 10
6.617513033737814
 20
4.712771322359442
 30
0.0
 70
     8
  0
VERTEX
  5
14D6
330
14B3
100
AcDbEntity
  8
image
 62
     3
100
AcDbVertex
100
AcDb2dVertex
 10
6.682943754577344
 20
4.755276659481557
 30
0.0
 70
     8
  0
VERTEX
  5
14D7
330
14B3
100
AcDbEntity
  8
image
 62
     3
100
AcDbVertex
100
AcDb2dVertex
 10
6.751697584533644
 20
4.794871612209105
 30
0.0
 70
     8
  0
VERTEX
  5
14D8
330
14B3
100
AcDbEntity
  8
image
 62
     3
100
AcDbVertex
100
AcDb2dVertex
 10
6.822707470122438
 20
4.831327616114686
 30
0.0
 70
     8
  0
VERTEX
  5
14D9
330
14B3
100
AcDbEntity
  8
image
 62
     3
100
AcDbVertex
100
AcDb2dVertex
 10
6.894906357859433
 20
4.864416106770908
 30
0.0
 70
     8
  0
VERTEX
  5
14DA
330
14B3
100
AcDbEntity
  8
image
 62
     3
100
AcDbVertex
100
AcDb2dVertex
 10
6.96722719426036
 20
4.893908519750384
 30
0.0
 70
     8
  0
VERTEX
  5
14DB
330
14B3
100
AcDbEntity
  8
image
 62
     3
100
AcDbVertex
100
AcDb2dVertex
 10
7.038602925840947
 20
4.919576290625711
 30
0.0
 70
     8
  0
VERTEX
  5
14DC
330
14B3
100
AcDbEntity
  8
image
 62
     3
100
AcDbVertex
100
AcDb2dVertex
 10
7.107966499116898
 20
4.9411908549695
 30
0.0
 70
     8
  0
VERTEX
  5
14DD
330
14B3
100
AcDbEntity
  8
image
 62
     3
100
AcDbVertex
100
AcDb2dVertex
 10
7.17425086060394
 20
4.958523648354359
 30
0.0
 70
     8
  0
VERTEX
  5
14DE
330
14B3
100
AcDbEntity
  8
image
 62
     3
100
AcDbVertex
100
AcDb2dVertex
 10
7.236599826925854
 20
4.971452769703452
 30
0.0
 70
     8
  0
VERTEX
  5
14DF
330
14B3
100
AcDbEntity
  8
image
 62
     3
100
AcDbVertex
100
AcDb2dVertex
 10
7.295000695138604
 20
4.980282971342186
 30
0.0
 70
     8
  0
VERTEX
  5
14E0
330
14B3
100
AcDbEntity
  8
image
 62
     3
100
AcDbVertex
100
AcDb2dVertex
 10
7.3496516324062
 20
4.985425668946534
 30
0.0
 70
     8
  0
VERTEX
  5
14E1
330
14B3
100
AcDbEntity
  8
image
 62
     3
100
AcDbVertex
100
AcDb2dVertex
 10
7.40075080589267
 20
4.987292278192468
 30
0.0
 70
     8
  0
VERTEX
  5
14E2
330
14B3
100
AcDbEntity
  8
image
 62
     3
100
AcDbVertex
100
AcDb2dVertex
 10
7.44849638276203
 20
4.986294214755949
 30
0.0
 70
     8
  0
VERTEX
  5
14E3
330
14B3
100
AcDbEntity
  8
image
 62
     3
100
AcDbVertex
100
AcDb2dVertex
 10
7.493086530178295
 20
4.982842894312954
 30
0.0
 70
     8
  0
VERTEX
  5
14E4
330
14B3
100
AcDbEntity
  8
image
 62
     3
100
AcDbVertex
100
AcDb2dVertex
 10
7.534719415305488
 20
4.977349732539446
 30
0.0
 70
     8
  0
VERTEX
  5
14E5
330
14B3
100
AcDbEntity
  8
image
 62
     3
100
AcDbVertex
100
AcDb2dVertex
 10
7.573593205307624
 20
4.970226145111398
 30
0.0
 70
     8
  0
VERTEX
  5
14E6
330
14B3
100
AcDbEntity
  8
image
 62
     3
100
AcDbVertex
100
AcDb2dVertex
 10
7.609903526681904
 20
4.961759107176133
 30
0.0
 70
     8
  0
VERTEX
  5
14E7
330
14B3
100
AcDbEntity
  8
image
 62
     3
100
AcDbVertex
100
AcDb2dVertex
 10
7.643835843258223
 20
4.951737831766402
 30
0.0
 70
     8
  0
VERTEX
  5
14E8
330
14B3
100
AcDbEntity
  8
image
 62
     3
100
AcDbVertex
100
AcDb2dVertex
 10
7.675573078199654
 20
4.939827091386304
 30
0.0
 70
     8
  0
VERTEX
  5
14E9
330
14B3
100
AcDbEntity
  8
image
 62
     3
100
AcDbVertex
100
AcDb2dVertex
 10
7.705298154669279
 20
4.925691658539944
 30
0.0
 70
     8
  0
VERTEX
  5
14EA
330
14B3
100
AcDbEntity
  8
image
 62
     3
100
AcDbVertex
100
AcDb2dVertex
 10
7.733193995830177
 20
4.908996305731422
 30
0.0
 70
     8
  0
VERTEX
  5
14EB
330
14B3
100
AcDbEntity
  8
image
 62
     3
100
AcDbVertex
100
AcDb2dVertex
 10
7.759443524845416
 20
4.889405805464845
 30
0.0
 70
     8
  0
VERTEX
  5
14EC
330
14B3
100
AcDbEntity
  8
image
 62
     3
100
AcDbVertex
100
AcDb2dVertex
 10
7.784229664878075
 20
4.866584930244309
 30
0.0
 70
     8
  0
VERTEX
  5
14ED
330
14B3
100
AcDbEntity
  8
image
 62
     3
100
AcDbVertex
100
AcDb2dVertex
 10
7.807735339091237
 20
4.840198452573927
 30
0.0
 70
     8
  0
VERTEX
  5
14EE
330
14B3
100
AcDbEntity
  8
image
 62
     3
100
AcDbVertex
100
AcDb2dVertex
 10
7.8301523628704
 20
4.80994923899142
 30
0.0
 70
     8
  0
VERTEX
  5
14EF
330
14B3
100
AcDbEntity
  8
image
 62
     3
100
AcDbVertex
100
AcDb2dVertex
 10
7.851708120490798
 20
4.775692532169012
 30
0.0
 70
     8
  0
VERTEX
  5
14F0
330
14B3
100
AcDbEntity
  8
image
 62
     3
100
AcDbVertex
100
AcDb2dVertex
 10
7.872638888450069
 20
4.73732166881256
 30
0.0
 70
     8
  0
VERTEX
  5
14F1
330
14B3
100
AcDbEntity
  8
image
 62
     3
100
AcDbVertex
100
AcDb2dVertex
 10
7.893180943245873
 20
4.69472998562791
 30
0.0
 70
     8
  0
VERTEX
  5
14F2
330
14B3
100
AcDbEntity
  8
image
 62
     3
100
AcDbVertex
100
AcDb2dVertex
 10
7.913570561375863
 20
4.647810819320916
 30
0.0
 70
     8
  0
VERTEX
  5
14F3
330
14B3
100
AcDbEntity
  8
image
 62
     3
100
AcDbVertex
100
AcDb2dVertex
 10
7.93404401933769
 20
4.596457506597428
 30
0.0
 70
     8
  0
VERTEX
  5
14F4
330
14B3
100
AcDbEntity
  8
image
 62
     3
100
AcDbVertex
100
AcDb2dVertex
 10
7.954837593629008
 20
4.540563384163297
 30
0.0
 70
     8
  0
VERTEX
  5
14F5
330
14B3
100
AcDbEntity
  8
image
 62
     3
100
AcDbVertex
100
AcDb2dVertex
 10
7.976187560747469
 20
4.480021788724371
 30
0.0
 70
     8
  0
VERTEX
  5
14F6
330
14B3
100
AcDbEntity
  8
image
 62
     3
100
AcDbVertex
100
AcDb2dVertex
 10
7.998144732998596
 20
4.414981102895163
 30
0.0
 70
     8
  0
VERTEX
  5
14F7
330
14B3
100
AcDbEntity
  8
image
 62
     3
100
AcDbVertex
100
AcDb2dVertex
 10
8.02001806591943
 20
4.346609892924799
 30
0.0
 70
     8
  0
VERTEX
  5
14F8
330
14B3
100
AcDbEntity
  8
image
 62
     3
100
AcDbVertex
100
AcDb2dVertex
 10
8.040931050854879
 20
4.276331770971072
 30
0.0
 70
     8
  0
VERTEX
  5
14F9
330
14B3
100
AcDbEntity
  8
image
 62
     3
100
AcDbVertex
100
AcDb2dVertex
 10
8.060007179149842
 20
4.205570349191768
 30
0.0
 70
     8
  0
VERTEX
  5
14FA
330
14B3
100
AcDbEntity
  8
image
 62
     3
100
AcDbVertex
100
AcDb2dVertex
 10
8.076369942149234
 20
4.135749239744676
 30
0.0
 70
     8
  0
VERTEX
  5
14FB
330
14B3
100
AcDbEntity
  8
image
 62
     3
100
AcDbVertex
100
AcDb2dVertex
 10
8.089142831197968
 20
4.068292054787582
 30
0.0
 70
     8
  0
VERTEX
  5
14FC
330
14B3
100
AcDbEntity
  8
image
 62
     3
100
AcDbVertex
100
AcDb2dVertex
 10
8.097449337640938
 20
4.004622406478278
 30
0.0
 70
     8
  0
VERTEX
  5
14FD
330
14B3
100
AcDbEntity
  8
image
 62
     3
100
AcDbVertex
100
AcDb2dVertex
 10
8.100412952823056
 20
3.946163906974549
 30
0.0
 70
     8
  0
VERTEX
  5
14FE
330
14B3
100
AcDbEntity
  8
image
 62
     3
100
AcDbVertex
100
AcDb2dVertex
 10
5.501435708645991
 20
3.126433716016324
 30
0.0
 70
    16
  0
VERTEX
  5
14FF
330
14B3
100
AcDbEntity
  8
image
 62
     3
100
AcDbVertex
100
AcDb2dVertex
 10
5.774601443419547
 20
3.188846980706994
 30
0.0
 70
    16
  0
VERTEX
  5
1500
330
14B3
100
AcDbEntity
  8
image
 62
     3
100
AcDbVertex
100
AcDb2dVertex
 10
5.922891489539067
 20
3.55552502629516
 30
0.0
 70
    16
  0
VERTEX
  5
1501
330
14B3
100
AcDbEntity
  8
image
 62
     3
100
AcDbVertex
100
AcDb2dVertex
 10
6.203861981602351
 20
4.304484433644162
 30
0.0
 70
    16
  0
VERTEX
  5
1502
330
14B3
100
AcDbEntity
  8
image
 62
     3
100
AcDbVertex
100
AcDb2dVertex
 10
6.570684632659983
 20
4.741377402009332
 30
0.0
 70
    16
  0
VERTEX
  5
1503
330
14B3
100
AcDbEntity
  8
image
 62
     3
100
AcDbVertex
100
AcDb2dVertex
 10
7.218477690184585
 20
5.006633892475162
 30
0.0
 70
    16
  0
VERTEX
  5
1504
330
14B3
100
AcDbEntity
  8
image
 62
     3
100
AcDbVertex
100
AcDb2dVertex
 10
7.600909770225349
 20
4.983228918216161
 30
0.0
 70
    16
  0
VERTEX
  5
1505
330
14B3
100
AcDbEntity
  8
image
 62
     3
100
AcDbVertex
100
AcDb2dVertex
 10
7.819442460759773
 20
4.88180730532858
 30
0.0
 70
    16
  0
VERTEX
  5
1506
330
14B3
100
AcDbEntity
  8
image
 62
     3
100
AcDbVertex
100
AcDb2dVertex
 10
7.967732421282981
 20
4.530732575913081
 30
0.0
 70
    16
  0
VERTEX
  5
1507
330
14B3
100
AcDbEntity
  8
image
 62
     3
100
AcDbVertex
100
AcDb2dVertex
 10
8.100412952823056
 20
4.093839607547911
 30
0.0
 70
    16
  0
VERTEX
  5
1508
330
14B3
100
AcDbEntity
  8
image
 62
     3
100
AcDbVertex
100
AcDb2dVertex
 10
8.100412952823056
 20
3.946163906974549
 30
0.0
 70
    16
  0
SEQEND
  5
1509
330
14B3
100
AcDbEntity
  8
image
 62
     3
  0
TEXT
  5
16AA
330
2
100
AcDbEntity
  8
image
 62
     3
100
AcDbText
 10
5.473710404137583
 20
5.210435007727012
 30
0.0
 40
0.125
  1
GREEN / YELLOW
  7
arial
100
AcDbText
  0
TEXT
  5
16AB
330
2
100
AcDbEntity
  8
image
 62
     3
100
AcDbText
 10
5.910807891053045
 20
5.033339829966559
 30
0.0
 40
0.125
  1
WIRE
  7
arial
100
AcDbText
  0
TEXT
  5
16AC
330
2
100
AcDbEntity
  8
image
100
AcDbText
 10
2.069980200468886
 20
1.526366960161974
 30
0.0
 40
0.125
  1
ROD
  7
arial
100
AcDbText
  0
TEXT
  5
16AD
330
2
100
AcDbEntity
  8
image
100
AcDbText
 10
2.069980200468886
 20
1.767328760980527
 30
0.0
 40
0.125
  1
GROUNDING
  7
arial
100
AcDbText
  0
TEXT
  5
1704
330
2
100
AcDbEntity
  8
image
100
AcDbText
 10
2.102708710781463
 20
6.536278680026402
 30
0.0
 40
0.125
  1
COMMUNICATION WIRE
  7
arial
100
AcDbText
  0
TEXT
  5
1705
330
2
100
AcDbEntity
  8
image
100
AcDbText
 10
3.876198038627754
 20
7.558675209502734
 30
0.0
 40
0.125
  1
COMMUNICATION WIRE
  7
arial
100
AcDbText
  0
TEXT
  5
1706
330
2
100
AcDbEntity
  8
image
 62
     5
100
AcDbText
 10
6.561946280479459
 20
6.067857567065765
 30
0.0
 40
0.125
  1
BLUE
  7
arial
100
AcDbText
  0
TEXT
  5
1707
330
2
100
AcDbEntity
  8
image
 62
     5
100
AcDbText
 10
6.561946280479459
 20
5.898037179824968
 30
0.0
 40
0.125
  1
WIRE
  7
arial
100
AcDbText
  0
TEXT
  5
1708
330
2
100
AcDbEntity
  8
image
 62
     5
100
AcDbText
 10
6.243627701469406
 20
7.249293566247424
 30
0.0
 40
0.125
  1
BLUE
  7
arial
100
AcDbText
  0
TEXT
  5
1709
330
2
100
AcDbEntity
  8
image
 62
     5
100
AcDbText
 10
6.243627701469406
 20
7.079473179006627
 30
0.0
 40
0.125
  1
WIRE
  7
arial
100
AcDbText
  0
TEXT
  5
170E
330
2
100
AcDbEntity
  8
image
 62
     3
100
AcDbText
 10
6.820252683794456
 20
4.096401194721531
 30
0.0
 40
0.125
  1
WIRE
  7
arial
100
AcDbText
  0
TEXT
  5
170F
330
2
100
AcDbEntity
  8
image
 62
     3
100
AcDbText
 10
6.383155196878994
 20
4.273496372481984
 30
0.0
 40
0.125
  1
GREEN / YELLOW
  7
arial
100
AcDbText
  0
LINE
  5
1AA9
330
2
100
AcDbEntity
  8
image
100
AcDbLine
 10
9.786561382451628
 20
4.721664596063346
 30
0.0
 11
9.872757597216695
 21
4.801328380504257
 31
0.0
  0
LINE
  5
1AAA
330
2
100
AcDbEntity
  8
image
100
AcDbLine
 10
9.764733505514817
 20
4.877805613567543
 30
0.0
 11
9.882635906487385
 21
4.877805613567543
 31
0.0
  0
LINE
  5
1AAB
330
2
100
AcDbEntity
  8
image
100
AcDbLine
 10
9.777479711025369
 20
4.877805613567543
 30
0.0
 11
9.777479711025369
 21
4.830007342902986
 31
0.0
  0
LINE
  5
1AAC
330
2
100
AcDbEntity
  8
image
100
AcDbLine
 10
9.764733505514817
 20
4.877805613567543
 30
0.0
 11
9.764733505514817
 21
4.830007342902986
 31
0.0
  0
LINE
  5
1AAD
330
2
100
AcDbEntity
  8
image
100
AcDbLine
 10
9.924061074396652
 20
4.830007342902986
 30
0.0
 11
9.924061074396652
 21
4.801328380504257
 31
0.0
  0
LINE
  5
1AAE
330
2
100
AcDbEntity
  8
image
100
AcDbLine
 10
9.882635906487385
 20
4.877805613567543
 30
0.0
 11
9.882635906487385
 21
4.830007342902986
 31
0.0
  0
LINE
  5
1AAF
330
2
100
AcDbEntity
  8
image
100
AcDbLine
 10
9.872757597216695
 20
4.801328380504257
 30
0.0
 11
9.872757597216695
 21
4.815667861703621
 31
0.0
  0
LINE
  5
1AB0
330
2
100
AcDbEntity
  8
image
100
AcDbLine
 10
9.872757597216695
 20
4.801328380504257
 30
0.0
 11
9.924061074396652
 21
4.801328380504257
 31
0.0
  0
LINE
  5
1AB1
330
2
100
AcDbEntity
  8
image
100
AcDbLine
 10
9.462011124639337
 20
4.801328380504257
 30
0.0
 11
9.513314601819294
 21
4.801328380504257
 31
0.0
  0
LINE
  5
1AB2
330
2
100
AcDbEntity
  8
image
100
AcDbLine
 10
9.462011124639337
 20
4.801328380504257
 30
0.0
 11
9.462011124639337
 21
4.830007342902986
 31
0.0
  0
LINE
  5
1AB3
330
2
100
AcDbEntity
  8
image
100
AcDbLine
 10
9.513314601819294
 20
4.801328380504257
 30
0.0
 11
9.513314601819294
 21
4.815667861703621
 31
0.0
  0
LINE
  5
1AB4
330
2
100
AcDbEntity
  8
image
100
AcDbLine
 10
9.599510816584361
 20
4.721664596063346
 30
0.0
 11
9.513314601819294
 21
4.801328380504257
 31
0.0
  0
LINE
  5
1AB5
330
2
100
AcDbEntity
  8
image
100
AcDbLine
 10
9.516182498059157
 20
4.877805613567543
 30
0.0
 11
9.621338693521172
 21
4.877805613567543
 31
0.0
  0
LINE
  5
1AB6
330
2
100
AcDbEntity
  8
image
100
AcDbLine
 10
9.621338693521172
 20
4.877805613567543
 30
0.0
 11
9.621338693521172
 21
4.830007342902986
 31
0.0
  0
LINE
  5
1AB7
330
2
100
AcDbEntity
  8
image
100
AcDbLine
 10
9.60859248801062
 20
4.877805613567543
 30
0.0
 11
9.60859248801062
 21
4.830007342902986
 31
0.0
  0
LINE
  5
1AB8
330
2
100
AcDbEntity
  8
image
100
AcDbLine
 10
9.516182498059157
 20
4.877805613567543
 30
0.0
 11
9.516182498059157
 21
4.830007342902986
 31
0.0
  0
LINE
  5
1AB9
330
2
100
AcDbEntity
  8
image
100
AcDbLine
 10
9.462011124639337
 20
4.830007342902986
 30
0.0
 11
9.924061074396652
 21
4.830007342902986
 31
0.0
  0
LINE
  5
1ABA
330
2
100
AcDbEntity
  8
image
100
AcDbLine
 10
9.462011124639337
 20
4.815667861703621
 30
0.0
 11
9.924061074396652
 21
4.815667861703621
 31
0.0
  0
LINE
  5
1ABB
330
2
100
AcDbEntity
  8
image
100
AcDbLine
 10
9.599510816584361
 20
4.721664596063346
 30
0.0
 11
9.786561382451628
 21
4.721664596063346
 31
0.0
  0
ARC
  5
1ABC
330
2
100
AcDbEntity
  8
image
100
AcDbCircle
 10
9.693036099517994
 20
4.158760295203817
 30
0.0
 40
0.093525282933636
100
AcDbArc
 50
180.0
 51
0.0
  0
LINE
  5
1ABD
330
2
100
AcDbEntity
  8
image
100
AcDbLine
 10
9.786561382451628
 20
4.721664596063346
 30
0.0
 11
9.786561382451628
 21
4.158760295203817
 31
0.0
  0
LINE
  5
1ABE
330
2
100
AcDbEntity
  8
image
100
AcDbLine
 10
9.599510816584361
 20
4.721664596063346
 30
0.0
 11
9.599510816584361
 21
4.158760295203817
 31
0.0
  0
POLYLINE
  5
1B03
330
2
100
AcDbEntity
  8
image
 62
     7
100
AcDb2dPolyline
 66
     1
 10
0.0
 20
0.0
 30
0.0
 40
0.037
 41
0.037
  0
VERTEX
  5
1B04
330
1B03
100
AcDbEntity
  8
image
 62
     7
100
AcDbVertex
100
AcDb2dVertex
 10
8.276635163856779
 20
3.946163906974549
 30
0.0
  0
VERTEX
  5
1B05
330
1B03
100
AcDbEntity
  8
image
 62
     7
100
AcDbVertex
100
AcDb2dVertex
 10
8.279307431947465
 20
4.049611606878595
 30
0.0
  0
VERTEX
  5
1B06
330
1B03
100
AcDbEntity
  8
image
 62
     7
100
AcDbVertex
100
AcDb2dVertex
 10
8.283610640724509
 20
4.13345871520139
 30
0.0
  0
VERTEX
  5
1B07
330
1B03
100
AcDbEntity
  8
image
 62
     7
100
AcDbVertex
100
AcDb2dVertex
 10
8.289549630077075
 20
4.20087573768997
 30
0.0
  0
VERTEX
  5
1B08
330
1B03
100
AcDbEntity
  8
image
 62
     7
100
AcDbVertex
100
AcDb2dVertex
 10
8.297129239894324
 20
4.255033180091368
 30
0.0
  0
VERTEX
  5
1B09
330
1B03
100
AcDbEntity
  8
image
 62
     7
100
AcDbVertex
100
AcDb2dVertex
 10
8.306354310065419
 20
4.299101548152617
 30
0.0
  0
VERTEX
  5
1B0A
330
1B03
100
AcDbEntity
  8
image
 62
     7
100
AcDbVertex
100
AcDb2dVertex
 10
8.317229680479524
 20
4.336251347620754
 30
0.0
  0
VERTEX
  5
1B0B
330
1B03
100
AcDbEntity
  8
image
 62
     7
100
AcDbVertex
100
AcDb2dVertex
 10
8.329760191025801
 20
4.369653084242809
 30
0.0
  0
VERTEX
  5
1B0C
330
1B03
100
AcDbEntity
  8
image
 62
     7
100
AcDbVertex
100
AcDb2dVertex
 10
8.34395068159341
 20
4.402477263765819
 30
0.0
  0
VERTEX
  5
1B0D
330
1B03
100
AcDbEntity
  8
image
 62
     7
100
AcDbVertex
100
AcDb2dVertex
 10
8.359896331097051
 20
4.437244228268085
 30
0.0
  0
VERTEX
  5
1B0E
330
1B03
100
AcDbEntity
  8
image
 62
     7
100
AcDbVertex
100
AcDb2dVertex
 10
8.378053674553555
 20
4.473873665152973
 30
0.0
  0
VERTEX
  5
1B0F
330
1B03
100
AcDbEntity
  8
image
 62
     7
100
AcDbVertex
100
AcDb2dVertex
 10
8.398969586005286
 20
4.511635098155118
 30
0.0
  0
VERTEX
  5
1B10
330
1B03
100
AcDbEntity
  8
image
 62
     7
100
AcDbVertex
100
AcDb2dVertex
 10
8.423190939494613
 20
4.549798051009156
 30
0.0
  0
VERTEX
  5
1B11
330
1B03
100
AcDbEntity
  8
image
 62
     7
100
AcDbVertex
100
AcDb2dVertex
 10
8.451264609063903
 20
4.58763204744972
 30
0.0
  0
VERTEX
  5
1B12
330
1B03
100
AcDbEntity
  8
image
 62
     7
100
AcDbVertex
100
AcDb2dVertex
 10
8.483737468755519
 20
4.624406611211446
 30
0.0
  0
VERTEX
  5
1B13
330
1B03
100
AcDbEntity
  8
image
 62
     7
100
AcDbVertex
100
AcDb2dVertex
 10
8.521156392611828
 20
4.659391266028967
 30
0.0
  0
VERTEX
  5
1B14
330
1B03
100
AcDbEntity
  8
image
 62
     7
100
AcDbVertex
100
AcDb2dVertex
 10
8.564068254675197
 20
4.69185553563692
 30
0.0
  0
VERTEX
  5
1B15
330
1B03
100
AcDbEntity
  8
image
 62
     7
100
AcDbVertex
100
AcDb2dVertex
 10
8.612986858428495
 20
4.721195527411487
 30
0.0
  0
VERTEX
  5
1B16
330
1B03
100
AcDbEntity
  8
image
 62
     7
100
AcDbVertex
100
AcDb2dVertex
 10
8.668293725116601
 20
4.747313683295057
 30
0.0
  0
VERTEX
  5
1B17
330
1B03
100
AcDbEntity
  8
image
 62
     7
100
AcDbVertex
100
AcDb2dVertex
 10
8.730337305424903
 20
4.770239028871565
 30
0.0
  0
VERTEX
  5
1B18
330
1B03
100
AcDbEntity
  8
image
 62
     7
100
AcDbVertex
100
AcDb2dVertex
 10
8.799466050038788
 20
4.790000589724949
 30
0.0
  0
VERTEX
  5
1B19
330
1B03
100
AcDbEntity
  8
image
 62
     7
100
AcDbVertex
100
AcDb2dVertex
 10
8.876028409643632
 20
4.806627391439148
 30
0.0
  0
VERTEX
  5
1B1A
330
1B03
100
AcDbEntity
  8
image
 62
     7
100
AcDbVertex
100
AcDb2dVertex
 10
8.960372834924827
 20
4.820148459598096
 30
0.0
  0
VERTEX
  5
1B1B
330
1B03
100
AcDbEntity
  8
image
 62
     7
100
AcDbVertex
100
AcDb2dVertex
 10
9.052847776567755
 20
4.830592819785731
 30
0.0
  0
VERTEX
  5
1B1C
330
1B03
100
AcDbEntity
  8
image
 62
     7
100
AcDbVertex
100
AcDb2dVertex
 10
9.153801685257802
 20
4.837989497585991
 30
0.0
  0
VERTEX
  5
1B1D
330
1B03
100
AcDbEntity
  8
image
 62
     7
100
AcDbVertex
100
AcDb2dVertex
 10
9.263279730507733
 20
4.842427182187703
 30
0.0
  0
VERTEX
  5
1B1E
330
1B03
100
AcDbEntity
  8
image
 62
     7
100
AcDbVertex
100
AcDb2dVertex
 10
9.380113957139844
 20
4.844233217199262
 30
0.0
  0
VERTEX
  5
1B1F
330
1B03
100
AcDbEntity
  8
image
 62
     7
100
AcDbVertex
100
AcDb2dVertex
 10
9.516182498059157
 20
4.854709386873591
 30
0.0
  0
SEQEND
  5
1B20
330
1B03
100
AcDbEntity
  8
image
 62
     7
  0
POLYLINE
  5
1B47
330
2
100
AcDbEntity
  8
image
 62
     7
100
AcDb2dPolyline
 66
     1
 10
0.0
 20
0.0
 30
0.0
 40
0.037
 41
0.037
  0
VERTEX
  5
1B48
330
1B47
100
AcDbEntity
  8
image
 62
     7
100
AcDbVertex
100
AcDb2dVertex
 10
9.882635906487385
 20
4.853906478235264
 30
0.0
  0
VERTEX
  5
1B49
330
1B47
100
AcDbEntity
  8
image
 62
     7
100
AcDbVertex
100
AcDb2dVertex
 10
10.02313453877188
 20
4.827333900869646
 30
0.0
  0
VERTEX
  5
1B4A
330
1B47
100
AcDbEntity
  8
image
 62
     7
100
AcDbVertex
100
AcDb2dVertex
 10
10.15320989034033
 20
4.821477189819227
 30
0.0
  0
VERTEX
  5
1B4B
330
1B47
100
AcDbEntity
  8
image
 62
     7
100
AcDbVertex
100
AcDb2dVertex
 10
10.28050731503418
 20
4.815684979470047
 30
0.0
  0
VERTEX
  5
1B4C
330
1B47
100
AcDbEntity
  8
image
 62
     7
100
AcDbVertex
100
AcDb2dVertex
 10
10.40437830748046
 20
4.81027977602743
 30
0.0
  0
VERTEX
  5
1B4D
330
1B47
100
AcDbEntity
  8
image
 62
     7
100
AcDbVertex
100
AcDb2dVertex
 10
10.52433890850165
 20
4.80557118549511
 30
0.0
  0
VERTEX
  5
1B4E
330
1B47
100
AcDbEntity
  8
image
 62
     7
100
AcDbVertex
100
AcDb2dVertex
 10
10.63990515892026
 20
4.801868813876821
 30
0.0
  0
VERTEX
  5
1B4F
330
1B47
100
AcDbEntity
  8
image
 62
     7
100
AcDbVertex
100
AcDb2dVertex
 10
10.75059309955876
 20
4.799482267176299
 30
0.0
  0
VERTEX
  5
1B50
330
1B47
100
AcDbEntity
  8
image
 62
     7
100
AcDbVertex
100
AcDb2dVertex
 10
10.85591877123967
 20
4.798721151397276
 30
0.0
  0
VERTEX
  5
1B51
330
1B47
100
AcDbEntity
  8
image
 62
     7
100
AcDbVertex
100
AcDb2dVertex
 10
10.95539821478546
 20
4.799895072543486
 30
0.0
  0
VERTEX
  5
1B52
330
1B47
100
AcDbEntity
  8
image
 62
     7
100
AcDbVertex
100
AcDb2dVertex
 10
11.04854747101863
 20
4.803313636618664
 30
0.0
  0
VERTEX
  5
1B53
330
1B47
100
AcDbEntity
  8
image
 62
     7
100
AcDbVertex
100
AcDb2dVertex
 10
11.13496646701726
 20
4.809215498236629
 30
0.0
  0
VERTEX
  5
1B54
330
1B47
100
AcDbEntity
  8
image
 62
     7
100
AcDbVertex
100
AcDb2dVertex
 10
11.21459067488178
 20
4.817555506451548
 30
0.0
  0
VERTEX
  5
1B55
330
1B47
100
AcDbEntity
  8
image
 62
     7
100
AcDbVertex
100
AcDb2dVertex
 10
11.28743945296821
 20
4.828217558927671
 30
0.0
  0
VERTEX
  5
1B56
330
1B47
100
AcDbEntity
  8
image
 62
     7
100
AcDbVertex
100
AcDb2dVertex
 10
11.35353215963257
 20
4.841085553329252
 30
0.0
  0
VERTEX
  5
1B57
330
1B47
100
AcDbEntity
  8
image
 62
     7
100
AcDbVertex
100
AcDb2dVertex
 10
11.41288815323086
 20
4.85604338732054
 30
0.0
  0
VERTEX
  5
1B58
330
1B47
100
AcDbEntity
  8
image
 62
     7
100
AcDbVertex
100
AcDb2dVertex
 10
11.46552679211912
 20
4.872974958565789
 30
0.0
  0
VERTEX
  5
1B59
330
1B47
100
AcDbEntity
  8
image
 62
     7
100
AcDbVertex
100
AcDb2dVertex
 10
11.51146743465336
 20
4.89176416472925
 30
0.0
  0
VERTEX
  5
1B5A
330
1B47
100
AcDbEntity
  8
image
 62
     7
100
AcDbVertex
100
AcDb2dVertex
 10
11.5507294391896
 20
4.912294903475174
 30
0.0
  0
VERTEX
  5
1B5B
330
1B47
100
AcDbEntity
  8
image
 62
     7
100
AcDbVertex
100
AcDb2dVertex
 10
11.58341927674749
 20
4.934391738574211
 30
0.0
  0
VERTEX
  5
1B5C
330
1B47
100
AcDbEntity
  8
image
 62
     7
100
AcDbVertex
100
AcDb2dVertex
 10
11.60999186900132
 20
4.957641898222595
 30
0.0
  0
VERTEX
  5
1B5D
330
1B47
100
AcDbEntity
  8
image
 62
     7
100
AcDbVertex
100
AcDb2dVertex
 10
11.630989250289
 20
4.981573276722957
 30
0.0
  0
VERTEX
  5
1B5E
330
1B47
100
AcDbEntity
  8
image
 62
     7
100
AcDbVertex
100
AcDb2dVertex
 10
11.64695345494843
 20
5.005713768377929
 30
0.0
  0
VERTEX
  5
1B5F
330
1B47
100
AcDbEntity
  8
image
 62
     7
100
AcDbVertex
100
AcDb2dVertex
 10
11.65842651731755
 20
5.029591267490141
 30
0.0
  0
VERTEX
  5
1B60
330
1B47
100
AcDbEntity
  8
image
 62
     7
100
AcDbVertex
100
AcDb2dVertex
 10
11.66595047173425
 20
5.052733668362226
 30
0.0
  0
VERTEX
  5
1B61
330
1B47
100
AcDbEntity
  8
image
 62
     7
100
AcDbVertex
100
AcDb2dVertex
 10
11.67006735253647
 20
5.074668865296815
 30
0.0
  0
VERTEX
  5
1B62
330
1B47
100
AcDbEntity
  8
image
 62
     7
100
AcDbVertex
100
AcDb2dVertex
 10
11.67131919406212
 20
5.094924752596539
 30
0.0
  0
SEQEND
  5
1B63
330
1B47
100
AcDbEntity
  8
image
 62
     7
  0
LINE
  5
1BBC
330
2
100
AcDbEntity
  8
image
100
AcDbLine
 10
10.02011462874323
 20
4.385282256670789
 30
0.0
 11
10.02011462874323
 21
3.822377955811259
 31
0.0
  0
LINE
  5
1BBD
330
2
100
AcDbEntity
  8
image
100
AcDbLine
 10
10.2071651946105
 20
4.385282256670789
 30
0.0
 11
10.2071651946105
 21
3.822377955811259
 31
0.0
  0
ARC
  5
1BBE
330
2
100
AcDbEntity
  8
image
100
AcDbCircle
 10
10.11363991167686
 20
3.822377955811259
 30
0.0
 40
0.093525282933636
100
AcDbArc
 50
180.0
 51
0.0
  0
LINE
  5
1BBF
330
2
100
AcDbEntity
  8
image
100
AcDbLine
 10
10.02011462874323
 20
4.385282256670789
 30
0.0
 11
10.2071651946105
 21
4.385282256670789
 31
0.0
  0
LINE
  5
1BC0
330
2
100
AcDbEntity
  8
image
100
AcDbLine
 10
9.882614936798207
 20
4.479285522311064
 30
0.0
 11
10.34466488655552
 21
4.479285522311064
 31
0.0
  0
LINE
  5
1BC1
330
2
100
AcDbEntity
  8
image
100
AcDbLine
 10
9.882614936798207
 20
4.493625003510429
 30
0.0
 11
10.34466488655552
 21
4.493625003510429
 31
0.0
  0
LINE
  5
1BC2
330
2
100
AcDbEntity
  8
image
100
AcDbLine
 10
9.936786310218026
 20
4.541423274174986
 30
0.0
 11
9.936786310218026
 21
4.493625003510429
 31
0.0
  0
LINE
  5
1BC3
330
2
100
AcDbEntity
  8
image
100
AcDbLine
 10
10.02919630016949
 20
4.541423274174986
 30
0.0
 11
10.02919630016949
 21
4.493625003510429
 31
0.0
  0
LINE
  5
1BC4
330
2
100
AcDbEntity
  8
image
100
AcDbLine
 10
10.04194250568004
 20
4.541423274174986
 30
0.0
 11
10.04194250568004
 21
4.493625003510429
 31
0.0
  0
LINE
  5
1BC5
330
2
100
AcDbEntity
  8
image
100
AcDbLine
 10
9.936786310218026
 20
4.541423274174986
 30
0.0
 11
10.04194250568004
 21
4.541423274174986
 31
0.0
  0
LINE
  5
1BC6
330
2
100
AcDbEntity
  8
image
100
AcDbLine
 10
10.02011462874323
 20
4.385282256670789
 30
0.0
 11
9.933918413978163
 21
4.4649460411117
 31
0.0
  0
LINE
  5
1BC7
330
2
100
AcDbEntity
  8
image
100
AcDbLine
 10
9.933918413978163
 20
4.4649460411117
 30
0.0
 11
9.933918413978163
 21
4.479285522311064
 31
0.0
  0
LINE
  5
1BC8
330
2
100
AcDbEntity
  8
image
100
AcDbLine
 10
9.882614936798207
 20
4.4649460411117
 30
0.0
 11
9.882614936798207
 21
4.493625003510429
 31
0.0
  0
LINE
  5
1BC9
330
2
100
AcDbEntity
  8
image
100
AcDbLine
 10
9.882614936798207
 20
4.4649460411117
 30
0.0
 11
9.933918413978163
 21
4.4649460411117
 31
0.0
  0
LINE
  5
1BCA
330
2
100
AcDbEntity
  8
image
100
AcDbLine
 10
10.29336140937556
 20
4.4649460411117
 30
0.0
 11
10.34466488655552
 21
4.4649460411117
 31
0.0
  0
LINE
  5
1BCB
330
2
100
AcDbEntity
  8
image
100
AcDbLine
 10
10.29336140937556
 20
4.4649460411117
 30
0.0
 11
10.29336140937556
 21
4.479285522311064
 31
0.0
  0
LINE
  5
1BCC
330
2
100
AcDbEntity
  8
image
100
AcDbLine
 10
10.30323971864625
 20
4.541423274174986
 30
0.0
 11
10.30323971864625
 21
4.493625003510429
 31
0.0
  0
LINE
  5
1BCD
330
2
100
AcDbEntity
  8
image
100
AcDbLine
 10
10.34466488655552
 20
4.493625003510429
 30
0.0
 11
10.34466488655552
 21
4.4649460411117
 31
0.0
  0
LINE
  5
1BCE
330
2
100
AcDbEntity
  8
image
100
AcDbLine
 10
10.18533731767369
 20
4.541423274174986
 30
0.0
 11
10.18533731767369
 21
4.493625003510429
 31
0.0
  0
LINE
  5
1BCF
330
2
100
AcDbEntity
  8
image
100
AcDbLine
 10
10.19808352318424
 20
4.541423274174986
 30
0.0
 11
10.19808352318424
 21
4.493625003510429
 31
0.0
  0
LINE
  5
1BD0
330
2
100
AcDbEntity
  8
image
100
AcDbLine
 10
10.18533731767369
 20
4.541423274174986
 30
0.0
 11
10.30323971864625
 21
4.541423274174986
 31
0.0
  0
LINE
  5
1BD1
330
2
100
AcDbEntity
  8
image
100
AcDbLine
 10
10.2071651946105
 20
4.385282256670789
 30
0.0
 11
10.29336140937556
 21
4.4649460411117
 31
0.0
  0
POLYLINE
  5
1BD2
330
2
100
AcDbEntity
  8
image
 62
     1
100
AcDb2dPolyline
 66
     1
 10
0.0
 20
0.0
 30
0.0
 40
0.037
 41
0.037
  0
VERTEX
  5
1BD3
330
1BD2
100
AcDbEntity
  8
image
 62
     1
100
AcDbVertex
100
AcDb2dVertex
 10
8.235706700099949
 20
3.946163906974549
 30
0.0
  0
VERTEX
  5
1BD4
330
1BD2
100
AcDbEntity
  8
image
 62
     1
100
AcDbVertex
100
AcDb2dVertex
 10
8.240508462853892
 20
4.026250630418764
 30
0.0
  0
VERTEX
  5
1BD5
330
1BD2
100
AcDbEntity
  8
image
 62
     1
100
AcDbVertex
100
AcDb2dVertex
 10
8.246817593199914
 20
4.092474907626217
 30
0.0
  0
VERTEX
  5
1BD6
330
1BD2
100
AcDbEntity
  8
image
 62
     1
100
AcDbVertex
100
AcDb2dVertex
 10
8.254776294958686
 20
4.146561226130412
 30
0.0
  0
VERTEX
  5
1BD7
330
1BD2
100
AcDbEntity
  8
image
 62
     1
100
AcDbVertex
100
AcDb2dVertex
 10
8.264526771950878
 20
4.19023407346485
 30
0.0
  0
VERTEX
  5
1BD8
330
1BD2
100
AcDbEntity
  8
image
 62
     1
100
AcDbVertex
100
AcDb2dVertex
 10
8.27621122799716
 20
4.225217937163035
 30
0.0
  0
VERTEX
  5
1BD9
330
1BD2
100
AcDbEntity
  8
image
 62
     1
100
AcDbVertex
100
AcDb2dVertex
 10
8.289971866918204
 20
4.253237304758472
 30
0.0
  0
VERTEX
  5
1BDA
330
1BD2
100
AcDbEntity
  8
image
 62
     1
100
AcDbVertex
100
AcDb2dVertex
 10
8.305950892534681
 20
4.276016663784662
 30
0.0
  0
VERTEX
  5
1BDB
330
1BD2
100
AcDbEntity
  8
image
 62
     1
100
AcDbVertex
100
AcDb2dVertex
 10
8.324290508667262
 20
4.295280501775108
 30
0.0
  0
VERTEX
  5
1BDC
330
1BD2
100
AcDbEntity
  8
image
 62
     1
100
AcDbVertex
100
AcDb2dVertex
 10
8.345144769612781
 20
4.31251268124091
 30
0.0
  0
VERTEX
  5
1BDD
330
1BD2
100
AcDbEntity
  8
image
 62
     1
100
AcDbVertex
100
AcDb2dVertex
 10
8.368715131572734
 20
4.32823456460354
 30
0.0
  0
VERTEX
  5
1BDE
330
1BD2
100
AcDbEntity
  8
image
 62
     1
100
AcDbVertex
100
AcDb2dVertex
 10
8.395214901224777
 20
4.342726889262069
 30
0.0
  0
VERTEX
  5
1BDF
330
1BD2
100
AcDbEntity
  8
image
 62
     1
100
AcDbVertex
100
AcDb2dVertex
 10
8.424857385246571
 20
4.356270392615563
 30
0.0
  0
VERTEX
  5
1BE0
330
1BD2
100
AcDbEntity
  8
image
 62
     1
100
AcDbVertex
100
AcDb2dVertex
 10
8.457855890315777
 20
4.369145812063094
 30
0.0
  0
VERTEX
  5
1BE1
330
1BD2
100
AcDbEntity
  8
image
 62
     1
100
AcDbVertex
100
AcDb2dVertex
 10
8.494423723110049
 20
4.381633885003729
 30
0.0
  0
VERTEX
  5
1BE2
330
1BD2
100
AcDbEntity
  8
image
 62
     1
100
AcDbVertex
100
AcDb2dVertex
 10
8.534774190307047
 20
4.394015348836537
 30
0.0
  0
VERTEX
  5
1BE3
330
1BD2
100
AcDbEntity
  8
image
 62
     1
100
AcDbVertex
100
AcDb2dVertex
 10
8.579120598584434
 20
4.406570940960589
 30
0.0
  0
VERTEX
  5
1BE4
330
1BD2
100
AcDbEntity
  8
image
 62
     1
100
AcDbVertex
100
AcDb2dVertex
 10
8.627547085661088
 20
4.41949078101285
 30
0.0
  0
VERTEX
  5
1BE5
330
1BD2
100
AcDbEntity
  8
image
 62
     1
100
AcDbVertex
100
AcDb2dVertex
 10
8.679621113420786
 20
4.432602517581887
 30
0.0
  0
VERTEX
  5
1BE6
330
1BD2
100
AcDbEntity
  8
image
 62
     1
100
AcDbVertex
100
AcDb2dVertex
 10
8.734780974788522
 20
4.445643181494165
 30
0.0
  0
VERTEX
  5
1BE7
330
1BD2
100
AcDbEntity
  8
image
 62
     1
100
AcDbVertex
100
AcDb2dVertex
 10
8.792464962689297
 20
4.458349803576148
 30
0.0
  0
VERTEX
  5
1BE8
330
1BD2
100
AcDbEntity
  8
image
 62
     1
100
AcDbVertex
100
AcDb2dVertex
 10
8.852111370048106
 20
4.470459414654303
 30
0.0
  0
VERTEX
  5
1BE9
330
1BD2
100
AcDbEntity
  8
image
 62
     1
100
AcDbVertex
100
AcDb2dVertex
 10
8.91315848978995
 20
4.481709045555092
 30
0.0
  0
VERTEX
  5
1BEA
330
1BD2
100
AcDbEntity
  8
image
 62
     1
100
AcDbVertex
100
AcDb2dVertex
 10
8.975044614839823
 20
4.491835727104983
 30
0.0
  0
VERTEX
  5
1BEB
330
1BD2
100
AcDbEntity
  8
image
 62
     1
100
AcDbVertex
100
AcDb2dVertex
 10
9.037208038122725
 20
4.500576490130439
 30
0.0
  0
VERTEX
  5
1BEC
330
1BD2
100
AcDbEntity
  8
image
 62
     1
100
AcDbVertex
100
AcDb2dVertex
 10
9.099271918160088
 20
4.507737069122232
 30
0.0
  0
VERTEX
  5
1BED
330
1BD2
100
AcDbEntity
  8
image
 62
     1
100
AcDbVertex
100
AcDb2dVertex
 10
9.16159887585908
 20
4.513398013228355
 30
0.0
  0
VERTEX
  5
1BEE
330
1BD2
100
AcDbEntity
  8
image
 62
     1
100
AcDbVertex
100
AcDb2dVertex
 10
9.224736397723308
 20
4.517708575261112
 30
0.0
  0
VERTEX
  5
1BEF
330
1BD2
100
AcDbEntity
  8
image
 62
     1
100
AcDbVertex
100
AcDb2dVertex
 10
9.289231970256377
 20
4.520818008032803
 30
0.0
  0
VERTEX
  5
1BF0
330
1BD2
100
AcDbEntity
  8
image
 62
     1
100
AcDbVertex
100
AcDb2dVertex
 10
9.35563307996189
 20
4.522875564355729
 30
0.0
  0
VERTEX
  5
1BF1
330
1BD2
100
AcDbEntity
  8
image
 62
     1
100
AcDbVertex
100
AcDb2dVertex
 10
9.424487213343454
 20
4.524030497042192
 30
0.0
  0
VERTEX
  5
1BF2
330
1BD2
100
AcDbEntity
  8
image
 62
     1
100
AcDbVertex
100
AcDb2dVertex
 10
9.49634185690467
 20
4.524432058904494
 30
0.0
  0
VERTEX
  5
1BF3
330
1BD2
100
AcDbEntity
  8
image
 62
     1
100
AcDbVertex
100
AcDb2dVertex
 10
9.571744497149147
 20
4.524229502754934
 30
0.0
  0
VERTEX
  5
1BF4
330
1BD2
100
AcDbEntity
  8
image
 62
     1
100
AcDbVertex
100
AcDb2dVertex
 10
9.65112240205412
 20
4.523569656784588
 30
0.0
  0
VERTEX
  5
1BF5
330
1BD2
100
AcDbEntity
  8
image
 62
     1
100
AcDbVertex
100
AcDb2dVertex
 10
9.734421965491357
 20
4.522589650699613
 30
0.0
  0
VERTEX
  5
1BF6
330
1BD2
100
AcDbEntity
  8
image
 62
     1
100
AcDbVertex
100
AcDb2dVertex
 10
9.821469362806258
 20
4.521424189584939
 30
0.0
  0
VERTEX
  5
1BF7
330
1BD2
100
AcDbEntity
  8
image
 62
     1
100
AcDbVertex
100
AcDb2dVertex
 10
9.912090769344223
 20
4.520207978525496
 30
0.0
  0
VERTEX
  5
1BF8
330
1BD2
100
AcDbEntity
  8
image
 62
     1
100
AcDbVertex
100
AcDb2dVertex
 10
9.936786310218026
 20
4.519910582235929
 30
0.0
  0
SEQEND
  5
1BF9
330
1BD2
100
AcDbEntity
  8
image
 62
     1
  0
POLYLINE
  5
1BFA
330
2
100
AcDbEntity
  8
image
 62
     1
100
AcDb2dPolyline
 66
     1
 10
0.0
 20
0.0
 30
0.0
 40
0.037
 41
0.037
  0
VERTEX
  5
1BFB
330
1BFA
100
AcDbEntity
  8
image
 62
     1
100
AcDbVertex
100
AcDb2dVertex
 10
10.30323971864625
 20
4.517532254448105
 30
0.0
  0
VERTEX
  5
1BFC
330
1BFA
100
AcDbEntity
  8
image
 62
     1
100
AcDbVertex
100
AcDb2dVertex
 10
10.30683999463472
 20
4.517529736538639
 30
0.0
  0
VERTEX
  5
1BFD
330
1BFA
100
AcDbEntity
  8
image
 62
     1
100
AcDbVertex
100
AcDb2dVertex
 10
10.41256568741023
 20
4.518066304020305
 30
0.0
  0
VERTEX
  5
1BFE
330
1BFA
100
AcDbEntity
  8
image
 62
     1
100
AcDbVertex
100
AcDb2dVertex
 10
10.51987210112854
 20
4.519276064012784
 30
0.0
  0
VERTEX
  5
1BFF
330
1BFA
100
AcDbEntity
  8
image
 62
     1
100
AcDbVertex
100
AcDb2dVertex
 10
10.62763507078241
 20
4.521209433547008
 30
0.0
  0
VERTEX
  5
1C00
330
1BFA
100
AcDbEntity
  8
image
 62
     1
100
AcDbVertex
100
AcDb2dVertex
 10
10.73473043136456
 20
4.523916829653911
 30
0.0
  0
VERTEX
  5
1C01
330
1BFA
100
AcDbEntity
  8
image
 62
     1
100
AcDbVertex
100
AcDb2dVertex
 10
10.84003401786775
 20
4.527448669364421
 30
0.0
  0
VERTEX
  5
1C02
330
1BFA
100
AcDbEntity
  8
image
 62
     1
100
AcDbVertex
100
AcDb2dVertex
 10
10.94242166528472
 20
4.531855369709473
 30
0.0
  0
VERTEX
  5
1C03
330
1BFA
100
AcDbEntity
  8
image
 62
     1
100
AcDbVertex
100
AcDb2dVertex
 10
11.0407692086082
 20
4.537187347719997
 30
0.0
  0
VERTEX
  5
1C04
330
1BFA
100
AcDbEntity
  8
image
 62
     1
100
AcDbVertex
100
AcDb2dVertex
 10
11.13395248283095
 20
4.543495020426925
 30
0.0
  0
VERTEX
  5
1C05
330
1BFA
100
AcDbEntity
  8
image
 62
     1
100
AcDbVertex
100
AcDb2dVertex
 10
11.22104955932759
 20
4.550814423784991
 30
0.0
  0
VERTEX
  5
1C06
330
1BFA
100
AcDbEntity
  8
image
 62
     1
100
AcDbVertex
100
AcDb2dVertex
 10
11.30194745500034
 20
4.559124069444147
 30
0.0
  0
VERTEX
  5
1C07
330
1BFA
100
AcDbEntity
  8
image
 62
     1
100
AcDbVertex
100
AcDb2dVertex
 10
11.37673542313329
 20
4.568388087978139
 30
0.0
  0
VERTEX
  5
1C08
330
1BFA
100
AcDbEntity
  8
image
 62
     1
100
AcDbVertex
100
AcDb2dVertex
 10
11.44550271701055
 20
4.578570609960722
 30
0.0
  0
VERTEX
  5
1C09
330
1BFA
100
AcDbEntity
  8
image
 62
     1
100
AcDbVertex
100
AcDb2dVertex
 10
11.50833858991621
 20
4.589635765965647
 30
0.0
  0
VERTEX
  5
1C0A
330
1BFA
100
AcDbEntity
  8
image
 62
     1
100
AcDbVertex
100
AcDb2dVertex
 10
11.56533229513438
 20
4.601547686566665
 30
0.0
  0
VERTEX
  5
1C0B
330
1BFA
100
AcDbEntity
  8
image
 62
     1
100
AcDbVertex
100
AcDb2dVertex
 10
11.61657308594914
 20
4.614270502337528
 30
0.0
  0
VERTEX
  5
1C0C
330
1BFA
100
AcDbEntity
  8
image
 62
     1
100
AcDbVertex
100
AcDb2dVertex
 10
11.66215021564461
 20
4.627768343851986
 30
0.0
  0
VERTEX
  5
1C0D
330
1BFA
100
AcDbEntity
  8
image
 62
     1
100
AcDbVertex
100
AcDb2dVertex
 10
11.70223108726801
 20
4.642044487216532
 30
0.0
  0
VERTEX
  5
1C0E
330
1BFA
100
AcDbEntity
  8
image
 62
     1
100
AcDbVertex
100
AcDb2dVertex
 10
11.73729570291909
 20
4.657258790668607
 30
0.0
  0
VERTEX
  5
1C0F
330
1BFA
100
AcDbEntity
  8
image
 62
     1
100
AcDbVertex
100
AcDb2dVertex
 10
11.76790221446075
 20
4.673610257978396
 30
0.0
  0
VERTEX
  5
1C10
330
1BFA
100
AcDbEntity
  8
image
 62
     1
100
AcDbVertex
100
AcDb2dVertex
 10
11.79460877375587
 20
4.691297892916082
 30
0.0
  0
VERTEX
  5
1C11
330
1BFA
100
AcDbEntity
  8
image
 62
     1
100
AcDbVertex
100
AcDb2dVertex
 10
11.81797353266734
 20
4.710520699251849
 30
0.0
  0
VERTEX
  5
1C12
330
1BFA
100
AcDbEntity
  8
image
 62
     1
100
AcDbVertex
100
AcDb2dVertex
 10
11.83855464305803
 20
4.731477680755878
 30
0.0
  0
VERTEX
  5
1C13
330
1BFA
100
AcDbEntity
  8
image
 62
     1
100
AcDbVertex
100
AcDb2dVertex
 10
11.85691025679084
 20
4.754367841198352
 30
0.0
  0
VERTEX
  5
1C14
330
1BFA
100
AcDbEntity
  8
image
 62
     1
100
AcDbVertex
100
AcDb2dVertex
 10
11.87359852572865
 20
4.779390184349456
 30
0.0
  0
VERTEX
  5
1C15
330
1BFA
100
AcDbEntity
  8
image
 62
     1
100
AcDbVertex
100
AcDb2dVertex
 10
11.88906857838494
 20
4.806772457715908
 30
0.0
  0
VERTEX
  5
1C16
330
1BFA
100
AcDbEntity
  8
image
 62
     1
100
AcDbVertex
100
AcDb2dVertex
 10
11.9033334498756
 20
4.836857383750561
 30
0.0
  0
VERTEX
  5
1C17
330
1BFA
100
AcDbEntity
  8
image
 62
     1
100
AcDbVertex
100
AcDb2dVertex
 10
11.91629715196708
 20
4.870016428642805
 30
0.0
  0
VERTEX
  5
1C18
330
1BFA
100
AcDbEntity
  8
image
 62
     1
100
AcDbVertex
100
AcDb2dVertex
 10
11.92786369642587
 20
4.906621058582031
 30
0.0
  0
VERTEX
  5
1C19
330
1BFA
100
AcDbEntity
  8
image
 62
     1
100
AcDbVertex
100
AcDb2dVertex
 10
11.93793709501843
 20
4.947042739757628
 30
0.0
  0
VERTEX
  5
1C1A
330
1BFA
100
AcDbEntity
  8
image
 62
     1
100
AcDbVertex
100
AcDb2dVertex
 10
11.94642135951124
 20
4.991652938358985
 30
0.0
  0
VERTEX
  5
1C1B
330
1BFA
100
AcDbEntity
  8
image
 62
     1
100
AcDbVertex
100
AcDb2dVertex
 10
11.95322050167076
 20
5.040823120575493
 30
0.0
  0
VERTEX
  5
1C1C
330
1BFA
100
AcDbEntity
  8
image
 62
     1
100
AcDbVertex
100
AcDb2dVertex
 10
11.95823853326347
 20
5.094924752596541
 30
0.0
  0
SEQEND
  5
1C1D
330
1BFA
100
AcDbEntity
  8
image
 62
     1
  0
TEXT
  5
1C2F
330
2
100
AcDbEntity
  8
image
 62
     7
100
AcDbText
 10
8.611146611473113
 20
5.096869160918589
 30
0.0
 40
0.125
  1
BLACK
  7
arial
100
AcDbText
  0
TEXT
  5
1C30
330
2
100
AcDbEntity
  8
image
 62
     7
100
AcDbText
 10
8.611146611473113
 20
4.927048773677792
 30
0.0
 40
0.125
  1
WIRE
  7
arial
100
AcDbText
  0
TEXT
  5
1C32
330
2
100
AcDbEntity
  8
image
 62
     1
100
AcDbText
 10
8.892994146919859
 20
4.251676346071741
 30
0.0
 40
0.125
  1
RED
  7
arial
100
AcDbText
  0
TEXT
  5
1C33
330
2
100
AcDbEntity
  8
image
 62
     1
100
AcDbText
 10
8.892994146919859
 20
4.081855958830944
 30
0.0
 40
0.125
  1
WIRE
  7
arial
100
AcDbText
  0
INSERT
  5
1C72
330
2
100
AcDbEntity
  8
title
100
AcDbBlockReference
 66
     1
  2
titleblock
 10
0.0
 20
0.0
 30
0.0
  0
ATTRIB
  5
1C74
330
1C72
100
AcDbEntity
  8
title
100
AcDbText
 10
0.5055556038023421
 20
0.7842270964783673
 30
0.0
 40
0.2
  1
D
  7
L200
 72
     4
 11
0.6064423705144839
 21
0.8842270964783672
 31
0.0
100
AcDbAttribute
  2
D
 70
     0
  0
ATTRIB
  5
1C75
330
1C72
100
AcDbEntity
  8
title
100
AcDbText
 10
1.231442370514484
 20
1.34371230274675
 30
0.0
 40
0.2
  1

  7
L200
100
AcDbAttribute
  2
TITLE1
 70
     0
  0
ATTRIB
  5
1C76
330
1C72
100
AcDbEntity
  8
title
100
AcDbText
 10
1.231442370514484
 20
0.9842270964783674
 30
0.0
 40
0.2
  1
SENSOR DECODER AND
  7
L200
100
AcDbAttribute
  2
TITLE2
 70
     0
  0
ATTRIB
  5
1C77
330
1C72
100
AcDbEntity
  8
title
100
AcDbText
 10
2.713645751168312
 20
0.5927927664583189
 30
0.0
 40
0.2
  1
GENERIC SENSOR
  7
L200
100
AcDbAttribute
  2
TITLE3
 70
     0
  0
ATTRIB
  5
1C78
330
1C72
100
AcDbEntity
  8
title
100
AcDbText
 10
2.713645751168312
 20
0.2692560808167741
 30
0.0
 40
0.2
  1

  7
L200
100
AcDbAttribute
  2
TITLE4
 70
     0
  0
ATTRIB
  5
1C79
330
1C72
100
AcDbEntity
  8
title
 62
     7
100
AcDbText
 10
7.792452925204474
 20
0.9696027915446398
 30
0.0
 40
0.08
  1
2-2-11
  7
L80
 72
     2
 11
8.261024353775903
 21
0.9696027915446398
 31
0.0
100
AcDbAttribute
  2
REVISED
 70
     0
  0
ATTRIB
  5
1C7A
330
1C72
100
AcDbEntity
  8
title
 62
     7
100
AcDbText
 10
0.2639423705144838
 20
0.0847116480207214
 30
0.0
 40
0.08
  1
SD210.DWG
  7
L80
100
AcDbAttribute
  2
DWG-NAME
 70
     0
  0
ATTRIB
  5
1C7B
330
1C72
100
AcDbEntity
  8
title
 62
     7
100
AcDbText
 10
1.231442370514484
 20
0.7005637793954894
 30
0.0
 40
0.1
  1
N.T.S.
  7
L100
100
AcDbAttribute
  2
SCALE
 70
     0
  0
SEQEND
  5
1C73
330
1C72
100
AcDbEntity
  8
title
  0
MTEXT
  5
1C94
330
2
100
AcDbEntity
  8
image
100
AcDbMText
 10
9.828402406780995
 20
2.890800085950062
 30
0.0
 40
0.125
 41
5.320686774727009
 71
     1
 72
     5
  1
NOTE:\P1. GROUNDING SHOULD BE TO 10 OHMS OR LESS.
  7
ROMANS
 73
     1
 44
1.0
  0
TEXT
  5
1D59
330
2
100
AcDbEntity
  8
image
100
AcDbText
 10
9.770783372151132
 20
3.192598056154123
 30
0.0
 40
0.125
  1
CONNECTORS
  7
arial
100
AcDbText
  0
TEXT
  5
1D5A
330
2
100
AcDbEntity
  8
image
100
AcDbText
 10
9.770783372151132
 20
3.433559856972677
 30
0.0
 40
0.125
  1
DB SERIES WIRE
  7
arial
100
AcDbText
  0
MTEXT
  5
1DC3
330
2
100
AcDbEntity
  8
image
100
AcDbMText
 10
11.45219890178131
 20
6.220935292322431
 30
0.0
 40
0.125
 41
1.650492411323328
 71
     1
 72
     5
  1
GENERIC SWITCHED WEATHER \PSENSOR\P(MAXIMUM 3) 
  7
arial
 73
     1
 44
1.0
  0
LWPOLYLINE
  5
1DC4
330
2
100
AcDbEntity
  8
image
100
AcDbPolyline
 90
        4
 70
     1
 43
0.0
 10
11.27860746516486
 20
5.094038720588333
 10
12.58441823141973
 20
5.094038720588333
 10
12.58441823141973
 20
6.352179485456847
 10
11.27860746516486
 20
6.352179485456847
  0
ENDSEC
  0
SECTION
  2
OBJECTS
  0
DICTIONARY
  5
7
330
0
100
AcDbDictionary
281
     1
  3
ACAD_COLOR
350
1C8D
  3
ACAD_GROUP
350
1F
  3
ACAD_LAYOUT
350
B
  3
ACAD_MATERIAL
350
1C8C
  3
ACAD_MLEADERSTYLE
350
1D01
  3
ACAD_MLINESTYLE
350
20
  3
ACAD_PLOTSETTINGS
350
21
  3
ACAD_PLOTSTYLENAME
350
6
  3
ACAD_SCALELIST
350
1CDF
  3
ACAD_TABLESTYLE
350
1C8E
  3
ACAD_VISUALSTYLE
350
1CCE
  3
ACDB_RECOMPOSE_DATA
350
1D1D
  3
AcDbVariableDictionary
350
32
  3
ASE_INDEX_DICTIONARY
350
1C9E
1001
BBSI_PltSel
1000
1
1000

1001
BBSI_Bookmarks
1000
1
1000
1
1000
0
1000
1
1000
0
1000
0
1000
0
1000
0
1000
0
1000
0
1000
0
1001
BBSI_BookmarksEx
1000
0
1000
0
1000

1000
0
1001
BBSI_Plots
1000

1000
ANSI_A_(11.00_x_8.50_Inches)
1000
279.399993896484
1000
215.899993896484
1000
0
1000
1
1000
1
1000
0
1000
0
1000
1
1000
0
1000
1
1000
1.65232785113013
1000
0
1000
1
1000
OKIColorShaded.ctb
1000
0
1000
0
1000
1
1000
1
1000
0
1000
0
1000
-0.235884600448927
1000
-2.20196743201004
1000
14.3033068434481
1000
12.1263467380201
1000

1000

  0
DICTIONARY
  5
1C93
330
10
100
AcDbDictionary
280
     1
281
     1
  3
ACAD_LAYERFILTERS
360
1DD5
  0
DICTIONARY
  5
1D98
330
2
100
AcDbDictionary
280
     1
281
     1
  0
DICTIONARY
  5
1DA6
330
1C64
100
AcDbDictionary
280
     1
281
     1
  3
ACAD_SORTENTS
360
1DA7
  0
DICTIONARY
  5
1C8D
102
{ACAD_REACTORS
330
7
102
}
330
7
100
AcDbDictionary
281
     1
  0
DICTIONARY
  5
1F
102
{ACAD_REACTORS
330
7
102
}
330
7
100
AcDbDictionary
281
     1
  0
DICTIONARY
  5
B
102
{ACAD_REACTORS
330
7
102
}
330
7
100
AcDbDictionary
281
     1
  3
Layout1
350
F
  3
Model
350
A
  0
DICTIONARY
  5
1C8C
102
{ACAD_REACTORS
330
7
102
}
330
7
100
AcDbDictionary
281
     1
  3
ByBlock
350
1CBE
  3
ByLayer
350
1CB6
  3
Global
350
1CC6
  0
DICTIONARY
  5
1D01
102
{ACAD_REACTORS
330
7
102
}
330
7
100
AcDbDictionary
281
     1
  3
Standard
350
1D02
  0
DICTIONARY
  5
20
102
{ACAD_REACTORS
330
7
102
}
330
7
100
AcDbDictionary
281
     1
  3
STANDARD
350
24
  0
DICTIONARY
  5
21
102
{ACAD_REACTORS
330
7
102
}
330
7
100
AcDbDictionary
281
     1
  0
ACDBDICTIONARYWDFLT
  5
6
102
{ACAD_REACTORS
330
7
102
}
330
7
100
AcDbDictionary
281
     1
  3
Normal
350
5
100
AcDbDictionaryWithDefault
340
5
  0
DICTIONARY
  5
1CDF
102
{ACAD_REACTORS
330
7
102
}
330
7
100
AcDbDictionary
281
     1
  3
A0
350
1CE0
  3
A1
350
1CE1
  3
A2
350
1CE2
  3
A3
350
1CE3
  3
A4
350
1CE4
  3
A5
350
1CE5
  3
A6
350
1CE6
  3
A7
350
1CE7
  3
A8
350
1CE8
  3
A9
350
1CE9
  3
B0
350
1CEA
  3
B1
350
1CEB
  3
B2
350
1CEC
  3
B3
350
1CED
  3
B4
350
1CEE
  3
B5
350
1CEF
  3
B6
350
1CF0
  3
B7
350
1CF1
  3
B8
350
1CF2
  3
B9
350
1CF3
  3
C0
350
1CF4
  3
C1
350
1CF5
  3
C2
350
1CF6
  3
C3
350
1CF7
  3
C4
350
1CF8
  3
C5
350
1CF9
  3
C6
350
1CFA
  3
C7
350
1CFB
  3
C8
350
1CFC
  3
C9
350
1CFD
  3
D0
350
1CFE
  3
D1
350
1CFF
  3
D2
350
1D00
  0
DICTIONARY
  5
1C8E
102
{ACAD_REACTORS
330
7
102
}
330
7
100
AcDbDictionary
281
     1
  3
Standard
350
1C8F
  0
DICTIONARY
  5
1CCE
102
{ACAD_REACTORS
330
7
102
}
330
7
100
AcDbDictionary
281
     1
  3
2dWireframe
350
1CD4
  3
3D Hidden
350
1CD6
  3
3dWireframe
350
1CD5
  3
Basic
350
1CD3
  3
Brighten
350
1CDA
  3
ColorChange
350
1CDE
  3
Conceptual
350
1CD7
  3
Dim
350
1CD9
  3
Facepattern
350
1CDD
  3
Flat
350
1CCF
  3
FlatWithEdges
350
1CD0
  3
Gouraud
350
1CD1
  3
GouraudWithEdges
350
1CD2
  3
Linepattern
350
1CDC
  3
Realistic
350
1CD8
  3
Thicken
350
1CDB
  0
XRECORD
  5
1D1D
102
{ACAD_REACTORS
330
7
102
}
330
7
100
AcDbXrecord
280
     1
 90
        1
330
1C8F
  0
DICTIONARY
  5
32
102
{ACAD_REACTORS
330
7
102
}
330
7
100
AcDbDictionary
281
     1
  3
CANNOSCALE
350
1D20
  3
CMLEADERSTYLE
350
1D1E
  3
CTABLESTYLE
350
1C96
  3
DIMASSOC
350
34
  3
DRAWORDERCTL
350
1C97
  3
HIDETEXT
350
33
  3
LAYEREVAL
350
1DEF
  3
LAYERNOTIFY
350
1D22
  3
LIGHTINGUNITS
350
1D21
  3
MSLTSCALE
350
1D1F
  3
SORTENTS
350
16D9
  3
UPDATETHUMBNAIL
350
1DCC
  0
DICTIONARY
  5
1C9E
102
{ACAD_REACTORS
330
7
102
}
330
7
100
AcDbDictionary
281
     1
  3
ASEBlockHierarchyIndexRecord
350
1C9F
1001
DCO15
1040
1548586895.36
  0
DICTIONARY
  5
1DD5
102
{ACAD_REACTORS
330
1C93
102
}
330
1C93
100
AcDbDictionary
281
     1
  3
_0100-
350
1DD8
  3
_0280-
350
1DD7
  3
_Add Alternate
350
1DDA
  3
_Bid Alternate
350
1DDB
  3
_Color 253
350
1DDD
  3
_Color 8
350
1DD9
  3
_Color 84
350
1DDC
  3
_Contours
350
1DE3
  3
_Demo
350
1DDE
  3
_Existing
350
1DDF
  3
_Hardscape
350
1DE2
  3
_NoXref
350
1DD6
  3
_Row
350
1DE0
  3
_Utility
350
1DE1
  0
SORTENTSTABLE
  5
1DA7
102
{ACAD_REACTORS
330
1DA6
102
}
330
1DA6
100
AcDbSortentsTable
330
1C64
  0
LAYOUT
  5
F
102
{ACAD_REACTORS
330
B
102
}
330
B
100
AcDbPlotSettings
  1

  2
S:\AutoCAD 2002\Plotters\1055B&WDraftShaded.pc3
  4

  6

 40
0.0
 41
0.0
 42
0.0
 43
0.0
 44
0.0
 45
0.0
 46
0.0
 47
0.0
 48
0.0
 49
0.0
140
0.0
141
0.0
142
1.0
143
1.0
 70
   688
 72
     0
 73
     0
 74
     5
  7
OKIColorShaded.ctb
 75
    16
147
1.0
 76
     0
 77
     2
 78
   300
148
0.0
149
0.0
100
AcDbLayout
  1
Layout1
 70
     1
 71
     1
 10
0.0
 20
0.0
 11
12.0
 21
9.0
 12
0.0
 22
0.0
 32
0.0
 14
1.000000000000000E+20
 24
1.000000000000000E+20
 34
1.000000000000000E+20
 15
-1.000000000000000E+20
 25
-1.000000000000000E+20
 35
-1.000000000000000E+20
146
0.0
 13
0.0
 23
0.0
 33
0.0
 16
1.0
 26
0.0
 36
0.0
 17
0.0
 27
1.0
 37
0.0
 76
     0
330
C
  0
LAYOUT
  5
A
102
{ACAD_REACTORS
330
B
102
}
330
B
100
AcDbPlotSettings
  1

  2
OKI DOKI Color Laser.pc3
  4
Letter
  6

 40
5.027082920074462
 41
5.027070522308349
 42
5.027099609375
 43
5.027084350585937
 44
279.3999938964844
 45
215.8999938964844
 46
69.51127562268418
 47
-0.0000000000000019
 48
-0.2358846004489266
 49
-2.201967432010043
140
14.30330684344812
141
12.12634673802014
142
1.0
143
2.034755727814345
 70
 11956
 72
     0
 73
     1
 74
     1
  7
OKIColorShaded.ctb
 75
     0
147
0.4914594839716512
 76
     1
 77
     2
 78
   300
148
0.0
149
0.0
100
AcDbLayout
  1
Model
 70
     1
 71
     0
 10
0.0
 20
0.0
 11
12.0
 21
9.0
 12
0.0
 22
0.0
 32
0.0
 14
0.0
 24
0.0
 34
0.0
 15
0.0
 25
0.0
 35
0.0
146
0.0
 13
0.0
 23
0.0
 33
0.0
 16
1.0
 26
0.0
 36
0.0
 17
0.0
 27
1.0
 37
0.0
 76
     0
330
2
331
1CB4
1001
ACAD_PSEXT
1000
OKI DOKI Color Laser.pc3
1000
OKI C9500(PCL)
1000
Front
1000

1070
     0
  0
MATERIAL
  5
1CBE
102
{ACAD_XDICTIONARY
360
1CBF
102
}
102
{ACAD_REACTORS
330
1C8C
102
}
330
1C8C
100
AcDbMaterial
  1
ByBlock
 72
     0
 43
0.0208333333333333
 43
0.0
 43
0.0
 43
0.0
 43
0.0
 43
0.0208333333333333
 43
0.0
 43
0.0
 43
0.0
 43
0.0
 43
1.0
 43
0.0
 43
0.0
 43
0.0
 43
0.0
 43
1.0
 77
     0
 47
0.0208333333333333
 47
0.0
 47
0.0
 47
0.0
 47
0.0
 47
0.0208333333333333
 47
0.0
 47
0.0
 47
0.0
 47
0.0
 47
1.0
 47
0.0
 47
0.0
 47
0.0
 47
0.0
 47
1.0
171
     0
 49
0.0208333333333333
 49
0.0
 49
0.0
 49
0.0
 49
0.0
 49
0.0208333333333333
 49
0.0
 49
0.0
 49
0.0
 49
0.0
 49
1.0
 49
0.0
 49
0.0
 49
0.0
 49
0.0
 49
1.0
175
     0
142
0.0208333333333333
142
0.0
142
0.0
142
0.0
142
0.0
142
0.0208333333333333
142
0.0
142
0.0
142
0.0
142
0.0
142
1.0
142
0.0
142
0.0
142
0.0
142
0.0
142
1.0
179
     0
144
0.0208333333333333
144
0.0
144
0.0
144
0.0
144
0.0
144
0.0208333333333333
144
0.0
144
0.0
144
0.0
144
0.0
144
1.0
144
0.0
144
0.0
144
0.0
144
0.0
144
1.0
147
0.0208333333333333
147
0.0
147
0.0
147
0.0
147
0.0
147
0.0208333333333333
147
0.0
147
0.0
147
0.0
147
0.0
147
1.0
147
0.0
147
0.0
147
0.0
147
0.0
147
1.0
  0
MATERIAL
  5
1CB6
102
{ACAD_XDICTIONARY
360
1CB7
102
}
102
{ACAD_REACTORS
330
1C8C
102
}
330
1C8C
100
AcDbMaterial
  1
ByLayer
 72
     0
 43
0.0208333333333333
 43
0.0
 43
0.0
 43
0.0
 43
0.0
 43
0.0208333333333333
 43
0.0
 43
0.0
 43
0.0
 43
0.0
 43
1.0
 43
0.0
 43
0.0
 43
0.0
 43
0.0
 43
1.0
 77
     0
 47
0.0208333333333333
 47
0.0
 47
0.0
 47
0.0
 47
0.0
 47
0.0208333333333333
 47
0.0
 47
0.0
 47
0.0
 47
0.0
 47
1.0
 47
0.0
 47
0.0
 47
0.0
 47
0.0
 47
1.0
171
     0
 49
0.0208333333333333
 49
0.0
 49
0.0
 49
0.0
 49
0.0
 49
0.0208333333333333
 49
0.0
 49
0.0
 49
0.0
 49
0.0
 49
1.0
 49
0.0
 49
0.0
 49
0.0
 49
0.0
 49
1.0
175
     0
142
0.0208333333333333
142
0.0
142
0.0
142
0.0
142
0.0
142
0.0208333333333333
142
0.0
142
0.0
142
0.0
142
0.0
142
1.0
142
0.0
142
0.0
142
0.0
142
0.0
142
1.0
179
     0
144
0.0208333333333333
144
0.0
144
0.0
144
0.0
144
0.0
144
0.0208333333333333
144
0.0
144
0.0
144
0.0
144
0.0
144
1.0
144
0.0
144
0.0
144
0.0
144
0.0
144
1.0
147
0.0208333333333333
147
0.0
147
0.0
147
0.0
147
0.0
147
0.0208333333333333
147
0.0
147
0.0
147
0.0
147
0.0
147
1.0
147
0.0
147
0.0
147
0.0
147
0.0
147
1.0
  0
MATERIAL
  5
1CC6
102
{ACAD_XDICTIONARY
360
1CC7
102
}
102
{ACAD_REACTORS
330
1C8C
102
}
330
1C8C
100
AcDbMaterial
  1
Global
 72
     0
 43
0.0208333333333333
 43
0.0
 43
0.0
 43
0.0
 43
0.0
 43
0.0208333333333333
 43
0.0
 43
0.0
 43
0.0
 43
0.0
 43
1.0
 43
0.0
 43
0.0
 43
0.0
 43
0.0
 43
1.0
 77
     0
 47
0.0208333333333333
 47
0.0
 47
0.0
 47
0.0
 47
0.0
 47
0.0208333333333333
 47
0.0
 47
0.0
 47
0.0
 47
0.0
 47
1.0
 47
0.0
 47
0.0
 47
0.0
 47
0.0
 47
1.0
171
     0
 49
0.0208333333333333
 49
0.0
 49
0.0
 49
0.0
 49
0.0
 49
0.0208333333333333
 49
0.0
 49
0.0
 49
0.0
 49
0.0
 49
1.0
 49
0.0
 49
0.0
 49
0.0
 49
0.0
 49
1.0
175
     0
142
0.0208333333333333
142
0.0
142
0.0
142
0.0
142
0.0
142
0.0208333333333333
142
0.0
142
0.0
142
0.0
142
0.0
142
1.0
142
0.0
142
0.0
142
0.0
142
0.0
142
1.0
179
     0
144
0.0208333333333333
144
0.0
144
0.0
144
0.0
144
0.0
144
0.0208333333333333
144
0.0
144
0.0
144
0.0
144
0.0
144
1.0
144
0.0
144
0.0
144
0.0
144
0.0
144
1.0
147
0.0208333333333333
147
0.0
147
0.0
147
0.0
147
0.0
147
0.0208333333333333
147
0.0
147
0.0
147
0.0
147
0.0
147
1.0
147
0.0
147
0.0
147
0.0
147
0.0
147
1.0
  0
MLEADERSTYLE
  5
1D02
102
{ACAD_REACTORS
330
1D01
102
}
330
1D01
100
AcDbMLeaderStyle
170
     2
171
     1
172
     0
 90
        2
 40
0.0
 41
0.0
173
     1
 91
-1056964608
340
15
 92
       -2
290
     1
 42
0.09
291
     1
 43
0.36
  3
Standard
 44
0.18
300

342
12
174
     1
178
     6
175
     1
176
     0
 93
-1056964608
 45
0.18
292
     0
297
     0
 46
0.18
 94
-1056964608
 47
1.0
 49
1.0
140
1.0
293
     1
141
0.0
294
     1
177
     0
142
1.0
295
     0
296
     0
143
0.125
1001
ACAD_MLEADERVER
1070
     2
  0
MLINESTYLE
  5
24
102
{ACAD_REACTORS
330
20
102
}
330
20
100
AcDbMlineStyle
  2
STANDARD
 70
     0
  3

 62
     0
 51
90.0
 52
90.0
 71
     2
 49
0.5
 62
   256
  6
BYLAYER
 49
-0.5
 62
   256
  6
BYLAYER
  0
ACDBPLACEHOLDER
  5
5
102
{ACAD_REACTORS
330
6
102
}
330
6
  0
SCALE
  5
1CE0
102
{ACAD_REACTORS
330
1CDF
102
}
330
1CDF
100
AcDbScale
 70
     0
300
1:1
140
1.0
141
1.0
290
     1
  0
SCALE
  5
1CE1
102
{ACAD_REACTORS
330
1CDF
102
}
330
1CDF
100
AcDbScale
 70
     0
300
1:2
140
1.0
141
2.0
290
     0
  0
SCALE
  5
1CE2
102
{ACAD_REACTORS
330
1CDF
102
}
330
1CDF
100
AcDbScale
 70
     0
300
1:4
140
1.0
141
4.0
290
     0
  0
SCALE
  5
1CE3
102
{ACAD_REACTORS
330
1CDF
102
}
330
1CDF
100
AcDbScale
 70
     0
300
1:5
140
1.0
141
5.0
290
     0
  0
SCALE
  5
1CE4
102
{ACAD_REACTORS
330
1CDF
102
}
330
1CDF
100
AcDbScale
 70
     0
300
1:8
140
1.0
141
8.0
290
     0
  0
SCALE
  5
1CE5
102
{ACAD_REACTORS
330
1CDF
102
}
330
1CDF
100
AcDbScale
 70
     0
300
1:10
140
1.0
141
10.0
290
     0
  0
SCALE
  5
1CE6
102
{ACAD_REACTORS
330
1CDF
102
}
330
1CDF
100
AcDbScale
 70
     0
300
1:16
140
1.0
141
16.0
290
     0
  0
SCALE
  5
1CE7
102
{ACAD_REACTORS
330
1CDF
102
}
330
1CDF
100
AcDbScale
 70
     0
300
1:20
140
1.0
141
20.0
290
     0
  0
SCALE
  5
1CE8
102
{ACAD_REACTORS
330
1CDF
102
}
330
1CDF
100
AcDbScale
 70
     0
300
1:30
140
1.0
141
30.0
290
     0
  0
SCALE
  5
1CE9
102
{ACAD_REACTORS
330
1CDF
102
}
330
1CDF
100
AcDbScale
 70
     0
300
1:40
140
1.0
141
40.0
290
     0
  0
SCALE
  5
1CEA
102
{ACAD_REACTORS
330
1CDF
102
}
330
1CDF
100
AcDbScale
 70
     0
300
1:50
140
1.0
141
50.0
290
     0
  0
SCALE
  5
1CEB
102
{ACAD_REACTORS
330
1CDF
102
}
330
1CDF
100
AcDbScale
 70
     0
300
1:100
140
1.0
141
100.0
290
     0
  0
SCALE
  5
1CEC
102
{ACAD_REACTORS
330
1CDF
102
}
330
1CDF
100
AcDbScale
 70
     0
300
2:1
140
2.0
141
1.0
290
     0
  0
SCALE
  5
1CED
102
{ACAD_REACTORS
330
1CDF
102
}
330
1CDF
100
AcDbScale
 70
     0
300
4:1
140
4.0
141
1.0
290
     0
  0
SCALE
  5
1CEE
102
{ACAD_REACTORS
330
1CDF
102
}
330
1CDF
100
AcDbScale
 70
     0
300
8:1
140
8.0
141
1.0
290
     0
  0
SCALE
  5
1CEF
102
{ACAD_REACTORS
330
1CDF
102
}
330
1CDF
100
AcDbScale
 70
     0
300
10:1
140
10.0
141
1.0
290
     0
  0
SCALE
  5
1CF0
102
{ACAD_REACTORS
330
1CDF
102
}
330
1CDF
100
AcDbScale
 70
     0
300
100:1
140
100.0
141
1.0
290
     0
  0
SCALE
  5
1CF1
102
{ACAD_REACTORS
330
1CDF
102
}
330
1CDF
100
AcDbScale
 70
     0
300
1/128" = 1'-0"
140
0.0078125
141
12.0
290
     0
  0
SCALE
  5
1CF2
102
{ACAD_REACTORS
330
1CDF
102
}
330
1CDF
100
AcDbScale
 70
     0
300
1/64" = 1'-0"
140
0.015625
141
12.0
290
     0
  0
SCALE
  5
1CF3
102
{ACAD_REACTORS
330
1CDF
102
}
330
1CDF
100
AcDbScale
 70
     0
300
1/32" = 1'-0"
140
0.03125
141
12.0
290
     0
  0
SCALE
  5
1CF4
102
{ACAD_REACTORS
330
1CDF
102
}
330
1CDF
100
AcDbScale
 70
     0
300
1/16" = 1'-0"
140
0.0625
141
12.0
290
     0
  0
SCALE
  5
1CF5
102
{ACAD_REACTORS
330
1CDF
102
}
330
1CDF
100
AcDbScale
 70
     0
300
3/32" = 1'-0"
140
0.09375
141
12.0
290
     0
  0
SCALE
  5
1CF6
102
{ACAD_REACTORS
330
1CDF
102
}
330
1CDF
100
AcDbScale
 70
     0
300
1/8" = 1'-0"
140
0.125
141
12.0
290
     0
  0
SCALE
  5
1CF7
102
{ACAD_REACTORS
330
1CDF
102
}
330
1CDF
100
AcDbScale
 70
     0
300
3/16" = 1'-0"
140
0.1875
141
12.0
290
     0
  0
SCALE
  5
1CF8
102
{ACAD_REACTORS
330
1CDF
102
}
330
1CDF
100
AcDbScale
 70
     0
300
1/4" = 1'-0"
140
0.25
141
12.0
290
     0
  0
SCALE
  5
1CF9
102
{ACAD_REACTORS
330
1CDF
102
}
330
1CDF
100
AcDbScale
 70
     0
300
3/8" = 1'-0"
140
0.375
141
12.0
290
     0
  0
SCALE
  5
1CFA
102
{ACAD_REACTORS
330
1CDF
102
}
330
1CDF
100
AcDbScale
 70
     0
300
1/2" = 1'-0"
140
0.5
141
12.0
290
     0
  0
SCALE
  5
1CFB
102
{ACAD_REACTORS
330
1CDF
102
}
330
1CDF
100
AcDbScale
 70
     0
300
3/4" = 1'-0"
140
0.75
141
12.0
290
     0
  0
SCALE
  5
1CFC
102
{ACAD_REACTORS
330
1CDF
102
}
330
1CDF
100
AcDbScale
 70
     0
300
1" = 1'-0"
140
1.0
141
12.0
290
     0
  0
SCALE
  5
1CFD
102
{ACAD_REACTORS
330
1CDF
102
}
330
1CDF
100
AcDbScale
 70
     0
300
1-1/2" = 1'-0"
140
1.5
141
12.0
290
     0
  0
SCALE
  5
1CFE
102
{ACAD_REACTORS
330
1CDF
102
}
330
1CDF
100
AcDbScale
 70
     0
300
3" = 1'-0"
140
3.0
141
12.0
290
     0
  0
SCALE
  5
1CFF
102
{ACAD_REACTORS
330
1CDF
102
}
330
1CDF
100
AcDbScale
 70
     0
300
6" = 1'-0"
140
6.0
141
12.0
290
     0
  0
SCALE
  5
1D00
102
{ACAD_REACTORS
330
1CDF
102
}
330
1CDF
100
AcDbScale
 70
     0
300
1'-0" = 1'-0"
140
12.0
141
12.0
290
     0
  0
TABLESTYLE
  5
1C8F
102
{ACAD_XDICTIONARY
360
1D1B
102
}
102
{ACAD_REACTORS
330
1C8E
102
}
330
1C8E
100
AcDbTableStyle
  3
Standard
 70
     0
 71
     0
 40
0.06
 41
0.06
280
     0
281
     0
  7
STANDARD
140
0.18
170
     2
 62
     0
 63
     7
283
     0
274
    -2
284
     1
 64
     0
275
    -2
285
     1
 65
     0
276
    -2
286
     1
 66
     0
277
    -2
287
     1
 67
     0
278
    -2
288
     1
 68
     0
279
    -2
289
     1
 69
     0
  7
STANDARD
140
0.25
170
     5
 62
     0
 63
     7
283
     0
274
    -2
284
     1
 64
     0
275
    -2
285
     1
 65
     0
276
    -2
286
     1
 66
     0
277
    -2
287
     1
 67
     0
278
    -2
288
     1
 68
     0
279
    -2
289
     1
 69
     0
  7
STANDARD
140
0.18
170
     5
 62
     0
 63
     7
283
     0
274
    -2
284
     1
 64
     0
275
    -2
285
     1
 65
     0
276
    -2
286
     1
 66
     0
277
    -2
287
     1
 67
     0
278
    -2
288
     1
 68
     0
279
    -2
289
     1
 69
     0
  0
VISUALSTYLE
  5
1CD4
102
{ACAD_REACTORS
330
1CCE
102
}
330
1CCE
100
AcDbVisualStyle
  2
2dWireframe
 70
     4
 71
     0
 72
     2
 73
     0
 90
        0
 40
-0.6
 41
-30.0
 62
     5
 63
     7
421
 16777215
 74
     1
 91
        4
 64
     7
 65
   257
 75
     1
175
     1
 42
1.0
 92
        0
 66
   257
 43
1.0
 76
     1
 77
     6
 78
     2
 67
     7
 79
     5
170
     0
171
     0
290
     0
174
     0
 93
        1
 44
0.0
173
     0
291
     0
 45
0.0
1001
ACAD
1000
AcDbSavedByObjectVersion
1070
     0
  0
VISUALSTYLE
  5
1CD6
102
{ACAD_REACTORS
330
1CCE
102
}
330
1CCE
100
AcDbVisualStyle
  2
3D Hidden
 70
     6
 71
     1
 72
     2
 73
     2
 90
        0
 40
-0.6
 41
-30.0
 62
     5
 63
     7
421
 16777215
 74
     2
 91
        2
 64
     7
 65
   257
 75
     2
175
     1
 42
40.0
 92
        0
 66
   257
 43
1.0
 76
     1
 77
     6
 78
     2
 67
     7
 79
     3
170
     0
171
     0
290
     0
174
     0
 93
        1
 44
0.0
173
     0
291
     0
 45
0.0
1001
ACAD
1000
AcDbSavedByObjectVersion
1070
     0
  0
VISUALSTYLE
  5
1CD5
102
{ACAD_REACTORS
330
1CCE
102
}
330
1CCE
100
AcDbVisualStyle
  2
3dWireframe
 70
     5
 71
     0
 72
     2
 73
     0
 90
        0
 40
-0.6
 41
-30.0
 62
     5
 63
     7
421
 16777215
 74
     1
 91
        4
 64
     7
 65
   257
 75
     1
175
     1
 42
1.0
 92
        0
 66
   257
 43
1.0
 76
     1
 77
     6
 78
     2
 67
     7
 79
     5
170
     0
171
     0
290
     0
174
     0
 93
        1
 44
0.0
173
     0
291
     0
 45
0.0
1001
ACAD
1000
AcDbSavedByObjectVersion
1070
     0
  0
VISUALSTYLE
  5
1CD3
102
{ACAD_REACTORS
330
1CCE
102
}
330
1CCE
100
AcDbVisualStyle
  2
Basic
 70
     7
 71
     1
 72
     0
 73
     1
 90
        0
 40
-0.6
 41
-30.0
 62
     5
 63
     7
421
 16777215
 74
     0
 91
        4
 64
     7
 65
   257
 75
     1
175
     1
 42
1.0
 92
        8
 66
     7
 43
1.0
 76
     1
 77
     6
 78
     2
 67
     7
 79
     5
170
     0
171
     0
290
     0
174
     0
 93
        1
 44
0.0
173
     0
291
     1
 45
0.0
1001
ACAD
1000
AcDbSavedByObjectVersion
1070
     0
  0
VISUALSTYLE
  5
1CDA
102
{ACAD_REACTORS
330
1CCE
102
}
330
1CCE
100
AcDbVisualStyle
  2
Brighten
 70
    12
 71
     2
 72
     2
 73
     0
 90
        0
 40
-0.6
 41
-30.0
 62
     5
 63
     7
421
 16777215
 74
     1
 91
        4
 64
     7
 65
   257
 75
     1
175
     1
 42
1.0
 92
        8
 66
     7
 43
1.0
 76
     1
 77
     6
 78
     2
 67
     7
 79
     5
170
     0
171
     0
290
     0
174
     0
 93
        1
 44
50.0
173
     0
291
     1
 45
0.0
1001
ACAD
1000
AcDbSavedByObjectVersion
1070
     0
  0
VISUALSTYLE
  5
1CDE
102
{ACAD_REACTORS
330
1CCE
102
}
330
1CCE
100
AcDbVisualStyle
  2
ColorChange
 70
    16
 71
     2
 72
     2
 73
     3
 90
        0
 40
-0.6
 41
-30.0
 62
     5
 63
     8
421
  8421504
 74
     1
 91
        4
 64
     7
 65
   257
 75
     1
175
     1
 42
1.0
 92
        8
 66
     8
424
  8421504
 43
1.0
 76
     1
 77
     6
 78
     2
 67
     7
 79
     5
170
     0
171
     0
290
     0
174
     0
 93
        1
 44
0.0
173
     0
291
     1
 45
0.0
1001
ACAD
1000
AcDbSavedByObjectVersion
1070
     0
  0
VISUALSTYLE
  5
1CD7
102
{ACAD_REACTORS
330
1CCE
102
}
330
1CCE
100
AcDbVisualStyle
  2
Conceptual
 70
     9
 71
     3
 72
     2
 73
     0
 90
        0
 40
-0.6
 41
-30.0
 62
     5
 63
     7
421
 16777215
 74
     2
 91
        2
 64
     7
 65
   257
 75
     1
175
     1
 42
40.0
 92
        8
 66
     7
 43
1.0
 76
     1
 77
     6
 78
     2
 67
     7
 79
     3
170
     0
171
     0
290
     0
174
     0
 93
        1
 44
0.0
173
     0
291
     0
 45
0.0
1001
ACAD
1000
AcDbSavedByObjectVersion
1070
     0
  0
VISUALSTYLE
  5
1CD9
102
{ACAD_REACTORS
330
1CCE
102
}
330
1CCE
100
AcDbVisualStyle
  2
Dim
 70
    11
 71
     2
 72
     2
 73
     0
 90
        0
 40
-0.6
 41
-30.0
 62
     5
 63
     7
421
 16777215
 74
     1
 91
        4
 64
     7
 65
   257
 75
     1
175
     1
 42
1.0
 92
        8
 66
     7
 43
1.0
 76
     1
 77
     6
 78
     2
 67
     7
 79
     5
170
     0
171
     0
290
     0
174
     0
 93
        1
 44
-50.0
173
     0
291
     1
 45
0.0
1001
ACAD
1000
AcDbSavedByObjectVersion
1070
     0
  0
VISUALSTYLE
  5
1CDD
102
{ACAD_REACTORS
330
1CCE
102
}
330
1CCE
100
AcDbVisualStyle
  2
Facepattern
 70
    15
 71
     2
 72
     2
 73
     0
 90
        0
 40
-0.6
 41
-30.0
 62
     5
 63
     7
421
 16777215
 74
     1
 91
        4
 64
     7
 65
   257
 75
     1
175
     1
 42
1.0
 92
        8
 66
     7
 43
1.0
 76
     1
 77
     6
 78
     2
 67
     7
 79
     5
170
     0
171
     0
290
     0
174
     0
 93
        1
 44
0.0
173
     0
291
     1
 45
0.0
1001
ACAD
1000
AcDbSavedByObjectVersion
1070
     0
  0
VISUALSTYLE
  5
1CCF
102
{ACAD_REACTORS
330
1CCE
102
}
330
1CCE
100
AcDbVisualStyle
  2
Flat
 70
     0
 71
     2
 72
     1
 73
     1
 90
        2
 40
-0.6
 41
30.0
 62
     5
 63
     7
421
 16777215
 74
     0
 91
        4
 64
     7
 65
   257
 75
     1
175
     1
 42
1.0
 92
        8
 66
     7
 43
1.0
 76
     1
 77
     6
 78
     2
 67
     7
 79
     5
170
     0
171
     0
290
     0
174
     0
 93
       13
 44
0.0
173
     0
291
     1
 45
0.0
1001
ACAD
1000
AcDbSavedByObjectVersion
1070
     0
  0
VISUALSTYLE
  5
1CD0
102
{ACAD_REACTORS
330
1CCE
102
}
330
1CCE
100
AcDbVisualStyle
  2
FlatWithEdges
 70
     1
 71
     2
 72
     1
 73
     1
 90
        2
 40
-0.6
 41
30.0
 62
     5
 63
     7
421
 16777215
 74
     1
 91
        4
 64
     7
 65
   257
 75
     1
175
     1
 42
1.0
 92
        0
 66
   257
 43
1.0
 76
     1
 77
     6
 78
     2
 67
     7
 79
     5
170
     0
171
     0
290
     0
174
     0
 93
       13
 44
0.0
173
     0
291
     1
 45
0.0
1001
ACAD
1000
AcDbSavedByObjectVersion
1070
     0
  0
VISUALSTYLE
  5
1CD1
102
{ACAD_REACTORS
330
1CCE
102
}
330
1CCE
100
AcDbVisualStyle
  2
Gouraud
 70
     2
 71
     2
 72
     2
 73
     1
 90
        2
 40
-0.6
 41
30.0
 62
     5
 63
     7
421
 16777215
 74
     0
 91
        4
 64
     7
 65
   257
 75
     1
175
     1
 42
1.0
 92
        0
 66
     7
 43
1.0
 76
     1
 77
     6
 78
     2
 67
     7
 79
     5
170
     0
171
     0
290
     0
174
     0
 93
       13
 44
0.0
173
     0
291
     1
 45
0.0
1001
ACAD
1000
AcDbSavedByObjectVersion
1070
     0
  0
VISUALSTYLE
  5
1CD2
102
{ACAD_REACTORS
330
1CCE
102
}
330
1CCE
100
AcDbVisualStyle
  2
GouraudWithEdges
 70
     3
 71
     2
 72
     2
 73
     1
 90
        2
 40
-0.6
 41
30.0
 62
     5
 63
     7
421
 16777215
 74
     1
 91
        4
 64
     7
 65
   257
 75
     1
175
     1
 42
1.0
 92
        0
 66
   257
 43
1.0
 76
     1
 77
     6
 78
     2
 67
     7
 79
     5
170
     0
171
     0
290
     0
174
     0
 93
       13
 44
0.0
173
     0
291
     1
 45
0.0
1001
ACAD
1000
AcDbSavedByObjectVersion
1070
     0
  0
VISUALSTYLE
  5
1CDC
102
{ACAD_REACTORS
330
1CCE
102
}
330
1CCE
100
AcDbVisualStyle
  2
Linepattern
 70
    14
 71
     2
 72
     2
 73
     0
 90
        0
 40
-0.6
 41
-30.0
 62
     5
 63
     7
421
 16777215
 74
     1
 91
        4
 64
     7
 65
   257
 75
     7
175
     7
 42
1.0
 92
        8
 66
     7
 43
1.0
 76
     1
 77
     6
 78
     2
 67
     7
 79
     5
170
     0
171
     0
290
     0
174
     0
 93
        1
 44
0.0
173
     0
291
     1
 45
0.0
1001
ACAD
1000
AcDbSavedByObjectVersion
1070
     0
  0
VISUALSTYLE
  5
1CD8
102
{ACAD_REACTORS
330
1CCE
102
}
330
1CCE
100
AcDbVisualStyle
  2
Realistic
 70
     8
 71
     2
 72
     2
 73
     0
 90
        0
 40
-0.6
 41
-30.0
 62
     5
 63
     7
421
 16777215
 74
     1
 91
        0
 64
     7
 65
   257
 75
     1
175
     1
 42
1.0
 92
        8
 66
     8
424
  7895160
 43
1.0
 76
     1
 77
     6
 78
     2
 67
     7
 79
     5
170
     0
171
     0
290
     0
174
     0
 93
       13
 44
0.0
173
     0
291
     0
 45
0.0
1001
ACAD
1000
AcDbSavedByObjectVersion
1070
     0
  0
VISUALSTYLE
  5
1CDB
102
{ACAD_REACTORS
330
1CCE
102
}
330
1CCE
100
AcDbVisualStyle
  2
Thicken
 70
    13
 71
     2
 72
     2
 73
     0
 90
        0
 40
-0.6
 41
-30.0
 62
     5
 63
     7
421
 16777215
 74
     1
 91
        4
 64
     7
 65
   257
 75
     1
175
     1
 42
1.0
 92
       12
 66
     7
 43
1.0
 76
     1
 77
     6
 78
     2
 67
     7
 79
     5
170
     0
171
     0
290
     0
174
     0
 93
        1
 44
0.0
173
     0
291
     1
 45
0.0
1001
ACAD
1000
AcDbSavedByObjectVersion
1070
     0
  0
DICTIONARYVAR
  5
1D20
102
{ACAD_REACTORS
330
32
102
}
330
32
100
DictionaryVariables
280
     0
  1
1:1
  0
DICTIONARYVAR
  5
1D1E
102
{ACAD_REACTORS
330
32
102
}
330
32
100
DictionaryVariables
280
     0
  1
STANDARD
  0
DICTIONARYVAR
  5
1C96
102
{ACAD_REACTORS
330
32
102
}
330
32
100
DictionaryVariables
280
     0
  1
STANDARD
  0
DICTIONARYVAR
  5
34
102
{ACAD_REACTORS
330
32
102
}
330
32
100
DictionaryVariables
280
     0
  1
1
  0
DICTIONARYVAR
  5
1C97
102
{ACAD_REACTORS
330
32
102
}
330
32
100
DictionaryVariables
280
     0
  1
3
  0
DICTIONARYVAR
  5
33
102
{ACAD_REACTORS
330
32
102
}
330
32
100
DictionaryVariables
280
     0
  1
1
  0
DICTIONARYVAR
  5
1DEF
102
{ACAD_REACTORS
330
32
102
}
330
32
100
DictionaryVariables
280
     0
  1
0
  0
DICTIONARYVAR
  5
1D22
102
{ACAD_REACTORS
330
32
102
}
330
32
100
DictionaryVariables
280
     0
  1
15
  0
DICTIONARYVAR
  5
1D21
102
{ACAD_REACTORS
330
32
102
}
330
32
100
DictionaryVariables
280
     0
  1
0
  0
DICTIONARYVAR
  5
1D1F
102
{ACAD_REACTORS
330
32
102
}
330
32
100
DictionaryVariables
280
     0
  1
0
  0
DICTIONARYVAR
  5
16D9
102
{ACAD_REACTORS
330
32
102
}
330
32
100
DictionaryVariables
280
     0
  1
1
  0
DICTIONARYVAR
  5
1DCC
102
{ACAD_REACTORS
330
32
102
}
330
32
100
DictionaryVariables
280
     0
  1
0
  0
XRECORD
  5
1C9F
102
{ACAD_REACTORS
330
1C9E
102
}
330
1C9E
100
AcDbXrecord
280
     1
330
0
330
1C72
  0
XRECORD
  5
1DD8
102
{ACAD_REACTORS
330
1DD5
102
}
330
1DD5
100
AcDbXrecord
280
     1
  1
_0100-
  1
*0100-*
  1
*
  1
*
 70
     0
  1
*
  1
*
  0
XRECORD
  5
1DD7
102
{ACAD_REACTORS
330
1DD5
102
}
330
1DD5
100
AcDbXrecord
280
     1
  1
_0280-
  1
*0280-*
  1
*
  1
*
 70
     0
  1
*
  1
*
  0
XRECORD
  5
1DDA
102
{ACAD_REACTORS
330
1DD5
102
}
330
1DD5
100
AcDbXrecord
280
     1
  1
_Add Alternate
  1
*add*alt*
  1
*
  1
*
 70
     0
  1
*
  1
*
  0
XRECORD
  5
1DDB
102
{ACAD_REACTORS
330
1DD5
102
}
330
1DD5
100
AcDbXrecord
280
     1
  1
_Bid Alternate
  1
*bid*alt*
  1
*
  1
*
 70
     0
  1
*
  1
*
  0
XRECORD
  5
1DDD
102
{ACAD_REACTORS
330
1DD5
102
}
330
1DD5
100
AcDbXrecord
280
     1
  1
_Color 253
  1
*
  1
253
  1
*
 70
     0
  1
*
  1
*
  0
XRECORD
  5
1DD9
102
{ACAD_REACTORS
330
1DD5
102
}
330
1DD5
100
AcDbXrecord
280
     1
  1
_Color 8
  1
*
  1
8
  1
*
 70
     0
  1
*
  1
*
  0
XRECORD
  5
1DDC
102
{ACAD_REACTORS
330
1DD5
102
}
330
1DD5
100
AcDbXrecord
280
     1
  1
_Color 84
  1
*
  1
84
  1
*
 70
     0
  1
*
  1
*
  0
XRECORD
  5
1DE3
102
{ACAD_REACTORS
330
1DD5
102
}
330
1DD5
100
AcDbXrecord
280
     1
  1
_Contours
  1
*contour*,*cont-*,*cp cont*,*p-cont*
  1
*
  1
*
 70
     0
  1
*
  1
*
  0
XRECORD
  5
1DDE
102
{ACAD_REACTORS
330
1DD5
102
}
330
1DD5
100
AcDbXrecord
280
     1
  1
_Demo
  1
*demo*
  1
*
  1
*
 70
     0
  1
*
  1
*
  0
XRECORD
  5
1DDF
102
{ACAD_REACTORS
330
1DD5
102
}
330
1DD5
100
AcDbXrecord
280
     1
  1
_Existing
  1
*exist*,*ex*
  1
*
  1
*
 70
     0
  1
*
  1
*
  0
XRECORD
  5
1DE2
102
{ACAD_REACTORS
330
1DD5
102
}
330
1DD5
100
AcDbXrecord
280
     1
  1
_Hardscape
  1
*sidewalk*,*sw*,*curb*,*walk*,*-lip*,*tbc*
  1
*
  1
*
 70
     0
  1
*
  1
*
  0
XRECORD
  5
1DD6
102
{ACAD_REACTORS
330
1DD5
102
}
330
1DD5
100
AcDbXrecord
280
     1
  1
_NoXref
  1
~*|*
  1
*
  1
*
 70
     0
  1
*
  1
*
  0
XRECORD
  5
1DE0
102
{ACAD_REACTORS
330
1DD5
102
}
330
1DD5
100
AcDbXrecord
280
     1
  1
_Row
  1
*row*
  1
*
  1
*
 70
     0
  1
*
  1
*
  0
XRECORD
  5
1DE1
102
{ACAD_REACTORS
330
1DD5
102
}
330
1DD5
100
AcDbXrecord
280
     1
  1
_Utility
  1
*ut-*,*utility*,*wat*
  1
*
  1
*
 70
     0
  1
*
  1
*
  0
DICTIONARY
  5
1CBF
330
1CBE
100
AcDbDictionary
280
     1
281
     1
  3
ACAD_XREC_ROUNDTRIP
360
1DF3
  3
BUMPTILE
360
1CC1
  3
DIFFUSETILE
360
1CC0
  3
OPACITYTILE
360
1CC4
  3
REFLECTIONTILE
360
1CC3
  3
REFRACTIONTILE
360
1CC5
  3
SPECULARTILE
360
1CC2
  0
DICTIONARY
  5
1CB7
330
1CB6
100
AcDbDictionary
280
     1
281
     1
  3
ACAD_XREC_ROUNDTRIP
360
1DF2
  3
BUMPTILE
360
1CB9
  3
DIFFUSETILE
360
1CB8
  3
OPACITYTILE
360
1CBC
  3
REFLECTIONTILE
360
1CBB
  3
REFRACTIONTILE
360
1CBD
  3
SPECULARTILE
360
1CBA
  0
DICTIONARY
  5
1CC7
330
1CC6
100
AcDbDictionary
280
     1
281
     1
  3
ACAD_XREC_ROUNDTRIP
360
1DF4
  3
BUMPTILE
360
1CC9
  3
DIFFUSETILE
360
1CC8
  3
OPACITYTILE
360
1CCC
  3
REFLECTIONTILE
360
1CCB
  3
REFRACTIONTILE
360
1CCD
  3
SPECULARTILE
360
1CCA
  0
DICTIONARY
  5
1D1B
330
1C8F
100
AcDbDictionary
280
     1
281
     1
  3
ACAD_ROUNDTRIP_2008_TABLESTYLE_CELLSTYLEMAP
360
1DF0
  3
ACAD_XREC_ROUNDTRIP
360
1DF1
  0
XRECORD
  5
1DF3
102
{ACAD_REACTORS
330
1CBF
102
}
330
1CBF
100
AcDbXrecord
280
     1
102
MATERIAL
148
0.0
149
0.0
149
0.0
 93
        0
 94
      127
282
     0
 72
     0
 77
     0
171
     0
175
     0
179
     0
273
     0
  0
XRECORD
  5
1CC1
102
{ACAD_REACTORS
330
1CBF
102
}
330
1CBF
100
AcDbXrecord
280
     1
270
     1
271
     1
  0
XRECORD
  5
1CC0
102
{ACAD_REACTORS
330
1CBF
102
}
330
1CBF
100
AcDbXrecord
280
     1
270
     1
271
     1
  0
XRECORD
  5
1CC4
102
{ACAD_REACTORS
330
1CBF
102
}
330
1CBF
100
AcDbXrecord
280
     1
270
     1
271
     1
  0
XRECORD
  5
1CC3
102
{ACAD_REACTORS
330
1CBF
102
}
330
1CBF
100
AcDbXrecord
280
     1
270
     1
271
     1
  0
XRECORD
  5
1CC5
102
{ACAD_REACTORS
330
1CBF
102
}
330
1CBF
100
AcDbXrecord
280
     1
270
     1
271
     1
  0
XRECORD
  5
1CC2
102
{ACAD_REACTORS
330
1CBF
102
}
330
1CBF
100
AcDbXrecord
280
     1
270
     1
271
     1
  0
XRECORD
  5
1DF2
102
{ACAD_REACTORS
330
1CB7
102
}
330
1CB7
100
AcDbXrecord
280
     1
102
MATERIAL
148
0.0
149
0.0
149
0.0
 93
        0
 94
      127
282
     0
 72
     0
 77
     0
171
     0
175
     0
179
     0
273
     0
  0
XRECORD
  5
1CB9
102
{ACAD_REACTORS
330
1CB7
102
}
330
1CB7
100
AcDbXrecord
280
     1
270
     1
271
     1
  0
XRECORD
  5
1CB8
102
{ACAD_REACTORS
330
1CB7
102
}
330
1CB7
100
AcDbXrecord
280
     1
270
     1
271
     1
  0
XRECORD
  5
1CBC
102
{ACAD_REACTORS
330
1CB7
102
}
330
1CB7
100
AcDbXrecord
280
     1
270
     1
271
     1
  0
XRECORD
  5
1CBB
102
{ACAD_REACTORS
330
1CB7
102
}
330
1CB7
100
AcDbXrecord
280
     1
270
     1
271
     1
  0
XRECORD
  5
1CBD
102
{ACAD_REACTORS
330
1CB7
102
}
330
1CB7
100
AcDbXrecord
280
     1
270
     1
271
     1
  0
XRECORD
  5
1CBA
102
{ACAD_REACTORS
330
1CB7
102
}
330
1CB7
100
AcDbXrecord
280
     1
270
     1
271
     1
  0
XRECORD
  5
1DF4
102
{ACAD_REACTORS
330
1CC7
102
}
330
1CC7
100
AcDbXrecord
280
     1
102
MATERIAL
148
0.0
149
0.0
149
0.0
 93
        0
 94
      127
282
     0
 72
     0
 77
     0
171
     0
175
     0
179
     0
273
     0
  0
XRECORD
  5
1CC9
102
{ACAD_REACTORS
330
1CC7
102
}
330
1CC7
100
AcDbXrecord
280
     1
270
     1
271
     1
  0
XRECORD
  5
1CC8
102
{ACAD_REACTORS
330
1CC7
102
}
330
1CC7
100
AcDbXrecord
280
     1
270
     1
271
     1
  0
XRECORD
  5
1CCC
102
{ACAD_REACTORS
330
1CC7
102
}
330
1CC7
100
AcDbXrecord
280
     1
270
     1
271
     1
  0
XRECORD
  5
1CCB
102
{ACAD_REACTORS
330
1CC7
102
}
330
1CC7
100
AcDbXrecord
280
     1
270
     1
271
     1
  0
XRECORD
  5
1CCD
102
{ACAD_REACTORS
330
1CC7
102
}
330
1CC7
100
AcDbXrecord
280
     1
270
     1
271
     1
  0
XRECORD
  5
1CCA
102
{ACAD_REACTORS
330
1CC7
102
}
330
1CC7
100
AcDbXrecord
280
     1
270
     1
271
     1
  0
CELLSTYLEMAP
  5
1DF0
102
{ACAD_REACTORS
330
1D1B
102
}
330
1D1B
100
AcDbCellStyleMap
 90
        3
300
CELLSTYLE
  1
TABLEFORMAT_BEGIN
 90
        5
170
     1
 91
        0
 92
    32768
 62
   257
 93
        1
300
CONTENTFORMAT
  1
CONTENTFORMAT_BEGIN
 90
        0
 91
        0
 92
        4
 93
        0
300

 40
0.0
140
1.0
 94
        5
 62
     0
340
12
144
0.25
309
CONTENTFORMAT_END
171
     0
 94
        6
 95
        1
302
GRIDFORMAT
  1
GRIDFORMAT_BEGIN
 90
        0
 91
        1
 62
     0
 92
       -2
340
0
 93
        0
 40
0.045
309
GRIDFORMAT_END
 95
        2
302
GRIDFORMAT
  1
GRIDFORMAT_BEGIN
 90
        0
 91
        1
 62
     0
 92
       -2
340
0
 93
        0
 40
0.045
309
GRIDFORMAT_END
 95
        4
302
GRIDFORMAT
  1
GRIDFORMAT_BEGIN
 90
        0
 91
        1
 62
     0
 92
       -2
340
0
 93
        0
 40
0.045
309
GRIDFORMAT_END
 95
        8
302
GRIDFORMAT
  1
GRIDFORMAT_BEGIN
 90
        0
 91
        1
 62
     0
 92
       -2
340
0
 93
        0
 40
0.045
309
GRIDFORMAT_END
 95
       16
302
GRIDFORMAT
  1
GRIDFORMAT_BEGIN
 90
        0
 91
        1
 62
     0
 92
       -2
340
0
 93
        0
 40
0.045
309
GRIDFORMAT_END
 95
       32
302
GRIDFORMAT
  1
GRIDFORMAT_BEGIN
 90
        0
 91
        1
 62
     0
 92
       -2
340
0
 93
        0
 40
0.045
309
GRIDFORMAT_END
309
TABLEFORMAT_END
  1
CELLSTYLE_BEGIN
 90
        1
 91
        1
300
_TITLE
309
CELLSTYLE_END
300
CELLSTYLE
  1
TABLEFORMAT_BEGIN
 90
        5
170
     1
 91
        0
 92
        0
 62
   257
 93
        1
300
CONTENTFORMAT
  1
CONTENTFORMAT_BEGIN
 90
        0
 91
        0
 92
        4
 93
        0
300

 40
0.0
140
1.0
 94
        5
 62
     0
340
12
144
0.18
309
CONTENTFORMAT_END
171
     0
 94
        6
 95
        1
302
GRIDFORMAT
  1
GRIDFORMAT_BEGIN
 90
        0
 91
        1
 62
     0
 92
       -2
340
0
 93
        0
 40
0.045
309
GRIDFORMAT_END
 95
        2
302
GRIDFORMAT
  1
GRIDFORMAT_BEGIN
 90
        0
 91
        1
 62
     0
 92
       -2
340
0
 93
        0
 40
0.045
309
GRIDFORMAT_END
 95
        4
302
GRIDFORMAT
  1
GRIDFORMAT_BEGIN
 90
        0
 91
        1
 62
     0
 92
       -2
340
0
 93
        0
 40
0.045
309
GRIDFORMAT_END
 95
        8
302
GRIDFORMAT
  1
GRIDFORMAT_BEGIN
 90
        0
 91
        1
 62
     0
 92
       -2
340
0
 93
        0
 40
0.045
309
GRIDFORMAT_END
 95
       16
302
GRIDFORMAT
  1
GRIDFORMAT_BEGIN
 90
        0
 91
        1
 62
     0
 92
       -2
340
0
 93
        0
 40
0.045
309
GRIDFORMAT_END
 95
       32
302
GRIDFORMAT
  1
GRIDFORMAT_BEGIN
 90
        0
 91
        1
 62
     0
 92
       -2
340
0
 93
        0
 40
0.045
309
GRIDFORMAT_END
309
TABLEFORMAT_END
  1
CELLSTYLE_BEGIN
 90
        2
 91
        1
300
_HEADER
309
CELLSTYLE_END
300
CELLSTYLE
  1
TABLEFORMAT_BEGIN
 90
        5
170
     1
 91
        0
 92
        0
 62
   257
 93
        1
300
CONTENTFORMAT
  1
CONTENTFORMAT_BEGIN
 90
        0
 91
        0
 92
        4
 93
        0
300

 40
0.0
140
1.0
 94
        2
 62
     0
340
12
144
0.18
309
CONTENTFORMAT_END
171
     0
 94
        6
 95
        1
302
GRIDFORMAT
  1
GRIDFORMAT_BEGIN
 90
        0
 91
        1
 62
     0
 92
       -2
340
0
 93
        0
 40
0.045
309
GRIDFORMAT_END
 95
        2
302
GRIDFORMAT
  1
GRIDFORMAT_BEGIN
 90
        0
 91
        1
 62
     0
 92
       -2
340
0
 93
        0
 40
0.045
309
GRIDFORMAT_END
 95
        4
302
GRIDFORMAT
  1
GRIDFORMAT_BEGIN
 90
        0
 91
        1
 62
     0
 92
       -2
340
0
 93
        0
 40
0.045
309
GRIDFORMAT_END
 95
        8
302
GRIDFORMAT
  1
GRIDFORMAT_BEGIN
 90
        0
 91
        1
 62
     0
 92
       -2
340
0
 93
        0
 40
0.045
309
GRIDFORMAT_END
 95
       16
302
GRIDFORMAT
  1
GRIDFORMAT_BEGIN
 90
        0
 91
        1
 62
     0
 92
       -2
340
0
 93
        0
 40
0.045
309
GRIDFORMAT_END
 95
       32
302
GRIDFORMAT
  1
GRIDFORMAT_BEGIN
 90
        0
 91
        1
 62
     0
 92
       -2
340
0
 93
        0
 40
0.045
309
GRIDFORMAT_END
309
TABLEFORMAT_END
  1
CELLSTYLE_BEGIN
 90
        3
 91
        2
300
_DATA
309
CELLSTYLE_END
  0
XRECORD
  5
1DF1
102
{ACAD_REACTORS
330
1D1B
102
}
330
1D1B
100
AcDbXrecord
280
     1
102
ACAD_ROUNDTRIP_PRE2007_TABLESTYLE
 90
        4
 91
        0
  1

 92
        4
 93
        0
  2

 94
        4
 95
        0
  3

  0
ENDSEC
  0
EOF
