  0
SECTION
  2
HEADER
  9
$ACADVER
  1
AC1018
  9
$ACADMAINTVER
 70
   104
  9
$DWGCODEPAGE
  3
ANSI_1252
  9
$LASTSAVEDBY
  1
dweyer
  9
$INSBASE
 10
0.0
 20
0.0
 30
0.0
  9
$EXTMIN
 10
11.70327964895053
 20
-0.4633607185162995
 30
0.0
  9
$EXTMAX
 10
28.19327964895054
 20
9.9766392814837
 30
0.03
  9
$LIMMIN
 10
0.0
 20
0.0
  9
$LIMMAX
 10
11.005555555556
 20
8.505555555555599
  9
$ORTHOMODE
 70
     1
  9
$REGENMODE
 70
     1
  9
$FILLMODE
 70
     1
  9
$QTEXTMODE
 70
     0
  9
$MIRRTEXT
 70
     0
  9
$LTSCALE
 40
1.0
  9
$ATTMODE
 70
     1
  9
$TEXTSIZE
 40
0.125
  9
$TRACEWID
 40
0.05
  9
$TEXTSTYLE
  7
ROMANS
  9
$CLAYER
  8
image
  9
$CELTYPE
  6
BYLAYER
  9
$CECOLOR
 62
   256
  9
$CELTSCALE
 40
1.0
  9
$DISPSILH
 70
     0
  9
$DIMSCALE
 40
1.0
  9
$DIMASZ
 40
0.18
  9
$DIMEXO
 40
0.0625
  9
$DIMDLI
 40
0.38
  9
$DIMRND
 40
0.0
  9
$DIMDLE
 40
0.0
  9
$DIMEXE
 40
0.125
  9
$DIMTP
 40
0.0
  9
$DIMTM
 40
0.0
  9
$DIMTXT
 40
0.125
  9
$DIMCEN
 40
0.09
  9
$DIMTSZ
 40
0.0
  9
$DIMTOL
 70
     0
  9
$DIMLIM
 70
     0
  9
$DIMTIH
 70
     1
  9
$DIMTOH
 70
     1
  9
$DIMSE1
 70
     0
  9
$DIMSE2
 70
     0
  9
$DIMTAD
 70
     0
  9
$DIMZIN
 70
     0
  9
$DIMBLK
  1

  9
$DIMASO
 70
     1
  9
$DIMSHO
 70
     1
  9
$DIMPOST
  1

  9
$DIMAPOST
  1

  9
$DIMALT
 70
     0
  9
$DIMALTD
 70
     2
  9
$DIMALTF
 40
25.4
  9
$DIMLFAC
 40
1.0
  9
$DIMTOFL
 70
     0
  9
$DIMTVP
 40
0.0
  9
$DIMTIX
 70
     0
  9
$DIMSOXD
 70
     0
  9
$DIMSAH
 70
     0
  9
$DIMBLK1
  1

  9
$DIMBLK2
  1

  9
$DIMSTYLE
  2
STANDARD
  9
$DIMCLRD
 70
   256
  9
$DIMCLRE
 70
   256
  9
$DIMCLRT
 70
   256
  9
$DIMTFAC
 40
1.0
  9
$DIMGAP
 40
0.09
  9
$DIMJUST
 70
     0
  9
$DIMSD1
 70
     0
  9
$DIMSD2
 70
     0
  9
$DIMTOLJ
 70
     1
  9
$DIMTZIN
 70
     0
  9
$DIMALTZ
 70
     0
  9
$DIMALTTZ
 70
     0
  9
$DIMUPT
 70
     0
  9
$DIMDEC
 70
     4
  9
$DIMTDEC
 70
     4
  9
$DIMALTU
 70
     2
  9
$DIMALTTD
 70
     2
  9
$DIMTXSTY
  7
STANDARD
  9
$DIMAUNIT
 70
     0
  9
$DIMADEC
 70
     0
  9
$DIMALTRND
 40
0.0
  9
$DIMAZIN
 70
     0
  9
$DIMDSEP
 70
    46
  9
$DIMATFIT
 70
     3
  9
$DIMFRAC
 70
     0
  9
$DIMLDRBLK
  1

  9
$DIMLUNIT
 70
     2
  9
$DIMLWD
 70
    -1
  9
$DIMLWE
 70
    -1
  9
$DIMTMOVE
 70
     0
  9
$LUNITS
 70
     2
  9
$LUPREC
 70
     3
  9
$SKETCHINC
 40
0.1
  9
$FILLETRAD
 40
0.0
  9
$AUNITS
 70
     0
  9
$AUPREC
 70
     2
  9
$MENU
  1
.
  9
$ELEVATION
 40
0.0
  9
$PELEVATION
 40
0.0
  9
$THICKNESS
 40
0.0
  9
$LIMCHECK
 70
     0
  9
$CHAMFERA
 40
0.25
  9
$CHAMFERB
 40
0.25
  9
$CHAMFERC
 40
0.0
  9
$CHAMFERD
 40
0.0
  9
$SKPOLY
 70
     0
  9
$TDCREATE
 40
2451548.484978183
  9
$TDUCREATE
 40
2451548.776644850
  9
$TDUPDATE
 40
2455575.426289884
  9
$TDUUPDATE
 40
2455575.717956551
  9
$TDINDWG
 40
0.5519660417
  9
$TDUSRTIMER
 40
0.5519660417
  9
$USRTIMER
 70
     1
  9
$ANGBASE
 50
0.0
  9
$ANGDIR
 70
     0
  9
$PDMODE
 70
     0
  9
$PDSIZE
 40
0.0
  9
$PLINEWID
 40
0.0
  9
$SPLFRAME
 70
     0
  9
$SPLINETYPE
 70
     6
  9
$SPLINESEGS
 70
     8
  9
$HANDSEED
  5
25D8
  9
$SURFTAB1
 70
     6
  9
$SURFTAB2
 70
     6
  9
$SURFTYPE
 70
     6
  9
$SURFU
 70
     6
  9
$SURFV
 70
     6
  9
$UCSBASE
  2

  9
$UCSNAME
  2

  9
$UCSORG
 10
0.0
 20
0.0
 30
0.0
  9
$UCSXDIR
 10
1.0
 20
0.0
 30
0.0
  9
$UCSYDIR
 10
0.0
 20
1.0
 30
0.0
  9
$UCSORTHOREF
  2

  9
$UCSORTHOVIEW
 70
     0
  9
$UCSORGTOP
 10
0.0
 20
0.0
 30
0.0
  9
$UCSORGBOTTOM
 10
0.0
 20
0.0
 30
0.0
  9
$UCSORGLEFT
 10
0.0
 20
0.0
 30
0.0
  9
$UCSORGRIGHT
 10
0.0
 20
0.0
 30
0.0
  9
$UCSORGFRONT
 10
0.0
 20
0.0
 30
0.0
  9
$UCSORGBACK
 10
0.0
 20
0.0
 30
0.0
  9
$PUCSBASE
  2

  9
$PUCSNAME
  2

  9
$PUCSORG
 10
0.0
 20
0.0
 30
0.0
  9
$PUCSXDIR
 10
1.0
 20
0.0
 30
0.0
  9
$PUCSYDIR
 10
0.0
 20
1.0
 30
0.0
  9
$PUCSORTHOREF
  2

  9
$PUCSORTHOVIEW
 70
     0
  9
$PUCSORGTOP
 10
0.0
 20
0.0
 30
0.0
  9
$PUCSORGBOTTOM
 10
0.0
 20
0.0
 30
0.0
  9
$PUCSORGLEFT
 10
0.0
 20
0.0
 30
0.0
  9
$PUCSORGRIGHT
 10
0.0
 20
0.0
 30
0.0
  9
$PUCSORGFRONT
 10
0.0
 20
0.0
 30
0.0
  9
$PUCSORGBACK
 10
0.0
 20
0.0
 30
0.0
  9
$USERI1
 70
     0
  9
$USERI2
 70
     0
  9
$USERI3
 70
     0
  9
$USERI4
 70
     0
  9
$USERI5
 70
     0
  9
$USERR1
 40
0.0
  9
$USERR2
 40
0.0
  9
$USERR3
 40
0.0
  9
$USERR4
 40
0.0
  9
$USERR5
 40
0.0
  9
$WORLDVIEW
 70
     1
  9
$SHADEDGE
 70
     3
  9
$SHADEDIF
 70
    70
  9
$TILEMODE
 70
     1
  9
$MAXACTVP
 70
    48
  9
$PINSBASE
 10
0.0
 20
0.0
 30
0.0
  9
$PLIMCHECK
 70
     0
  9
$PEXTMIN
 10
1.000000000000000E+20
 20
1.000000000000000E+20
 30
1.000000000000000E+20
  9
$PEXTMAX
 10
-1.000000000000000E+20
 20
-1.000000000000000E+20
 30
-1.000000000000000E+20
  9
$PLIMMIN
 10
0.0
 20
0.0
  9
$PLIMMAX
 10
12.0
 20
9.0
  9
$UNITMODE
 70
     0
  9
$VISRETAIN
 70
     1
  9
$PLINEGEN
 70
     1
  9
$PSLTSCALE
 70
     1
  9
$TREEDEPTH
 70
  3020
  9
$CMLSTYLE
  2
STANDARD
  9
$CMLJUST
 70
     0
  9
$CMLSCALE
 40
1.0
  9
$PROXYGRAPHICS
 70
     1
  9
$MEASUREMENT
 70
     0
  9
$CELWEIGHT
370
    -1
  9
$ENDCAPS
280
     0
  9
$JOINSTYLE
280
     0
  9
$LWDISPLAY
290
     0
  9
$INSUNITS
 70
     0
  9
$HYPERLINKBASE
  1

  9
$STYLESHEET
  1
LaserJet5Shaded.ctb
  9
$XEDIT
290
     1
  9
$CEPSNTYPE
380
     0
  9
$PSTYLEMODE
290
     1
  9
$FINGERPRINTGUID
  2
{3511DBD2-40CA-4446-AAE4-37BEDC28B9CD}
  9
$VERSIONGUID
  2
{74ADA67B-B02D-46CD-B495-29F7B687FDD3}
  9
$EXTNAMES
290
     1
  9
$PSVPSCALE
 40
0.0
  9
$OLESTARTUP
290
     1
  9
$SORTENTS
280
    48
  9
$INDEXCTL
280
     0
  9
$HIDETEXT
280
     0
  9
$XCLIPFRAME
290
     0
  9
$HALOGAP
280
     0
  9
$OBSCOLOR
 70
   257
  9
$OBSLTYPE
280
     0
  9
$INTERSECTIONDISPLAY
280
     0
  9
$INTERSECTIONCOLOR
 70
   257
  9
$DIMASSOC
280
     1
  9
$PROJECTNAME
  1

  0
ENDSEC
  0
SECTION
  2
CLASSES
  0
CLASS
  1
ACDBDICTIONARYWDFLT
  2
AcDbDictionaryWithDefault
  3
ObjectDBX Classes
 90
        0
 91
        1
280
     0
281
     0
  0
CLASS
  1
DICTIONARYVAR
  2
AcDbDictionaryVar
  3
ObjectDBX Classes
 90
        0
 91
       10
280
     0
281
     0
  0
CLASS
  1
PLOTSETTINGS
  2
AcDbPlotSettings
  3
ObjectDBX Classes
 90
        0
 91
       78
280
     0
281
     0
  0
CLASS
  1
MATERIAL
  2
AcDbMaterial
  3
ObjectDBX Classes
 90
     1153
 91
        3
280
     0
281
     0
  0
CLASS
  1
VISUALSTYLE
  2
AcDbVisualStyle
  3
ObjectDBX Classes
 90
     4095
 91
       16
280
     0
281
     0
  0
CLASS
  1
TABLESTYLE
  2
AcDbTableStyle
  3
ObjectDBX Classes
 90
     4095
 91
        1
280
     0
281
     0
  0
CLASS
  1
SCALE
  2
AcDbScale
  3
ObjectDBX Classes
 90
     1153
 91
        1
280
     0
281
     0
  0
CLASS
  1
MLEADERSTYLE
  2
AcDbMLeaderStyle
  3
ACDB_MLEADERSTYLE_CLASS
 90
     4095
 91
        1
280
     0
281
     0
  0
CLASS
  1
EXACXREFPANELOBJECT
  2
ExAcXREFPanelObject
  3
EXAC_ESW
 90
     1025
 91
        0
280
     0
281
     0
  0
CLASS
  1
NPOCOLLECTION
  2
AcDbImpNonPersistentObjectsCollection
  3
ObjectDBX Classes
 90
     1153
 91
        0
280
     0
281
     0
  0
CLASS
  1
CELLSTYLEMAP
  2
AcDbCellStyleMap
  3
ObjectDBX Classes
 90
     1152
 91
        4
280
     0
281
     0
  0
ENDSEC
  0
SECTION
  2
TABLES
  0
TABLE
  2
VPORT
  5
8
330
0
100
AcDbSymbolTable
 70
     1
  0
VPORT
  5
2274
330
8
100
AcDbSymbolTableRecord
100
AcDbViewportTableRecord
  2
*Active
 70
     0
 10
0.0
 20
0.0
 11
1.0
 21
1.0
 12
19.94827964895054
 22
4.7566392814837
 13
0.0
 23
0.0
 14
1.0
 24
1.0
 15
0.0
 25
0.0
 16
0.0
 26
0.0
 36
1.0
 17
0.0
 27
0.0
 37
0.0
 40
10.53157894736842
 41
2.281112737920937
 42
50.0
 43
0.0
 44
0.0
 50
0.0
 51
0.0
 71
     0
 72
  1000
 73
     1
 74
     1
 75
     0
 76
     0
 77
     0
 78
     0
281
     0
 65
     1
110
0.0
120
0.0
130
0.0
111
1.0
121
0.0
131
0.0
112
0.0
122
1.0
132
0.0
 79
     0
146
0.0
  0
ENDTAB
  0
TABLE
  2
LTYPE
  5
5
330
0
100
AcDbSymbolTable
 70
     2
  0
LTYPE
  5
12
330
5
100
AcDbSymbolTableRecord
100
AcDbLinetypeTableRecord
  2
BYBLOCK
 70
     0
  3

 72
    65
 73
     0
 40
0.0
  0
LTYPE
  5
13
330
5
100
AcDbSymbolTableRecord
100
AcDbLinetypeTableRecord
  2
BYLAYER
 70
     0
  3

 72
    65
 73
     0
 40
0.0
  0
LTYPE
  5
14
330
5
100
AcDbSymbolTableRecord
100
AcDbLinetypeTableRecord
  2
CONTINUOUS
 70
     0
  3
___________________________
 72
    65
 73
     0
 40
0.0
  0
LTYPE
  5
41
330
5
100
AcDbSymbolTableRecord
100
AcDbLinetypeTableRecord
  2
HIDDEN2
 70
     0
  3
 
 72
    65
 73
     2
 40
0.1875
 49
0.125
 74
     0
 49
-0.0625
 74
     0
  0
ENDTAB
  0
TABLE
  2
LAYER
  5
2
102
{ACAD_XDICTIONARY
360
22CE
102
}
330
0
100
AcDbSymbolTable
 70
     4
  0
LAYER
  5
E
330
2
100
AcDbSymbolTableRecord
100
AcDbLayerTableRecord
  2
0
 70
     0
 62
     7
  6
CONTINUOUS
370
    -3
390
1804
  0
LAYER
  5
1820
330
2
100
AcDbSymbolTableRecord
100
AcDbLayerTableRecord
  2
title
 70
     0
 62
     4
  6
CONTINUOUS
370
    -3
390
1804
  0
LAYER
  5
1821
330
2
100
AcDbSymbolTableRecord
100
AcDbLayerTableRecord
  2
image
 70
     0
 62
     7
  6
CONTINUOUS
370
    -3
390
1804
  0
LAYER
  5
1822
330
2
100
AcDbSymbolTableRecord
100
AcDbLayerTableRecord
  2
text_bubbles
 70
     0
 62
     6
  6
CONTINUOUS
370
    -3
390
1804
1001
RAK
1000
{EFB-CP-BUBBLES
1070
     0
1070
     6
1000
CONTINUOUS
1000
EFB-CP-BUBBLES}
1000
{EFB-CP-LEADERS
1070
     0
1070
    -6
1000
CONTINUOUS
1000
EFB-CP-LEADERS}
1000
{EFB-CP-BSP-BUBBLES
1070
     0
1070
     6
1000
CONTINUOUS
1000
EFB-CP-BSP-BUBBLES}
1000
{EFB-CP-BSP-LEADERS
1070
     0
1070
    -6
1000
CONTINUOUS
1000
EFB-CP-BSP-LEADERS}
1000
{EFB-CP-NP-BUBBLES
1070
     0
1070
     6
1000
CONTINUOUS
1000
EFB-CP-NP-BUBBLES}
1000
{EFB-CP-NP-LEADERS
1070
     0
1070
    -6
1000
CONTINUOUS
1000
EFB-CP-NP-LEADERS}
1000
{EFB-CP-PRS-BUBBLES
1070
     0
1070
     6
1000
CONTINUOUS
1000
EFB-CP-PRS-BUBBLES}
1000
{EFB-CP-PRS-LEADERS
1070
     0
1070
    -6
1000
CONTINUOUS
1000
EFB-CP-PRS-LEADERS}
1000
{EFB-CP-PRS-BSP-BUBBLES
1070
     0
1070
     6
1000
CONTINUOUS
1000
EFB-CP-PRS-BSP-BUBBLES}
1000
{EFB-CP-PRS-BSP-LEADERS
1070
     0
1070
    -6
1000
CONTINUOUS
1000
EFB-CP-PRS-BSP-LEADERS}
1000
{EFB-CP-PRS-NP-BUBBLES
1070
     0
1070
     6
1000
CONTINUOUS
1000
EFB-CP-PRS-NP-BUBBLES}
1000
{EFB-CP-PRS-NP-LEADERS
1070
     0
1070
    -6
1000
CONTINUOUS
1000
EFB-CP-PRS-NP-LEADERS}
  0
ENDTAB
  0
TABLE
  2
STYLE
  5
3
330
0
100
AcDbSymbolTable
 70
     5
  0
STYLE
  5
F
330
3
100
AcDbSymbolTableRecord
100
AcDbTextStyleTableRecord
  2
STANDARD
 70
     0
 40
0.0
 41
0.0
 50
0.0
 71
     0
 42
0.125
  3
TXT
  4

  0
STYLE
  5
1824
330
3
100
AcDbSymbolTableRecord
100
AcDbTextStyleTableRecord
  2
ROMANS
 70
     0
 40
0.0
 41
1.0
 50
0.0
 71
     0
 42
0.125
  3
romans
  4

  0
STYLE
  5
1825
330
3
100
AcDbSymbolTableRecord
100
AcDbTextStyleTableRecord
  2
L100
 70
     0
 40
0.1
 41
1.0
 50
0.0
 71
     0
 42
0.1
  3
SIMPLEX
  4

  0
STYLE
  5
1826
330
3
100
AcDbSymbolTableRecord
100
AcDbTextStyleTableRecord
  2
L200
 70
     0
 40
0.2
 41
1.0
 50
0.0
 71
     0
 42
0.081
  3
ARIAL.TTF
  4

1001
ACAD
1000
Arial
1071
       34
  0
STYLE
  5
1827
330
3
100
AcDbSymbolTableRecord
100
AcDbTextStyleTableRecord
  2
L80
 70
     0
 40
0.08
 41
1.0
 50
0.0
 71
     0
 42
0.08
  3
ROMANS
  4

  0
ENDTAB
  0
TABLE
  2
VIEW
  5
6
330
0
100
AcDbSymbolTable
 70
     1
  0
VIEW
  5
1E31
330
6
100
AcDbSymbolTableRecord
100
AcDbViewTableRecord
  2
PS1
 70
     0
 40
10.44
 10
19.94827964895053
 20
4.756639281483701
 41
16.49
 11
0.0
 21
0.0
 31
1.0
 12
0.0
 22
0.0
 32
0.0
 42
50.0
 43
0.0
 44
0.0
 50
0.0
 71
     0
281
     0
 72
     1
110
0.0
120
0.0
130
0.0
111
1.0
121
0.0
131
0.0
112
0.0
122
1.0
132
0.0
 79
     0
146
0.0
  0
ENDTAB
  0
TABLE
  2
UCS
  5
7
330
0
100
AcDbSymbolTable
 70
     0
  0
ENDTAB
  0
TABLE
  2
APPID
  5
9
330
0
100
AcDbSymbolTable
 70
    13
  0
APPID
  5
10
330
9
100
AcDbSymbolTableRecord
100
AcDbRegAppTableRecord
  2
ACAD
 70
     0
  0
APPID
  5
17FF
330
9
100
AcDbSymbolTableRecord
100
AcDbRegAppTableRecord
  2
RAK
 70
     0
  0
APPID
  5
1E12
330
9
100
AcDbSymbolTableRecord
100
AcDbRegAppTableRecord
  2
DCO15
 70
     0
  0
APPID
  5
22E8
330
9
100
AcDbSymbolTableRecord
100
AcDbRegAppTableRecord
  2
ACAD_PSEXT
 70
     0
  0
APPID
  5
2422
330
9
100
AcDbSymbolTableRecord
100
AcDbRegAppTableRecord
  2
ACAD_MLEADERVER
 70
     0
  0
APPID
  5
24F2
330
9
100
AcDbSymbolTableRecord
100
AcDbRegAppTableRecord
  2
ACAD_EXEMPT_FROM_CAD_STANDARDS
 70
     0
  0
APPID
  5
25A6
330
9
100
AcDbSymbolTableRecord
100
AcDbRegAppTableRecord
  2
BBSI_PltSel
 70
     0
  0
APPID
  5
25A7
330
9
100
AcDbSymbolTableRecord
100
AcDbRegAppTableRecord
  2
BBSI_Plots
 70
     0
  0
APPID
  5
25A8
330
9
100
AcDbSymbolTableRecord
100
AcDbRegAppTableRecord
  2
BBSI_Bookmarks
 70
     0
  0
APPID
  5
25A9
330
9
100
AcDbSymbolTableRecord
100
AcDbRegAppTableRecord
  2
BBSI_BookmarksEx
 70
     0
  0
APPID
  5
25AA
330
9
100
AcDbSymbolTableRecord
100
AcDbRegAppTableRecord
  2
BBSI_StampsEx
 70
     0
  0
APPID
  5
25AB
330
9
100
AcDbSymbolTableRecord
100
AcDbRegAppTableRecord
  2
BBSI_Attachs
 70
     0
  0
APPID
  5
25AC
330
9
100
AcDbSymbolTableRecord
100
AcDbRegAppTableRecord
  2
BBSI_DigSigs
 70
     0
  0
ENDTAB
  0
TABLE
  2
DIMSTYLE
  5
A
330
0
100
AcDbSymbolTable
 70
     1
100
AcDbDimStyleTable
 71
     1
340
17F8
  0
DIMSTYLE
105
17F8
330
A
100
AcDbSymbolTableRecord
100
AcDbDimStyleTableRecord
  2
STANDARD
 70
     0
340
F
  0
ENDTAB
  0
TABLE
  2
BLOCK_RECORD
  5
1
330
0
100
AcDbSymbolTable
 70
     4
  0
BLOCK_RECORD
  5
18
330
1
100
AcDbSymbolTableRecord
100
AcDbBlockTableRecord
  2
*MODEL_SPACE
340
1807
  0
BLOCK_RECORD
  5
15
330
1
100
AcDbSymbolTableRecord
100
AcDbBlockTableRecord
  2
*PAPER_SPACE
340
1808
  0
BLOCK_RECORD
  5
180D
330
1
100
AcDbSymbolTableRecord
100
AcDbBlockTableRecord
  2
TITLBLK
340
0
102
{BLKREFS
331
1BFE
102
}
  0
BLOCK_RECORD
  5
181A
330
1
100
AcDbSymbolTableRecord
100
AcDbBlockTableRecord
  2
bubble
340
0
310
2800000020000000200000000100080000000000000400000000000000000000000000000000000000000000000080000080000000808000800000008000800080800000C0C0C000C0DCC000F0CAA6000020400000206000002080000020A0000020C0000020E00000400000004020000040400000406000004080000040A0
310
000040C0000040E00000600000006020000060400000606000006080000060A0000060C0000060E00000800000008020000080400000806000008080000080A0000080C0000080E00000A0000000A0200000A0400000A0600000A0800000A0A00000A0C00000A0E00000C0000000C0200000C0400000C0600000C0800000C0
310
A00000C0C00000C0E00000E0000000E0200000E0400000E0600000E0800000E0A00000E0C00000E0E00040000000400020004000400040006000400080004000A0004000C0004000E00040200000402020004020400040206000402080004020A0004020C0004020E000404000004040200040404000404060004040800040
310
40A0004040C0004040E00040600000406020004060400040606000406080004060A0004060C0004060E00040800000408020004080400040806000408080004080A0004080C0004080E00040A0000040A0200040A0400040A0600040A0800040A0A00040A0C00040A0E00040C0000040C0200040C0400040C0600040C08000
310
40C0A00040C0C00040C0E00040E0000040E0200040E0400040E0600040E0800040E0A00040E0C00040E0E00080000000800020008000400080006000800080008000A0008000C0008000E00080200000802020008020400080206000802080008020A0008020C0008020E00080400000804020008040400080406000804080
310
008040A0008040C0008040E00080600000806020008060400080606000806080008060A0008060C0008060E00080800000808020008080400080806000808080008080A0008080C0008080E00080A0000080A0200080A0400080A0600080A0800080A0A00080A0C00080A0E00080C0000080C0200080C0400080C0600080C0
310
800080C0A00080C0C00080C0E00080E0000080E0200080E0400080E0600080E0800080E0A00080E0C00080E0E000C0000000C0002000C0004000C0006000C0008000C000A000C000C000C000E000C0200000C0202000C0204000C0206000C0208000C020A000C020C000C020E000C0400000C0402000C0404000C0406000C0
310
408000C040A000C040C000C040E000C0600000C0602000C0604000C0606000C0608000C060A000C060C000C060E000C0800000C0802000C0804000C0806000C0808000C080A000C080C000C080E000C0A00000C0A02000C0A04000C0A06000C0A08000C0A0A000C0A0C000C0A0E000C0C00000C0C02000C0C04000C0C06000
310
C0C08000C0C0A000F0FBFF00A4A0A000808080000000FF0000FF000000FFFF00FF000000FF00FF00FFFF0000FFFFFF0008080808080808080808080808080808080808080808080808080808080808080808080808080808080808080808080808080808080808080808080808080808080808080808080808080808FDFDFD
310
08080808080808080808080808080808080808080808080808080808FD080808FDFDFDFDFDFD0808080808080808080808080808080808080808FDFD08080808080808080808FDFDFDFD080808080808080808080808080808FD08080808080808080808080808080808FD08080808080808080808080808FD080808080808
310
0808080808080808080808FD0808080808080808080808FDFD08080808080808080808080808080808080808FD080808080808080808FD080808080808080808080808080808080808080808FD0808080808080808FD08FD0808080808080808FD0808FD0808080808080808FDFD08080808080808FD0808FD080808080808
310
FD08080808FD080808080808FD08FD08080808080808FD0808FD080808080808FD08080808FD080808080808FD0808FD080808080808FD080808FD08080808FD080808080808FD08080808FD080808FD080808080808FD08080808FD0808FD0808080808080808FD0808FD0808080808FD0808080808FD08080808FD0808FD
310
0808080808080808FD0808FD0808080808FD0808080808FD0808080808FDFD08080808080808080808FDFD08080808080808FD08080808FD0808080808FDFD08080808080808080808FDFD08080808080808FD08080808FD08080808FD0808FD0808080808080808FD0808FD0808080808FD0808080808FD08080808FD0808
310
FD0808080808080808FD0808FD0808080808FD0808080808FD080808FD08080808FD080808080808FD08080808FD080808FD080808080808FD0808FD080808080808FD08080808FD080808080808FD0808FD080808080808FD0808FD080808080808FD08080808FD080808080808FD08FD08080808080808FD08FD08080808
310
08080808FD0808FD0808080808080808FDFD0808080808080808FD080808080808080808080808080808080808080808FD08080808080808080808FDFD08080808080808080808080808080808080808FD080808080808080808080808FD0808080808080808080808080808080808FD0808080808080808080808080808FD
310
08080808080808080808080808080808FD080808080808080808080808080808FDFD0808080808080808080808FDFDFD080808080808080808080808080808080808FD08080808FDFDFDFDFDFD08080808080808080808080808080808080808080808FDFDFDFD080808080808080808080808080808080808080808080808
310
0808080808080808080808080808080808080808080808080808080808080808080808080808080808080808080808080808080808080808
102
{BLKREFS
331
1D9D
331
1DAB
331
1DBF
331
1DC2
331
1DC5
331
1CF2
331
1D26
331
1D29
331
1D2C
331
1D2F
331
1D81
331
1DE2
102
}
  0
BLOCK_RECORD
  5
1DEE
330
1
100
AcDbSymbolTableRecord
100
AcDbBlockTableRecord
  2
PlotLayout2002
340
0
102
{BLKREFS
331
1E2C
102
}
  0
BLOCK_RECORD
  5
1E2B
330
1
100
AcDbSymbolTableRecord
100
AcDbBlockTableRecord
  2
pagesetups
340
0
102
{BLKREFS
331
1E30
102
}
  0
ENDTAB
  0
ENDSEC
  0
SECTION
  2
BLOCKS
  0
BLOCK
  5
19
330
18
100
AcDbEntity
  8
0
100
AcDbBlockBegin
  2
*MODEL_SPACE
 70
     0
 10
0.0
 20
0.0
 30
0.0
  3
*MODEL_SPACE
  1

  0
ENDBLK
  5
1A
330
18
100
AcDbEntity
  8
0
100
AcDbBlockEnd
  0
BLOCK
  5
16
330
15
100
AcDbEntity
 67
     1
  8
0
100
AcDbBlockBegin
  2
*PAPER_SPACE
 70
     0
 10
0.0
 20
0.0
 30
0.0
  3
*PAPER_SPACE
  1

  0
ENDBLK
  5
17
330
15
100
AcDbEntity
 67
     1
  8
0
100
AcDbBlockEnd
  0
BLOCK
  5
1818
330
180D
100
AcDbEntity
  8
0
100
AcDbBlockBegin
  2
TITLBLK
 70
     2
 10
0.0
 20
0.0
 30
0.0
  3
TITLBLK
  1

  0
LWPOLYLINE
  5
180E
330
180D
100
AcDbEntity
  8
title
 62
     3
100
AcDbPolyline
 90
        2
 70
     0
 43
0.04
 39
0.03
 10
0.3424999999999994
 20
-0.0000000000000003
 10
7.654581983261419
 20
-0.0000000000000003
  0
ATTDEF
  5
180F
330
180D
100
AcDbEntity
  8
title
100
AcDbText
 10
0.625
 20
0.0999999999999998
 30
0.0
 40
0.2
  1
TITLE
  7
L200
100
AcDbAttributeDefinition
  3
DETAIL TITLE TOP 2ND LINE
  2
TITLE2
 70
     0
  0
LWPOLYLINE
  5
1810
330
180D
100
AcDbEntity
  8
title
 62
     3
100
AcDbPolyline
 90
        2
 70
     1
 43
0.03
 10
0.0
 20
-0.3425000000000002
 42
0.9999999999999998
 10
0.0
 20
0.3425000000000002
 42
0.9999999999999998
  0
ATTDEF
  5
1811
330
180D
100
AcDbEntity
  8
title
100
AcDbText
 10
-0.0776944065484311
 20
-0.1000000000000003
 30
0.0
 40
0.2
  1
#
  7
L200
 72
     4
 11
0.0
 21
-0.0000000000000003
 31
0.0
100
AcDbAttributeDefinition
  3
#
  2
#
 70
     0
  0
ATTDEF
  5
1812
330
180D
100
AcDbEntity
  8
title
 62
     7
100
AcDbText
 10
0.625
 20
-0.1836633170828782
 30
0.0
 40
0.1
  1
N.T.S.
  7
L100
100
AcDbAttributeDefinition
  3
SCALE
  2
SCALE
 70
     0
  0
ATTDEF
  5
1813
330
180D
100
AcDbEntity
  8
title
100
AcDbText
 10
2.107203380653828
 20
-0.2914343300200487
 30
0.0
 40
0.2
  1
TITLE2
  7
L200
100
AcDbAttributeDefinition
  3
DETAIL TITLE BOTTOM 1
  2
TITLE3
 70
     0
  0
ATTDEF
  5
1814
330
180D
100
AcDbEntity
  8
title
 62
     7
100
AcDbText
 10
7.570772459451895
 20
-0.1618486459795794
 30
0.0
 40
0.08
  1
-
  7
L80
 72
     2
 11
7.654581983261419
 21
-0.1618486459795794
 31
0.0
100
AcDbAttributeDefinition
  3
DWG-NAME
  2
DWG-NAME
 70
     0
  0
ATTDEF
  5
1815
330
180D
100
AcDbEntity
  8
title
 62
     7
100
AcDbText
 10
7.570772459451895
 20
0.0853756950662722
 30
0.0
 40
0.08
  1
-
  7
L80
 72
     2
 11
7.654581983261419
 21
0.0853756950662722
 31
0.0
100
AcDbAttributeDefinition
  3
REVISION DATE
  2
REVISED
 70
     0
  0
ATTDEF
  5
1816
330
180D
100
AcDbEntity
  8
title
100
AcDbText
 10
0.625
 20
0.459485206268383
 30
0.0
 40
0.2
  1
TITLE
  7
L200
100
AcDbAttributeDefinition
  3
DETAIL TITLE TOP LINE
  2
TITLE1
 70
     0
  0
ATTDEF
  5
1817
330
180D
100
AcDbEntity
  8
title
100
AcDbText
 10
2.107203380653828
 20
-0.6149710156615936
 30
0.0
 40
0.2
  1
TITLE2
  7
L200
100
AcDbAttributeDefinition
  3
DETAIL TITLE BOTTOM 2
  2
TITLE4
 70
     0
  0
ENDBLK
  5
1819
330
180D
100
AcDbEntity
  8
0
100
AcDbBlockEnd
  0
BLOCK
  5
181D
330
181A
100
AcDbEntity
  8
0
100
AcDbBlockBegin
  2
bubble
 70
     2
 10
0.0
 20
0.0
 30
0.0
  3
bubble
  1

  0
CIRCLE
  5
181B
330
181A
100
AcDbEntity
  8
text_bubbles
100
AcDbCircle
 10
0.0
 20
0.0
 30
0.0
 40
0.1398891854377198
  0
ATTDEF
  5
181C
330
181A
100
AcDbEntity
  8
text_bubbles
100
AcDbText
 10
0.0
 20
0.0
 30
0.0
 40
0.125
  1

  7
ROMANS
 72
     4
 11
0.0
 21
0.0
 31
0.0
100
AcDbAttributeDefinition
  3
Number
  2
XX
 70
     0
  0
ENDBLK
  5
181E
330
181A
100
AcDbEntity
  8
0
100
AcDbBlockEnd
  0
BLOCK
  5
1DEF
330
1DEE
100
AcDbEntity
  8
0
100
AcDbBlockBegin
  2
PlotLayout2002
 70
     0
 10
0.0
 20
0.0
 30
0.0
  3
PlotLayout2002
  1

  0
ENDBLK
  5
1DF0
330
1DEE
100
AcDbEntity
  8
0
100
AcDbBlockEnd
  0
BLOCK
  5
1E2D
330
1E2B
100
AcDbEntity
  8
0
100
AcDbBlockBegin
  2
pagesetups
 70
     0
 10
0.0
 20
0.0
 30
0.0
  3
pagesetups
  1

  0
INSERT
  5
1E2C
330
1E2B
100
AcDbEntity
  8
0
100
AcDbBlockReference
  2
PlotLayout2002
 10
0.0
 20
0.0
 30
0.0
  0
ENDBLK
  5
1E2E
330
1E2B
100
AcDbEntity
  8
0
100
AcDbBlockEnd
  0
ENDSEC
  0
SECTION
  2
ENTITIES
  0
MTEXT
  5
1B05
330
18
100
AcDbEntity
  8
text_bubbles
100
AcDbMText
 10
21.02343582108102
 20
6.815515641704414
 30
0.0
 40
0.125
 41
6.03
 71
     1
 72
     5
  1
PE-CABLE (36-INCH EXPANSION COIL EACH WIRE)\P\PPREFORMED SUPER SERVISEAL WATERPROOF WIRE SPLICE KIT\P\P3M UAL CONNECTORS (SPLICE ALL WIRE PAIRS)\P\PSPLICE BOX WITH COVER\P\PBRICK (1 OF 2)\P\PFINISH GRADE
  7
ROMANS
 73
     1
 44
1.0
  0
LWPOLYLINE
  5
1BF4
330
18
100
AcDbEntity
  8
image
100
AcDbPolyline
 90
        4
 70
     1
 43
0.0
 10
11.70327964895053
 20
-0.4633607185162995
 10
28.19327964895054
 20
-0.4633607185162995
 10
28.19327964895054
 20
9.9766392814837
 10
11.70327964895053
 20
9.9766392814837
  0
LINE
  5
1BF8
330
18
100
AcDbEntity
  8
image
100
AcDbLine
 10
17.74601717986379
 20
5.564123494814515
 30
0.0
 11
17.82708687430501
 21
4.32785357458785
 31
0.0
  0
LINE
  5
1BF9
330
18
100
AcDbEntity
  8
image
100
AcDbLine
 10
17.89335655788093
 20
5.155876689228118
 30
0.0
 11
18.02832154271096
 21
4.53537862942811
 31
0.0
  0
LINE
  5
1BFA
330
18
100
AcDbEntity
  8
image
100
AcDbLine
 10
14.02663279554066
 20
5.155876689228118
 30
0.0
 11
13.89166781071063
 21
4.53537862942811
 31
0.0
  0
LINE
  5
1BFB
330
18
100
AcDbEntity
  8
image
100
AcDbLine
 10
14.1739721735578
 20
5.564123494814515
 30
0.0
 11
14.09293792230881
 21
4.328545942828105
 31
0.0
  0
INSERT
  5
1BFE
330
18
100
AcDbEntity
  8
title
100
AcDbBlockReference
 66
     1
  2
TITLBLK
 10
12.30972201946502
 20
0.4208663779620682
 30
0.0
  0
ATTRIB
  5
1BFF
330
1BFE
100
AcDbEntity
  8
title
100
AcDbText
 10
12.93472201946502
 20
0.5208663779620678
 30
0.0
 40
0.2
  1
SATELLITE AND CLIENT SATELLITE
  7
L200
100
AcDbAttribute
  2
TITLE2
 70
     0
  0
ATTRIB
  5
1C00
330
1BFE
100
AcDbEntity
  8
title
100
AcDbText
 10
12.20883525275288
 20
0.3208663779620677
 30
0.0
 40
0.2
  1
D
  7
L200
 72
     4
 11
12.30972201946502
 21
0.4208663779620677
 31
0.0
100
AcDbAttribute
  2
#
 70
     0
  0
ATTRIB
  5
1C01
330
1BFE
100
AcDbEntity
  8
title
 62
     7
100
AcDbText
 10
19.54270383057629
 20
0.2372030608791898
 30
0.0
 40
0.1
  1
N.T.S.
  7
L100
100
AcDbAttribute
  2
SCALE
 70
     0
  0
ATTRIB
  5
1C02
330
1BFE
100
AcDbEntity
  8
title
100
AcDbText
 10
12.93472201946502
 20
0.1294320479420193
 30
0.0
 40
0.2
  1
PE-CABLE SPLICE
  7
L200
100
AcDbAttribute
  2
TITLE3
 70
     0
  0
ATTRIB
  5
1C03
330
1BFE
100
AcDbEntity
  8
title
 62
     7
100
AcDbText
 10
12.10417719778543
 20
-0.4268854303992966
 30
0.0
 40
0.08
  1
PE-Splice-TW.DWG
  7
L80
 72
     2
 11
13.23179624540447
 21
-0.4268854303992966
 31
0.0
100
AcDbAttribute
  2
DWG-NAME
 70
     0
  0
ATTRIB
  5
1C04
330
1BFE
100
AcDbEntity
  8
title
 62
     7
100
AcDbText
 10
19.32049447891691
 20
0.5062420730283403
 30
0.0
 40
0.08
  1
12-22-10
  7
L80
 72
     2
 11
19.96430400272643
 21
0.5062420730283403
 31
0.0
100
AcDbAttribute
  2
REVISED
 70
     0
  0
ATTRIB
  5
1C05
330
1BFE
100
AcDbEntity
  8
title
100
AcDbText
 10
12.93472201946502
 20
0.8803515842304509
 30
0.0
 40
0.2
  1
COMMUNICATION CABLE BETWEEN SERVER
  7
L200
100
AcDbAttribute
  2
TITLE1
 70
     0
  0
ATTRIB
  5
1C06
330
1BFE
100
AcDbEntity
  8
title
100
AcDbText
 10
14.41692540011884
 20
-0.1941046376995253
 30
0.0
 40
0.2
  1

  7
L200
100
AcDbAttribute
  2
TITLE4
 70
     0
  0
SEQEND
  5
1C07
330
1BFE
100
AcDbEntity
  8
text_bubbles
 62
    40
  0
LWPOLYLINE
  5
1C09
330
18
100
AcDbEntity
  8
image
100
AcDbPolyline
 90
       16
 70
     1
 43
0.0
 10
15.64193267659291
 20
3.848538010099986
 42
0.0846731520301792
 10
15.63716603511133
 20
3.876483508340031
 42
0.0916544813065032
 10
15.62412138073408
 20
3.899230326978005
 42
0.1036340346640379
 10
15.60387500532377
 20
3.914969036494767
 42
0.1140536254072521
 10
15.58112110870823
 20
3.92022777213701
 42
0.1140536254072534
 10
15.55836721209269
 20
3.914969036494767
 42
0.1036340346640368
 10
15.53812083668238
 20
3.899230326978005
 42
0.0916544813065076
 10
15.52507618230513
 20
3.876483508340031
 42
0.0846731520301862
 10
15.52030954082353
 20
3.848538010099986
 42
0.0846731520301835
 10
15.52507618230513
 20
3.820592511859921
 42
0.091654481306508
 10
15.53812083668238
 20
3.797845693221952
 42
0.103634034664036
 10
15.55836721209269
 20
3.782106983705188
 42
0.1140536254072547
 10
15.58112110870823
 20
3.776848248062953
 42
0.1140536254072534
 10
15.60387500532377
 20
3.782106983705188
 42
0.1036340346640367
 10
15.62412138073408
 20
3.797845693221952
 42
0.0916544813065066
 10
15.63716603511133
 20
3.820592511859921
 42
0.0846731520301858
  0
LINE
  5
1C0D
330
18
100
AcDbEntity
  8
image
100
AcDbLine
 10
13.89166781071063
 20
4.328545942828108
 30
0.0
 11
13.89166781071063
 21
4.128570291885392
 31
0.0
  0
LINE
  5
1C0E
330
18
100
AcDbEntity
  8
image
100
AcDbLine
 10
14.09293792230881
 20
4.328545942828105
 30
0.0
 11
14.08115329814406
 21
4.128570291885392
 31
0.0
  0
LINE
  5
1C0F
330
18
100
AcDbEntity
  8
image
100
AcDbLine
 10
14.31556131803833
 20
4.114240865288012
 30
0.0
 11
13.69078036656169
 21
4.114240865288007
 31
0.0
  0
LWPOLYLINE
  5
1C10
330
18
100
AcDbEntity
  8
image
100
AcDbPolyline
 90
        2
 70
     0
 43
0.0
 10
13.6907803665617
 20
4.114240865288007
 10
14.31556131803833
 20
3.83512941505913
  0
LWPOLYLINE
  5
1C11
330
18
100
AcDbEntity
  8
image
100
AcDbPolyline
 90
        2
 70
     0
 43
0.0
 10
13.6907803665617
 20
3.83512941505913
 10
14.31556131803833
 20
4.114240865288012
  0
LINE
  5
1C12
330
18
100
AcDbEntity
  8
image
100
AcDbLine
 10
13.69078036656169
 20
3.83512941505913
 30
0.0
 11
14.31556131803833
 21
3.83512941505913
 31
0.0
  0
LINE
  5
1C13
330
18
100
AcDbEntity
  8
image
  6
Continuous
100
AcDbLine
 10
13.6907803665617
 20
4.114240865288007
 30
0.0
 11
13.69078036656169
 21
3.83512941505913
 31
0.0
  0
LINE
  5
1C14
330
18
100
AcDbEntity
  8
image
100
AcDbLine
 10
14.08115329814406
 20
4.128570291885392
 30
0.0
 11
13.89166781071063
 21
4.128570291885392
 31
0.0
  0
LWPOLYLINE
  5
1C15
330
18
100
AcDbEntity
  8
image
100
AcDbPolyline
 90
       16
 70
     1
 43
0.0
 10
15.00913286965977
 20
3.837735239213726
 42
0.0846731520301792
 10
15.00436622817818
 20
3.86568073745378
 42
0.0916544813065032
 10
14.99132157380093
 20
3.888427556091746
 42
0.1036340346640379
 10
14.97107519839062
 20
3.904166265608511
 42
0.1140536254072521
 10
14.94832130177508
 20
3.909425001250751
 42
0.1140536254072534
 10
14.92556740515953
 20
3.904166265608511
 42
0.1036340346640368
 10
14.90532102974922
 20
3.888427556091746
 42
0.0916544813065076
 10
14.89227637537198
 20
3.86568073745378
 42
0.0846731520301862
 10
14.88750973389038
 20
3.837735239213726
 42
0.0846731520301835
 10
14.89227637537198
 20
3.809789740973683
 42
0.091654481306508
 10
14.90532102974922
 20
3.787042922335693
 42
0.103634034664036
 10
14.92556740515953
 20
3.771304212818931
 42
0.1140536254072547
 10
14.94832130177508
 20
3.766045477176716
 42
0.1140536254072534
 10
14.97107519839063
 20
3.771304212818931
 42
0.1036340346640367
 10
14.99132157380093
 20
3.787042922335693
 42
0.0916544813065066
 10
15.00436622817818
 20
3.809789740973683
 42
0.0846731520301858
  0
LWPOLYLINE
  5
1C16
330
18
100
AcDbEntity
  8
image
100
AcDbPolyline
 90
       16
 70
     1
 43
0.0
 10
14.82078548971848
 20
3.959551923897893
 42
0.0708989349029243
 10
14.80343858616942
 20
3.943471550668567
 42
0.0824870853856804
 10
14.79337000488375
 20
3.925767813359218
 42
0.1068139206260733
 10
14.7906619386809
 20
3.906507009945767
 42
0.1340008839894652
 10
14.79585921084804
 20
3.891793540051944
 42
0.1340008839894659
 10
14.80781004142877
 20
3.881759822758417
 42
0.106813920626075
 10
14.82679496451705
 20
3.877530772507718
 42
0.0824870853856831
 10
14.84690710488036
 20
3.880740204518323
 42
0.0708989349029243
 10
14.86805552095368
 20
3.891334446516943
 42
0.0708989349029259
 10
14.88540242450274
 20
3.907414819746282
 42
0.0824870853856834
 10
14.89547100578842
 20
3.925118557055619
 42
0.1068139206260768
 10
14.89817907199126
 20
3.944379360469076
 42
0.1340008839894672
 10
14.89298179982412
 20
3.959092830362896
 42
0.1340008839894638
 10
14.88103096924339
 20
3.969126547656434
 42
0.1068139206260751
 10
14.86204604615511
 20
3.973355597907133
 42
0.082487085385683
 10
14.8419339057918
 20
3.970146165896515
 42
0.0708989349029251
  0
LWPOLYLINE
  5
1C17
330
18
100
AcDbEntity
  8
image
100
AcDbPolyline
 90
       16
 70
     1
 43
0.0
 10
14.46035479005126
 20
3.972556461624643
 42
0.1096021439183502
 10
14.43162086441906
 20
3.967657259046028
 42
0.1024204874116924
 10
14.40576401445067
 20
3.95029441819168
 42
0.0936695383243779
 10
14.38819088788487
 20
3.923964979606054
 42
0.0882994724157594
 10
14.38068663729073
 20
3.891267183858713
 42
0.088299472415759
 10
14.38492537919041
 20
3.85798817109058
 42
0.0936695383243767
 10
14.39981264600298
 20
3.830052111948599
 42
0.1024204874116938
 10
14.42382858033265
 20
3.81022082779719
 42
0.1096021439183517
 10
14.45193828407786
 20
3.802508161364648
 42
0.109602143918351
 10
14.48067220971008
 20
3.807407363943263
 42
0.1024204874116929
 10
14.50652905967846
 20
3.824770204797593
 42
0.0936695383243769
 10
14.52410218624427
 20
3.851099643383237
 42
0.0882994724157586
 10
14.5316064368384
 20
3.883797439130576
 42
0.0882994724157589
 10
14.52736769493872
 20
3.917076451898711
 42
0.0936695383243761
 10
14.51248042812614
 20
3.945012511040674
 42
0.102420487411692
 10
14.48846449379648
 20
3.964843795192098
 42
0.1096021439183503
  0
LINE
  5
1C18
330
18
100
AcDbEntity
  8
image
100
AcDbLine
 10
14.31556131803833
 20
3.83512941505913
 30
0.0
 11
14.31556131803833
 21
4.114240865288007
 31
0.0
  0
LWPOLYLINE
  5
1C19
330
18
100
AcDbEntity
  8
image
100
AcDbPolyline
 90
       16
 70
     1
 43
0.0
 10
14.63977918753879
 20
3.907901636162193
 42
0.0708989349029243
 10
14.62243228398972
 20
3.891821262932872
 42
0.0824870853856804
 10
14.61236370270405
 20
3.874117525623525
 42
0.1068139206260733
 10
14.60965563650121
 20
3.85485672221007
 42
0.1340008839894652
 10
14.61485290866836
 20
3.840143252316253
 42
0.1340008839894659
 10
14.62680373924908
 20
3.830109535022726
 42
0.106813920626075
 10
14.64578866233736
 20
3.825880484772026
 42
0.0824870853856831
 10
14.66590080270067
 20
3.829089916782631
 42
0.0708989349029243
 10
14.68704921877398
 20
3.839684158781254
 42
0.0708989349029259
 10
14.70439612232304
 20
3.85576453201059
 42
0.0824870853856834
 10
14.71446470360872
 20
3.87346826931993
 42
0.1068139206260768
 10
14.71717276981157
 20
3.892729072733382
 42
0.1340008839894672
 10
14.71197549764442
 20
3.907442542627202
 42
0.1340008839894638
 10
14.70002466706369
 20
3.917476259920739
 42
0.1068139206260751
 10
14.68103974397542
 20
3.921705310171444
 42
0.082487085385683
 10
14.66092760361211
 20
3.918495878160824
 42
0.0708989349029251
  0
LWPOLYLINE
  5
1C1A
330
18
100
AcDbEntity
  8
image
100
AcDbPolyline
 90
       16
 70
     1
 43
0.0
 10
14.63571692977718
 20
4.019350091430634
 42
0.0846731520301792
 10
14.63095028829558
 20
4.047295589670699
 42
0.0916544813065032
 10
14.61790563391833
 20
4.070042408308665
 42
0.1036340346640379
 10
14.59765925850803
 20
4.085781117825416
 42
0.1140536254072521
 10
14.57490536189248
 20
4.091039853467654
 42
0.1140536254072534
 10
14.55215146527693
 20
4.085781117825416
 42
0.1036340346640368
 10
14.53190508986663
 20
4.070042408308665
 42
0.0916544813065076
 10
14.51886043548938
 20
4.047295589670699
 42
0.0846731520301862
 10
14.51409379400778
 20
4.019350091430634
 42
0.0846731520301835
 10
14.51886043548938
 20
3.991404593190586
 42
0.091654481306508
 10
14.53190508986663
 20
3.968657774552615
 42
0.103634034664036
 10
14.55215146527693
 20
3.952919065035853
 42
0.1140536254072547
 10
14.57490536189248
 20
3.947660329393611
 42
0.1140536254072534
 10
14.59765925850803
 20
3.952919065035853
 42
0.1036340346640367
 10
14.61790563391833
 20
3.968657774552615
 42
0.0916544813065066
 10
14.63095028829558
 20
3.991404593190586
 42
0.0846731520301858
  0
LWPOLYLINE
  5
1C1B
330
18
100
AcDbEntity
  8
image
100
AcDbPolyline
 90
       16
 70
     1
 43
0.0
 10
14.41206394341323
 20
4.093042388510544
 42
0.1833035428166229
 10
14.40718976368434
 20
4.084692414976675
 42
0.1024612315138192
 10
14.40783924837272
 20
4.067794529563759
 42
0.0615734602679465
 10
14.41441041197215
 20
4.050629868277987
 42
0.0478438451985803
 10
14.42743721375642
 20
4.030928814148486
 42
0.0478438451985776
 10
14.44397105780288
 20
4.014062839537231
 42
0.061573460267943
 10
14.45937761723748
 20
4.004040678368408
 42
0.1024612315138217
 10
14.47576422533186
 20
3.999864623178499
 42
0.1833035428166229
 10
14.48495020364437
 20
4.00288082749657
 42
0.1833035428166234
 10
14.48982438337326
 20
4.011230801030476
 42
0.102461231513819
 10
14.48917489868488
 20
4.028128686443373
 42
0.0615734602679484
 10
14.48260373508544
 20
4.045293347729132
 42
0.0478438451985819
 10
14.46957693330118
 20
4.064994401858646
 42
0.0478438451985799
 10
14.45304308925473
 20
4.081860376469901
 42
0.0615734602679431
 10
14.43763652982011
 20
4.091882537638723
 42
0.1024612315138189
 10
14.42124992172573
 20
4.096058592828629
 42
0.183303542816622
  0
LWPOLYLINE
  5
1C1C
330
18
100
AcDbEntity
  8
image
100
AcDbPolyline
 90
       16
 70
     1
 43
0.0
 10
14.67495199566011
 20
4.08532075298644
 42
0.1833035428166229
 10
14.67007781593122
 20
4.076970779452572
 42
0.1024612315138192
 10
14.67072730061959
 20
4.060072894039649
 42
0.0615734602679465
 10
14.67729846421904
 20
4.042908232753891
 42
0.0478438451985803
 10
14.69032526600331
 20
4.023207178624383
 42
0.0478438451985776
 10
14.70685911004976
 20
4.006341204013121
 42
0.061573460267943
 10
14.72226566948437
 20
3.996319042844296
 42
0.1024612315138217
 10
14.73865227757875
 20
3.992142987654391
 42
0.1833035428166229
 10
14.74783825589125
 20
3.995159191972454
 42
0.1833035428166234
 10
14.75271243562014
 20
4.003509165506363
 42
0.102461231513819
 10
14.75206295093176
 20
4.020407050919259
 42
0.0615734602679484
 10
14.74549178733232
 20
4.037571712205026
 42
0.0478438451985819
 10
14.73246498554807
 20
4.057272766334533
 42
0.0478438451985799
 10
14.7159311415016
 20
4.074138740945805
 42
0.0615734602679431
 10
14.700524582067
 20
4.084160902114614
 42
0.1024612315138189
 10
14.68413797397262
 20
4.088336957304523
 42
0.183303542816622
  0
LWPOLYLINE
  5
1C1D
330
18
100
AcDbEntity
  8
image
100
AcDbPolyline
 90
       16
 70
     1
 43
0.0
 10
14.78965534230259
 20
4.010587453284305
 42
0.1847277609904711
 10
14.79980688106499
 20
4.00483086702809
 42
0.1021404146396031
 10
14.82040053170531
 20
4.00592461606705
 42
0.0610262113808276
 10
14.84124209086855
 20
4.014213670381761
 42
0.0473278026433084
 10
14.8651574431832
 20
4.030400915471165
 42
0.0473278026433059
 10
14.88560224953717
 20
4.050796524632611
 42
0.0610262113808241
 10
14.89770808500246
 20
4.069678467262406
 42
0.1021404146396033
 10
14.90270305097544
 20
4.089687091617541
 42
0.1847277609904728
 10
14.89898473264931
 20
4.100749014298282
 42
0.1847277609904705
 10
14.88883319388693
 20
4.106505600554489
 42
0.1021404146396031
 10
14.8682395432466
 20
4.105411851515532
 42
0.0610262113808276
 10
14.84739798408336
 20
4.097122797200841
 42
0.0473278026433085
 10
14.82348263176871
 20
4.080935552111434
 42
0.0473278026433093
 10
14.80303782541474
 20
4.060539942949974
 42
0.0610262113808288
 10
14.79093198994945
 20
4.041658000320195
 42
0.1021404146396033
 10
14.78593702397646
 20
4.021649375965063
 42
0.1847277609904759
  0
LWPOLYLINE
  5
1C1E
330
18
100
AcDbEntity
  8
image
100
AcDbPolyline
 90
       16
 70
     1
 43
0.0
 10
15.26809908264979
 20
3.898800047121596
 42
0.1615511064879552
 10
15.25638783333741
 20
3.883217428358823
 42
0.1061532262602322
 10
15.25310130432581
 20
3.854165959272359
 42
0.0703450477663066
 10
15.26053692180122
 20
3.823692183060879
 42
0.0566056099584688
 10
15.27894935368445
 20
3.789410011068436
 42
0.0566056099584683
 10
15.30458085390735
 20
3.760130134690649
 42
0.0703450477663069
 10
15.33050179397234
 20
3.742465358723368
 42
0.1061532262602343
 10
15.35885681324403
 20
3.735339208912396
 42
0.1615511064879549
 10
15.37755990484224
 20
3.740831542899967
 42
0.1615511064879543
 10
15.38927115415463
 20
3.756414161662749
 42
0.106153226260232
 10
15.39255768316623
 20
3.78546563074921
 42
0.0703450477663075
 10
15.38512206569081
 20
3.815939406960687
 42
0.0566056099584687
 10
15.36670963380758
 20
3.850221578953136
 42
0.05660560995847
 10
15.34107813358469
 20
3.87950145533092
 42
0.0703450477663058
 10
15.31515719351969
 20
3.89716623129822
 42
0.1061532262602316
 10
15.28680217424801
 20
3.90429238110919
 42
0.1615511064879538
  0
LWPOLYLINE
  5
1C1F
330
18
100
AcDbEntity
  8
image
100
AcDbPolyline
 90
       16
 70
     1
 43
0.0
 10
15.37573483733797
 20
4.012231324707877
 42
0.1615511064879552
 10
15.36402358802559
 20
3.996648705945117
 42
0.1061532262602322
 10
15.36073705901398
 20
3.96759723685865
 42
0.0703450477663066
 10
15.3681726764894
 20
3.93712346064717
 42
0.0566056099584688
 10
15.38658510837263
 20
3.902841288654735
 42
0.0566056099584683
 10
15.41221660859553
 20
3.873561412276937
 42
0.0703450477663069
 10
15.43813754866052
 20
3.855896636309649
 42
0.1061532262602343
 10
15.4664925679322
 20
3.848770486498678
 42
0.1615511064879549
 10
15.48519565953042
 20
3.854262820486266
 42
0.1615511064879543
 10
15.4969069088428
 20
3.869845439249032
 42
0.106153226260232
 10
15.50019343785441
 20
3.89889690833549
 42
0.0703450477663075
 10
15.49275782037899
 20
3.929370684546968
 42
0.0566056099584687
 10
15.47434538849575
 20
3.963652856539432
 42
0.05660560995847
 10
15.44871388827285
 20
3.992932732917223
 42
0.0703450477663058
 10
15.42279294820787
 20
4.010597508884497
 42
0.1061532262602316
 10
15.39443792893618
 20
4.017723658695486
 42
0.1615511064879538
  0
LWPOLYLINE
  5
1C20
330
18
100
AcDbEntity
  8
image
100
AcDbPolyline
 90
       16
 70
     1
 43
0.0
 10
15.0751570981992
 20
3.873934406747979
 42
0.0708989349029243
 10
15.05781019465014
 20
3.857854033518652
 42
0.0824870853856804
 10
15.04774161336446
 20
3.840150296209307
 42
0.1068139206260733
 10
15.04503354716161
 20
3.820889492795847
 42
0.1340008839894652
 10
15.05023081932876
 20
3.806176022902031
 42
0.1340008839894659
 10
15.06218164990949
 20
3.796142305608506
 42
0.106813920626075
 10
15.08116657299776
 20
3.791913255357805
 42
0.0824870853856831
 10
15.10127871336108
 20
3.795122687368408
 42
0.0708989349029243
 10
15.12242712943439
 20
3.805716929367031
 42
0.0708989349029259
 10
15.13977403298346
 20
3.821797302596371
 42
0.0824870853856834
 10
15.14984261426913
 20
3.839501039905711
 42
0.1068139206260768
 10
15.15255068047197
 20
3.858761843319179
 42
0.1340008839894672
 10
15.14735340830482
 20
3.873475313212982
 42
0.1340008839894638
 10
15.13540257772411
 20
3.88350903050652
 42
0.1068139206260751
 10
15.11641765463582
 20
3.887738080757237
 42
0.082487085385683
 10
15.09630551427251
 20
3.884528648746604
 42
0.0708989349029251
  0
LWPOLYLINE
  5
1C21
330
18
100
AcDbEntity
  8
image
100
AcDbPolyline
 90
       16
 70
     1
 43
0.0
 10
15.28168480730985
 20
4.106169405794496
 42
0.1096021439183502
 10
15.25295088167765
 20
4.10127020321588
 42
0.1024204874116924
 10
15.22709403170926
 20
4.083907362361551
 42
0.0936695383243779
 10
15.20952090514345
 20
4.057577923775903
 42
0.0882994724157594
 10
15.20201665454932
 20
4.02488012802857
 42
0.088299472415759
 10
15.206255396449
 20
3.991601115260429
 42
0.0936695383243767
 10
15.22114266326157
 20
3.96366505611845
 42
0.1024204874116938
 10
15.24515859759124
 20
3.943833771967058
 42
0.1096021439183517
 10
15.27326830133645
 20
3.9361211055345
 42
0.109602143918351
 10
15.30200222696866
 20
3.941020308113115
 42
0.1024204874116929
 10
15.32785907693704
 20
3.95838314896745
 42
0.0936695383243769
 10
15.34543220350285
 20
3.984712587553095
 42
0.0882994724157586
 10
15.35293645409698
 20
4.017410383300422
 42
0.0882994724157589
 10
15.34869771219731
 20
4.050689396068563
 42
0.0936695383243761
 10
15.33381044538474
 20
4.078625455210545
 42
0.102420487411692
 10
15.30979451105507
 20
4.098456739361942
 42
0.1096021439183503
  0
LWPOLYLINE
  5
1C22
330
18
100
AcDbEntity
  8
image
100
AcDbPolyline
 90
       16
 70
     1
 43
0.0
 10
15.06309507038341
 20
4.001124424554589
 42
0.0846731520301792
 10
15.05832842890181
 20
4.029069922794656
 42
0.0916544813065032
 10
15.04528377452456
 20
4.051816741432609
 42
0.1036340346640379
 10
15.02503739911425
 20
4.067555450949389
 42
0.1140536254072521
 10
15.00228350249871
 20
4.072814186591605
 42
0.1140536254072534
 10
14.97952960588317
 20
4.067555450949389
 42
0.1036340346640368
 10
14.95928323047286
 20
4.051816741432609
 42
0.0916544813065076
 10
14.94623857609562
 20
4.029069922794656
 42
0.0846731520301862
 10
14.94147193461401
 20
4.001124424554589
 42
0.0846731520301835
 10
14.94623857609562
 20
3.973178926314545
 42
0.091654481306508
 10
14.95928323047286
 20
3.950432107676572
 42
0.103634034664036
 10
14.97952960588317
 20
3.93469339815981
 42
0.1140536254072547
 10
15.00228350249871
 20
3.929434662517567
 42
0.1140536254072534
 10
15.02503739911425
 20
3.93469339815981
 42
0.1036340346640367
 10
15.04528377452456
 20
3.950432107676572
 42
0.0916544813065066
 10
15.05832842890181
 20
3.973178926314545
 42
0.0846731520301858
  0
LWPOLYLINE
  5
1C23
330
18
100
AcDbEntity
  8
image
100
AcDbPolyline
 90
       16
 70
     1
 43
0.0
 10
15.61088927208404
 20
4.014188727831527
 42
0.0846731520301792
 10
15.60612263060243
 20
4.042134226071591
 42
0.0916544813065032
 10
15.59307797622519
 20
4.064881044709562
 42
0.1036340346640379
 10
15.57283160081488
 20
4.080619754226306
 42
0.1140536254072521
 10
15.55007770419934
 20
4.085878489868546
 42
0.1140536254072534
 10
15.52732380758379
 20
4.080619754226306
 42
0.1036340346640368
 10
15.50707743217349
 20
4.064881044709562
 42
0.0916544813065076
 10
15.49403277779624
 20
4.042134226071591
 42
0.0846731520301862
 10
15.48926613631464
 20
4.014188727831527
 42
0.0846731520301835
 10
15.49403277779624
 20
3.986243229591481
 42
0.091654481306508
 10
15.50707743217349
 20
3.96349641095351
 42
0.103634034664036
 10
15.52732380758379
 20
3.947757701436751
 42
0.1140536254072547
 10
15.55007770419934
 20
3.94249896579451
 42
0.1140536254072534
 10
15.57283160081488
 20
3.947757701436751
 42
0.1036340346640367
 10
15.59307797622519
 20
3.96349641095351
 42
0.0916544813065066
 10
15.60612263060243
 20
3.986243229591481
 42
0.0846731520301858
  0
LINE
  5
1C27
330
18
100
AcDbEntity
  8
image
100
AcDbLine
 10
13.89166781071063
 20
4.53537862942811
 30
0.0
 11
13.89166781071063
 21
4.328545942828108
 31
0.0
  0
INSERT
  5
1CF2
330
18
100
AcDbEntity
  8
text_bubbles
100
AcDbBlockReference
 66
     1
  2
bubble
 10
17.18856646865555
 20
5.241503532799635
 30
0.0
  0
ATTRIB
  5
1CF3
330
1CF2
100
AcDbEntity
  8
text_bubbles
100
AcDbText
 10
17.13797123056032
 20
5.179003532799635
 30
0.0
 40
0.125
  1
1
  7
ROMANS
 72
     4
 11
17.18856646865555
 21
5.241503532799635
 31
0.0
100
AcDbAttribute
  2
XX
 70
     0
  0
SEQEND
  5
1CF4
330
1CF2
100
AcDbEntity
  8
text_bubbles
  0
LWPOLYLINE
  5
1CF8
330
18
100
AcDbEntity
  8
image
100
AcDbPolyline
 90
       16
 70
     1
 43
0.0
 10
17.27676666242632
 20
4.118464998822137
 42
0.0708989349029243
 10
17.25941975887726
 20
4.10238462559281
 42
0.0824870853856804
 10
17.24935117759158
 20
4.084680888283462
 42
0.1068139206260733
 10
17.24664311138873
 20
4.065420084870005
 42
0.1340008839894652
 10
17.25184038355588
 20
4.050706614976183
 42
0.1340008839894659
 10
17.26379121413661
 20
4.040672897682661
 42
0.106813920626075
 10
17.28277613722488
 20
4.036443847431956
 42
0.0824870853856831
 10
17.30288827758819
 20
4.039653279442564
 42
0.0708989349029243
 10
17.32403669366152
 20
4.050247521441185
 42
0.0708989349029259
 10
17.34138359721059
 20
4.066327894670526
 42
0.0824870853856834
 10
17.35145217849625
 20
4.084031631979863
 42
0.1068139206260768
 10
17.3541602446991
 20
4.103292435393322
 42
0.1340008839894672
 10
17.34896297253194
 20
4.118005905287137
 42
0.1340008839894638
 10
17.33701214195123
 20
4.12803962258068
 42
0.1068139206260751
 10
17.31802721886294
 20
4.132268672831379
 42
0.082487085385683
 10
17.29791507849965
 20
4.129059240820758
 42
0.0708989349029251
  0
LWPOLYLINE
  5
1CF9
330
18
100
AcDbEntity
  8
image
100
AcDbPolyline
 90
       16
 70
     1
 43
0.0
 10
16.92565655800618
 20
4.131810773109147
 42
0.1833035428166229
 10
16.92078237827729
 20
4.123460799575257
 42
0.1024612315138192
 10
16.92143186296567
 20
4.106562914162356
 42
0.0615734602679465
 10
16.92800302656511
 20
4.089398252876581
 42
0.0478438451985803
 10
16.94102982834936
 20
4.069697198747084
 42
0.0478438451985776
 10
16.95756367239583
 20
4.052831224135812
 42
0.061573460267943
 10
16.97297023183043
 20
4.042809062967005
 42
0.1024612315138217
 10
16.98935683992482
 20
4.038633007777081
 42
0.1833035428166229
 10
16.99854281823732
 20
4.041649212095166
 42
0.1833035428166234
 10
17.00341699796621
 20
4.049999185629054
 42
0.102461231513819
 10
17.00276751327784
 20
4.066897071041952
 42
0.0615734602679484
 10
16.99619634967838
 20
4.084061732327727
 42
0.0478438451985819
 10
16.98316954789413
 20
4.103762786457227
 42
0.0478438451985799
 10
16.96663570384768
 20
4.120628761068482
 42
0.0615734602679431
 10
16.95122914441306
 20
4.130650922237305
 42
0.1024612315138189
 10
16.93484253631867
 20
4.134826977427224
 42
0.183303542816622
  0
LINE
  5
1CFA
330
18
100
AcDbEntity
  8
image
100
AcDbLine
 10
17.82704607284015
 20
4.328545942828105
 30
0.0
 11
17.8388306970046
 21
4.128570291885392
 31
0.0
  0
LINE
  5
1CFB
330
18
100
AcDbEntity
  8
image
100
AcDbLine
 10
18.02831618443833
 20
4.328545942828105
 30
0.0
 11
18.02831618443805
 21
4.128570291885392
 31
0.0
  0
LWPOLYLINE
  5
1CFC
330
18
100
AcDbEntity
  8
image
100
AcDbPolyline
 90
       16
 70
     1
 43
0.0
 10
16.80677344043068
 20
4.123184132137047
 42
0.0708989349029243
 10
16.7894265368816
 20
4.107103758907721
 42
0.0824870853856804
 10
16.77935795559593
 20
4.089400021598372
 42
0.1068139206260733
 10
16.7766498893931
 20
4.07013921818492
 42
0.1340008839894652
 10
16.78184716156023
 20
4.055425748291098
 42
0.1340008839894659
 10
16.79379799214096
 20
4.045392030997573
 42
0.106813920626075
 10
16.81278291522923
 20
4.041162980746872
 42
0.0824870853856831
 10
16.83289505559255
 20
4.044372412757474
 42
0.0708989349029243
 10
16.85404347166587
 20
4.054966654756102
 42
0.0708989349029259
 10
16.87139037521493
 20
4.071047027985438
 42
0.0824870853856834
 10
16.88145895650061
 20
4.088750765294776
 42
0.1068139206260768
 10
16.88416702270345
 20
4.108011568708235
 42
0.1340008839894672
 10
16.87896975053631
 20
4.122725038602053
 42
0.1340008839894638
 10
16.86701891995557
 20
4.132758755895593
 42
0.1068139206260751
 10
16.84803399686731
 20
4.136987806146292
 42
0.082487085385683
 10
16.82792185650399
 20
4.133778374135672
 42
0.0708989349029251
  0
LWPOLYLINE
  5
1CFD
330
18
100
AcDbEntity
  8
image
100
AcDbPolyline
 90
       16
 70
     1
 43
0.0
 10
17.09679474444414
 20
4.109935982532663
 42
0.0708989349029243
 10
17.07944784089506
 20
4.093855609303337
 42
0.0824870853856804
 10
17.06937925960939
 20
4.076151871993989
 42
0.1068139206260733
 10
17.06667119340655
 20
4.056891068580535
 42
0.1340008839894652
 10
17.07186846557368
 20
4.042177598686715
 42
0.1340008839894659
 10
17.08381929615441
 20
4.03214388139319
 42
0.106813920626075
 10
17.1028042192427
 20
4.027914831142489
 42
0.0824870853856831
 10
17.12291635960601
 20
4.03112426315309
 42
0.0708989349029243
 10
17.14406477567932
 20
4.041718505151715
 42
0.0708989349029259
 10
17.1614116792284
 20
4.057798878381055
 42
0.0824870853856834
 10
17.17148026051406
 20
4.075502615690393
 42
0.1068139206260768
 10
17.17418832671691
 20
4.094763419103852
 42
0.1340008839894672
 10
17.16899105454976
 20
4.109476888997669
 42
0.1340008839894638
 10
17.15704022396903
 20
4.119510606291207
 42
0.1068139206260751
 10
17.13805530088076
 20
4.123739656541908
 42
0.082487085385683
 10
17.11794316051744
 20
4.120530224531288
 42
0.0708989349029251
  0
LWPOLYLINE
  5
1CFE
330
18
100
AcDbEntity
  8
image
100
AcDbPolyline
 90
       16
 70
     1
 43
0.0
 10
17.11286503077986
 20
3.887331411063581
 42
0.0846731520301792
 10
17.10809838929826
 20
3.915276909303627
 42
0.0916544813065032
 10
17.09505373492101
 20
3.938023727941601
 42
0.1036340346640379
 10
17.07480735951072
 20
3.95376243745836
 42
0.1140536254072521
 10
17.05205346289515
 20
3.959021173100597
 42
0.1140536254072534
 10
17.02929956627961
 20
3.95376243745836
 42
0.1036340346640368
 10
17.00905319086931
 20
3.938023727941601
 42
0.0916544813065076
 10
16.99600853649207
 20
3.915276909303627
 42
0.0846731520301862
 10
16.99124189501047
 20
3.887331411063581
 42
0.0846731520301835
 10
16.99600853649207
 20
3.859385912823516
 42
0.091654481306508
 10
17.00905319086931
 20
3.836639094185545
 42
0.103634034664036
 10
17.02929956627961
 20
3.820900384668797
 42
0.1140536254072547
 10
17.05205346289515
 20
3.815641649026559
 42
0.1140536254072534
 10
17.07480735951072
 20
3.820900384668797
 42
0.1036340346640367
 10
17.09505373492101
 20
3.836639094185545
 42
0.0916544813065066
 10
17.10809838929826
 20
3.859385912823516
 42
0.0846731520301858
  0
LWPOLYLINE
  5
1CFF
330
18
100
AcDbEntity
  8
image
100
AcDbPolyline
 90
       16
 70
     1
 43
0.0
 10
16.37551091644162
 20
3.862159338228575
 42
0.0708989349029243
 10
16.35816401289255
 20
3.846078964999252
 42
0.0824870853856804
 10
16.34809543160687
 20
3.828375227689901
 42
0.1068139206260733
 10
16.34538736540403
 20
3.809114424276449
 42
0.1340008839894652
 10
16.35058463757118
 20
3.794400954382632
 42
0.1340008839894659
 10
16.3625354681519
 20
3.784367237089105
 42
0.106813920626075
 10
16.38152039124018
 20
3.780138186838406
 42
0.0824870853856831
 10
16.4016325316035
 20
3.783347618849011
 42
0.0708989349029243
 10
16.42278094767681
 20
3.79394186084763
 42
0.0708989349029259
 10
16.44012785122588
 20
3.81002223407697
 42
0.0824870853856834
 10
16.45019643251156
 20
3.827725971386312
 42
0.1068139206260768
 10
16.4529044987144
 20
3.846986774799775
 42
0.1340008839894672
 10
16.44770722654724
 20
3.861700244693581
 42
0.1340008839894638
 10
16.43575639596653
 20
3.87173396198712
 42
0.1068139206260751
 10
16.41677147287824
 20
3.875963012237837
 42
0.082487085385683
 10
16.39665933251493
 20
3.872753580227203
 42
0.0708989349029251
  0
LWPOLYLINE
  5
1D00
330
18
100
AcDbEntity
  8
image
100
AcDbPolyline
 90
       16
 70
     1
 43
0.0
 10
16.43855681137067
 20
4.101060503632858
 42
0.1096021439183502
 10
16.40982288573847
 20
4.096161301054259
 42
0.1024204874116924
 10
16.38396603577008
 20
4.078798460199914
 42
0.0936695383243779
 10
16.36639290920428
 20
4.052469021614267
 42
0.0882994724157594
 10
16.35888865861014
 20
4.019771225866933
 42
0.088299472415759
 10
16.36312740050982
 20
3.986492213098799
 42
0.0936695383243767
 10
16.3780146673224
 20
3.958556153956832
 42
0.1024204874116938
 10
16.40203060165206
 20
3.938724869805421
 42
0.1096021439183517
 10
16.43014030539728
 20
3.931012203372866
 42
0.109602143918351
 10
16.45887423102948
 20
3.935911405951484
 42
0.1024204874116929
 10
16.48473108099787
 20
3.953274246805826
 42
0.0936695383243769
 10
16.50230420756367
 20
3.979603685391458
 42
0.0882994724157586
 10
16.50980845815781
 20
4.012301481138797
 42
0.0882994724157589
 10
16.50556971625813
 20
4.045580493906944
 42
0.0936695383243761
 10
16.49068244944555
 20
4.073516553048908
 42
0.102420487411692
 10
16.46666651511589
 20
4.093347837200322
 42
0.1096021439183503
  0
LWPOLYLINE
  5
1D01
330
18
100
AcDbEntity
  8
image
100
AcDbPolyline
 90
       16
 70
     1
 43
0.0
 10
15.6752438047359
 20
3.916743732767717
 42
0.1833035428166229
 10
15.67036962500701
 20
3.908393759233836
 42
0.1024612315138192
 10
15.67101910969539
 20
3.891495873820915
 42
0.0615734602679465
 10
15.67759027329484
 20
3.874331212535155
 42
0.0478438451985803
 10
15.69061707507909
 20
3.854630158405647
 42
0.0478438451985776
 10
15.70715091912556
 20
3.837764183794388
 42
0.061573460267943
 10
15.72255747856016
 20
3.82774202262556
 42
0.1024612315138217
 10
15.73894408665454
 20
3.823565967435657
 42
0.1833035428166229
 10
15.74813006496704
 20
3.826582171753742
 42
0.1833035428166234
 10
15.75300424469594
 20
3.834932145287627
 42
0.102461231513819
 10
15.75235476000755
 20
3.851830030700526
 42
0.0615734602679484
 10
15.74578359640812
 20
3.868994691986303
 42
0.0478438451985819
 10
15.73275679462386
 20
3.888695746115816
 42
0.0478438451985799
 10
15.7162229505774
 20
3.905561720727072
 42
0.0615734602679431
 10
15.70081639114279
 20
3.915583881895881
 42
0.1024612315138189
 10
15.68442978304841
 20
3.9197599370858
 42
0.183303542816622
  0
LWPOLYLINE
  5
1D02
330
18
100
AcDbEntity
  8
image
100
AcDbPolyline
 90
       16
 70
     1
 43
0.0
 10
16.00295923208735
 20
3.924340955136374
 42
0.1615511064879552
 10
15.99124798277496
 20
3.9087583363736
 42
0.1061532262602322
 10
15.98796145376335
 20
3.879706867287134
 42
0.0703450477663066
 10
15.99539707123877
 20
3.849233091075673
 42
0.0566056099584688
 10
16.013809503122
 20
3.814950919083212
 42
0.0566056099584683
 10
16.0394410033449
 20
3.785671042705418
 42
0.0703450477663069
 10
16.06536194340989
 20
3.768006266738129
 42
0.1061532262602343
 10
16.09371696268157
 20
3.760880116927159
 42
0.1615511064879549
 10
16.11242005427979
 20
3.766372450914747
 42
0.1615511064879543
 10
16.12413130359218
 20
3.78195506967751
 42
0.106153226260232
 10
16.12741783260378
 20
3.81100653876399
 42
0.0703450477663075
 10
16.11998221512836
 20
3.841480314975449
 42
0.0566056099584687
 10
16.10156978324513
 20
3.875762486967916
 42
0.05660560995847
 10
16.07593828302223
 20
3.905042363345687
 42
0.0703450477663058
 10
16.05001734295724
 20
3.922707139312993
 42
0.1061532262602316
 10
16.02166232368556
 20
3.929833289123967
 42
0.1615511064879538
  0
LWPOLYLINE
  5
1D03
330
18
100
AcDbEntity
  8
image
100
AcDbPolyline
 90
       16
 70
     1
 43
0.0
 10
16.20438013489975
 20
3.902969010312727
 42
0.0708989349029243
 10
16.18703323135067
 20
3.886888637083385
 42
0.0824870853856804
 10
16.176964650065
 20
3.86918489977405
 42
0.1068139206260733
 10
16.17425658386216
 20
3.84992409636059
 42
0.1340008839894652
 10
16.17945385602931
 20
3.835210626466778
 42
0.1340008839894659
 10
16.19140468661003
 20
3.825176909173233
 42
0.106813920626075
 10
16.21038960969831
 20
3.820947858922534
 42
0.0824870853856831
 10
16.23050175006162
 20
3.824157290933154
 42
0.0708989349029243
 10
16.25165016613493
 20
3.834751532931774
 42
0.0708989349029259
 10
16.26899706968401
 20
3.850831906161118
 42
0.0824870853856834
 10
16.27906565096967
 20
3.868535643470451
 42
0.1068139206260768
 10
16.28177371717252
 20
3.887796446883911
 42
0.1340008839894672
 10
16.27657644500537
 20
3.902509916777731
 42
0.1340008839894638
 10
16.26462561442466
 20
3.912543634071252
 42
0.1068139206260751
 10
16.24564069133638
 20
3.916772684321967
 42
0.082487085385683
 10
16.22552855097306
 20
3.91356325231135
 42
0.0708989349029251
  0
LWPOLYLINE
  5
1D04
330
18
100
AcDbEntity
  8
image
100
AcDbPolyline
 90
       16
 70
     1
 43
0.0
 10
15.815917003161
 20
3.878053829899177
 42
0.0708989349029243
 10
15.79857009961193
 20
3.861973456669853
 42
0.0824870853856804
 10
15.78850151832626
 20
3.844269719360502
 42
0.1068139206260733
 10
15.78579345212341
 20
3.825008915947051
 42
0.1340008839894652
 10
15.79099072429057
 20
3.810295446053229
 42
0.1340008839894659
 10
15.80294155487129
 20
3.800261728759704
 42
0.106813920626075
 10
15.82192647795956
 20
3.796032678509003
 42
0.0824870853856831
 10
15.84203861832288
 20
3.799242110519607
 42
0.0708989349029243
 10
15.86318703439619
 20
3.809836352518229
 42
0.0708989349029259
 10
15.88053393794526
 20
3.825916725747566
 42
0.0824870853856834
 10
15.89060251923094
 20
3.843620463056906
 42
0.1068139206260768
 10
15.89331058543378
 20
3.862881266470361
 42
0.1340008839894672
 10
15.88811331326663
 20
3.877594736364183
 42
0.1340008839894638
 10
15.87616248268591
 20
3.887628453657718
 42
0.1068139206260751
 10
15.85717755959763
 20
3.891857503908419
 42
0.082487085385683
 10
15.83706541923432
 20
3.888648071897802
 42
0.0708989349029251
  0
LWPOLYLINE
  5
1D05
330
18
100
AcDbEntity
  8
image
100
AcDbPolyline
 90
       16
 70
     1
 43
0.0
 10
15.93778793064846
 20
4.062082129120893
 42
0.1833035428166229
 10
15.93291375091956
 20
4.053732155587
 42
0.1024612315138192
 10
15.93356323560794
 20
4.036834270174089
 42
0.0615734602679465
 10
15.94013439920739
 20
4.019669608888325
 42
0.0478438451985803
 10
15.95316120099165
 20
3.999968554758813
 42
0.0478438451985776
 10
15.96969504503811
 20
3.983102580147559
 42
0.061573460267943
 10
15.98510160447271
 20
3.973080418978751
 42
0.1024612315138217
 10
16.00148821256709
 20
3.968904363788827
 42
0.1833035428166229
 10
16.0106741908796
 20
3.971920568106908
 42
0.1833035428166234
 10
16.01554837060849
 20
3.9802705416408
 42
0.102461231513819
 10
16.0148988859201
 20
3.997168427053701
 42
0.0615734602679484
 10
16.00832772232067
 20
4.014333088339475
 42
0.0478438451985819
 10
15.99530092053641
 20
4.034034142468984
 42
0.0478438451985799
 10
15.97876707648995
 20
4.050900117080239
 42
0.0615734602679431
 10
15.96336051705535
 20
4.060922278249051
 42
0.1024612315138189
 10
15.94697390896096
 20
4.065098333438967
 42
0.183303542816622
  0
LWPOLYLINE
  5
1D06
330
18
100
AcDbEntity
  8
image
100
AcDbPolyline
 90
       16
 70
     1
 43
0.0
 10
15.6554670976868
 20
4.116378468926853
 42
0.1615511064879552
 10
15.64375584837442
 20
4.100795850164088
 42
0.1061532262602322
 10
15.64046931936281
 20
4.071744381077624
 42
0.0703450477663066
 10
15.64790493683823
 20
4.041270604866149
 42
0.0566056099584688
 10
15.66631736872146
 20
4.006988432873701
 42
0.0566056099584683
 10
15.69194886894436
 20
3.977708556495914
 42
0.0703450477663069
 10
15.71786980900935
 20
3.960043780528604
 42
0.1061532262602343
 10
15.74622482828103
 20
3.952917630717636
 42
0.1615511064879549
 10
15.76492791987925
 20
3.95840996470524
 42
0.1615511064879543
 10
15.77663916919163
 20
3.973992583468003
 42
0.106153226260232
 10
15.77992569820323
 20
4.00304405255447
 42
0.0703450477663075
 10
15.77249008072781
 20
4.033517828765925
 42
0.0566056099584687
 10
15.75407764884459
 20
4.06780000075839
 42
0.05660560995847
 10
15.72844614862169
 20
4.09707987713618
 42
0.0703450477663058
 10
15.7025252085567
 20
4.11474465310347
 42
0.1061532262602316
 10
15.67417018928501
 20
4.121870802914443
 42
0.1615511064879538
  0
LWPOLYLINE
  5
1D07
330
18
100
AcDbEntity
  8
image
100
AcDbPolyline
 90
       16
 70
     1
 43
0.0
 10
15.84078839380406
 20
3.997712216935153
 42
0.1833035428166229
 10
15.83591421407517
 20
3.989362243401263
 42
0.1024612315138192
 10
15.83656369876355
 20
3.972464357988352
 42
0.0615734602679465
 10
15.84313486236299
 20
3.955299696702587
 42
0.0478438451985803
 10
15.85616166414726
 20
3.935598642573074
 42
0.0478438451985776
 10
15.8726955081937
 20
3.918732667961821
 42
0.061573460267943
 10
15.88810206762832
 20
3.908710506792998
 42
0.1024612315138217
 10
15.90448867572269
 20
3.90453445160309
 42
0.1833035428166229
 10
15.9136746540352
 20
3.907550655921173
 42
0.1833035428166234
 10
15.9185488337641
 20
3.915900629455061
 42
0.102461231513819
 10
15.91789934907572
 20
3.932798514867958
 42
0.0615734602679484
 10
15.91132818547627
 20
3.949963176153733
 42
0.0478438451985819
 10
15.89830138369201
 20
3.969664230283246
 42
0.0478438451985799
 10
15.88176753964556
 20
3.986530204894502
 42
0.0615734602679431
 10
15.86636098021095
 20
3.996552366063308
 42
0.1024612315138189
 10
15.84997437211656
 20
4.000728421253233
 42
0.183303542816622
  0
LWPOLYLINE
  5
1D08
330
18
100
AcDbEntity
  8
image
100
AcDbPolyline
 90
       16
 70
     1
 43
0.0
 10
16.07458360849381
 20
4.056304261114133
 42
0.1833035428166229
 10
16.06970942876492
 20
4.047954287580241
 42
0.1024612315138192
 10
16.07035891345329
 20
4.031056402167345
 42
0.0615734602679465
 10
16.07693007705274
 20
4.013891740881578
 42
0.0478438451985803
 10
16.089956878837
 20
3.99419068675207
 42
0.0478438451985776
 10
16.10649072288345
 20
3.977324712140801
 42
0.061573460267943
 10
16.12189728231806
 20
3.967302550971989
 42
0.1024612315138217
 10
16.13828389041244
 20
3.96312649578207
 42
0.1833035428166229
 10
16.14746986872495
 20
3.966142700100164
 42
0.1833035428166234
 10
16.15234404845383
 20
3.97449267363404
 42
0.102461231513819
 10
16.15169456376547
 20
3.991390559046952
 42
0.0615734602679484
 10
16.14512340016602
 20
4.008555220332716
 42
0.0478438451985819
 10
16.13209659838176
 20
4.028256274462224
 42
0.0478438451985799
 10
16.1155627543353
 20
4.045122249073482
 42
0.0615734602679431
 10
16.1001561949007
 20
4.055144410242305
 42
0.1024612315138189
 10
16.08376958680631
 20
4.059320465432213
 42
0.183303542816622
  0
LWPOLYLINE
  5
1D09
330
18
100
AcDbEntity
  8
image
100
AcDbPolyline
 90
       16
 70
     1
 43
0.0
 10
16.3380191873675
 20
4.030994510127285
 42
0.0846731520301792
 10
16.33325254588591
 20
4.058940008367333
 42
0.0916544813065032
 10
16.32020789150866
 20
4.08168682700532
 42
0.1036340346640379
 10
16.29996151609836
 20
4.097425536522066
 42
0.1140536254072521
 10
16.27720761948281
 20
4.102684272164303
 42
0.1140536254072534
 10
16.25445372286726
 20
4.097425536522066
 42
0.1036340346640368
 10
16.23420734745696
 20
4.08168682700532
 42
0.0916544813065076
 10
16.22116269307971
 20
4.058940008367333
 42
0.0846731520301862
 10
16.21639605159812
 20
4.030994510127285
 42
0.0846731520301835
 10
16.22116269307971
 20
4.003049011887222
 42
0.091654481306508
 10
16.23420734745696
 20
3.980302193249251
 42
0.103634034664036
 10
16.25445372286726
 20
3.964563483732505
 42
0.1140536254072547
 10
16.27720761948281
 20
3.959304748090265
 42
0.1140536254072534
 10
16.29996151609836
 20
3.964563483732505
 42
0.1036340346640367
 10
16.32020789150866
 20
3.980302193249251
 42
0.0916544813065066
 10
16.33325254588591
 20
4.003049011887222
 42
0.0846731520301858
  0
LWPOLYLINE
  5
1D0A
330
18
100
AcDbEntity
  8
image
100
AcDbPolyline
 90
       16
 70
     1
 43
0.0
 10
16.85957045196767
 20
3.932640948575514
 42
0.0846731520301792
 10
16.85480381048608
 20
3.960586446815575
 42
0.0916544813065032
 10
16.84175915610883
 20
3.983333265453541
 42
0.1036340346640379
 10
16.82151278069852
 20
3.999071974970292
 42
0.1140536254072521
 10
16.79875888408297
 20
4.004330710612527
 42
0.1140536254072534
 10
16.77600498746743
 20
3.999071974970292
 42
0.1036340346640368
 10
16.75575861205712
 20
3.983333265453541
 42
0.0916544813065076
 10
16.74271395767987
 20
3.960586446815575
 42
0.0846731520301862
 10
16.73794731619828
 20
3.932640948575514
 42
0.0846731520301835
 10
16.74271395767987
 20
3.904695450335462
 42
0.091654481306508
 10
16.75575861205712
 20
3.881948631697475
 42
0.103634034664036
 10
16.77600498746743
 20
3.866209922180729
 42
0.1140536254072547
 10
16.79875888408297
 20
3.860951186538492
 42
0.1140536254072534
 10
16.82151278069852
 20
3.866209922180729
 42
0.1036340346640367
 10
16.84175915610883
 20
3.881948631697475
 42
0.0916544813065066
 10
16.85480381048608
 20
3.904695450335462
 42
0.0846731520301858
  0
LWPOLYLINE
  5
1D0B
330
18
100
AcDbEntity
  8
image
100
AcDbPolyline
 90
       16
 70
     1
 43
0.0
 10
16.49583667309498
 20
3.948646457474215
 42
0.1615511064879552
 10
16.48412542378261
 20
3.933063838711438
 42
0.1061532262602322
 10
16.48083889477099
 20
3.904012369624956
 42
0.0703450477663066
 10
16.48827451224642
 20
3.87353859341351
 42
0.0566056099584688
 10
16.50668694412965
 20
3.839256421421045
 42
0.0566056099584683
 10
16.53231844435255
 20
3.809976545043255
 42
0.0703450477663069
 10
16.55823938441753
 20
3.792311769075965
 42
0.1061532262602343
 10
16.58659440368922
 20
3.785185619264979
 42
0.1615511064879549
 10
16.60529749528743
 20
3.790677953252588
 42
0.1615511064879543
 10
16.61700874459982
 20
3.806260572015348
 42
0.106153226260232
 10
16.62029527361142
 20
3.835312041101811
 42
0.0703450477663075
 10
16.612859656136
 20
3.865785817313287
 42
0.0566056099584687
 10
16.59444722425277
 20
3.900067989305733
 42
0.05660560995847
 10
16.56881572402988
 20
3.929347865683525
 42
0.0703450477663058
 10
16.54289478396489
 20
3.947012641650816
 42
0.1061532262602316
 10
16.5145397646932
 20
3.954138791461786
 42
0.1615511064879538
  0
LWPOLYLINE
  5
1D0C
330
18
100
AcDbEntity
  8
image
100
AcDbPolyline
 90
       16
 70
     1
 43
0.0
 10
16.6787131704946
 20
4.067776241531474
 42
0.0708989349029243
 10
16.66136626694553
 20
4.051695868302147
 42
0.0824870853856804
 10
16.65129768565985
 20
4.033992130992807
 42
0.1068139206260733
 10
16.64858961945701
 20
4.014731327579345
 42
0.1340008839894652
 10
16.65378689162416
 20
4.000017857685522
 42
0.1340008839894659
 10
16.66573772220489
 20
3.989984140391998
 42
0.106813920626075
 10
16.68472264529316
 20
3.985755090141299
 42
0.0824870853856831
 10
16.70483478565649
 20
3.988964522151901
 42
0.0708989349029243
 10
16.72598320172979
 20
3.999558764150542
 42
0.0708989349029259
 10
16.74333010527886
 20
4.01563913737986
 42
0.0824870853856834
 10
16.75339868656453
 20
4.0333428746892
 42
0.1068139206260768
 10
16.75610675276737
 20
4.052603678102657
 42
0.1340008839894672
 10
16.75090948060023
 20
4.06731714799648
 42
0.1340008839894638
 10
16.73895865001951
 20
4.077350865290014
 42
0.1068139206260751
 10
16.71997372693122
 20
4.081579915540713
 42
0.082487085385683
 10
16.69986158656791
 20
4.078370483530096
 42
0.0708989349029251
  0
LWPOLYLINE
  5
1D0D
330
18
100
AcDbEntity
  8
image
100
AcDbPolyline
 90
       16
 70
     1
 43
0.0
 10
16.91029822720669
 20
4.005170478067395
 42
0.0708989349029243
 10
16.89295132365761
 20
3.989090104838071
 42
0.0824870853856804
 10
16.88288274237194
 20
3.971386367528723
 42
0.1068139206260733
 10
16.8801746761691
 20
3.952125564115264
 42
0.1340008839894652
 10
16.88537194833625
 20
3.937412094221445
 42
0.1340008839894659
 10
16.89732277891696
 20
3.927378376927922
 42
0.106813920626075
 10
16.91630770200525
 20
3.923149326677218
 42
0.0824870853856831
 10
16.93641984236856
 20
3.926358758687825
 42
0.0708989349029243
 10
16.95756825844187
 20
3.936953000686447
 42
0.0708989349029259
 10
16.97491516199093
 20
3.953033373915787
 42
0.0824870853856834
 10
16.98498374327661
 20
3.970737111225124
 42
0.1068139206260768
 10
16.98769180947946
 20
3.989997914638584
 42
0.1340008839894672
 10
16.98249453731231
 20
4.004711384532399
 42
0.1340008839894638
 10
16.9705437067316
 20
4.014745101825941
 42
0.1068139206260751
 10
16.95155878364331
 20
4.018974152076641
 42
0.082487085385683
 10
16.93144664328
 20
4.01576472006602
 42
0.0708989349029251
  0
LINE
  5
1D0E
330
18
100
AcDbEntity
  8
image
100
AcDbLine
 10
18.25851343697641
 20
4.114240865288012
 30
0.0
 11
17.63373248549978
 21
4.114240865288007
 31
0.0
  0
LINE
  5
1D0F
330
18
100
AcDbEntity
  8
image
100
AcDbLine
 10
17.63373248549978
 20
3.83512941505913
 30
0.0
 11
18.25851343697641
 21
3.83512941505913
 31
0.0
  0
LWPOLYLINE
  5
1D10
330
18
100
AcDbEntity
  8
image
100
AcDbPolyline
 90
        2
 70
     0
 43
0.0
 10
17.63373248549978
 20
3.83512941505913
 10
18.25851343697641
 20
4.114240865288012
  0
LWPOLYLINE
  5
1D11
330
18
100
AcDbEntity
  8
image
100
AcDbPolyline
 90
        2
 70
     0
 43
0.0
 10
17.63373248549978
 20
4.114240865288007
 10
18.25851343697641
 20
3.83512941505913
  0
LINE
  5
1D12
330
18
100
AcDbEntity
  8
image
  6
Continuous
100
AcDbLine
 10
17.63373248549978
 20
4.114240865288007
 30
0.0
 11
17.63373248549978
 21
3.83512941505913
 31
0.0
  0
LWPOLYLINE
  5
1D13
330
18
100
AcDbEntity
  8
image
100
AcDbPolyline
 90
       16
 70
     1
 43
0.0
 10
17.25180806721076
 20
3.966459942173115
 42
0.1615511064879552
 10
17.2400968178984
 20
3.950877323410352
 42
0.1061532262602322
 10
17.23681028888678
 20
3.921825854323891
 42
0.0703450477663066
 10
17.2442459063622
 20
3.891352078112413
 42
0.0566056099584688
 10
17.26265833824544
 20
3.857069906119965
 42
0.0566056099584683
 10
17.28828983846834
 20
3.827790029742178
 42
0.0703450477663069
 10
17.31421077853332
 20
3.810125253774883
 42
0.1061532262602343
 10
17.34256579780501
 20
3.802999103963911
 42
0.1615511064879549
 10
17.36126888940322
 20
3.808491437951505
 42
0.1615511064879543
 10
17.37298013871561
 20
3.824074056714263
 42
0.106153226260232
 10
17.37626666772721
 20
3.853125525800734
 42
0.0703450477663075
 10
17.36883105025178
 20
3.883599302012201
 42
0.0566056099584687
 10
17.35041861836856
 20
3.917881474004666
 42
0.05660560995847
 10
17.32478711814566
 20
3.947161350382445
 42
0.0703450477663058
 10
17.29886617808067
 20
3.964826126349736
 42
0.1061532262602316
 10
17.27051115880898
 20
3.971952276160704
 42
0.1615511064879538
  0
LWPOLYLINE
  5
1D14
330
18
100
AcDbEntity
  8
image
100
AcDbPolyline
 90
       16
 70
     1
 43
0.0
 10
17.11673840712496
 20
3.982801892250932
 42
0.1833035428166229
 10
17.11186422739607
 20
3.974451918717044
 42
0.1024612315138192
 10
17.11251371208444
 20
3.957554033304147
 42
0.0615734602679465
 10
17.11908487568389
 20
3.940389372018372
 42
0.0478438451985803
 10
17.13211167746815
 20
3.920688317888866
 42
0.0478438451985776
 10
17.14864552151461
 20
3.903822343277614
 42
0.061573460267943
 10
17.16405208094921
 20
3.89380018210879
 42
0.1024612315138217
 10
17.1804386890436
 20
3.889624126918869
 42
0.1833035428166229
 10
17.1896246673561
 20
3.892640331236952
 42
0.1833035428166234
 10
17.19449884708499
 20
3.900990304770839
 42
0.102461231513819
 10
17.19384936239662
 20
3.91788819018374
 42
0.0615734602679484
 10
17.18727819879717
 20
3.935052851469512
 42
0.0478438451985819
 10
17.17425139701291
 20
3.954753905599018
 42
0.0478438451985799
 10
17.15771755296645
 20
3.971619880210283
 42
0.0615734602679431
 10
17.14231099353184
 20
3.98164204137909
 42
0.1024612315138189
 10
17.12592438543746
 20
3.985818096569015
 42
0.183303542816622
  0
LWPOLYLINE
  5
1D15
330
18
100
AcDbEntity
  8
image
100
AcDbPolyline
 90
       16
 70
     1
 43
0.0
 10
17.45418508283303
 20
3.927202884541146
 42
0.0708989349029243
 10
17.43683817928397
 20
3.911122511311821
 42
0.0824870853856804
 10
17.42676959799829
 20
3.893418774002471
 42
0.1068139206260733
 10
17.42406153179546
 20
3.87415797058902
 42
0.1340008839894652
 10
17.42925880396259
 20
3.8594445006952
 42
0.1340008839894659
 10
17.44120963454332
 20
3.849410783401673
 42
0.106813920626075
 10
17.46019455763159
 20
3.845181733150971
 42
0.0824870853856831
 10
17.48030669799492
 20
3.848391165161578
 42
0.0708989349029243
 10
17.50145511406823
 20
3.858985407160201
 42
0.0708989349029259
 10
17.5188020176173
 20
3.87506578038954
 42
0.0824870853856834
 10
17.52887059890296
 20
3.892769517698877
 42
0.1068139206260768
 10
17.53157866510582
 20
3.912030321112334
 42
0.1340008839894672
 10
17.52638139293867
 20
3.926743791006152
 42
0.1340008839894638
 10
17.51443056235794
 20
3.936777508299692
 42
0.1068139206260751
 10
17.49544563926967
 20
3.941006558550391
 42
0.082487085385683
 10
17.47533349890635
 20
3.937797126539773
 42
0.0708989349029251
  0
LWPOLYLINE
  5
1D16
330
18
100
AcDbEntity
  8
image
100
AcDbPolyline
 90
       16
 70
     1
 43
0.0
 10
17.42954764726515
 20
4.116757915271135
 42
0.1615511064879552
 10
17.41783639795277
 20
4.101175296508369
 42
0.1061532262602322
 10
17.41454986894116
 20
4.072123827421909
 42
0.0703450477663066
 10
17.42198548641657
 20
4.041650051210431
 42
0.0566056099584688
 10
17.44039791829981
 20
4.007367879217984
 42
0.0566056099584683
 10
17.46602941852271
 20
3.978088002840195
 42
0.0703450477663069
 10
17.4919503585877
 20
3.960423226872902
 42
0.1061532262602343
 10
17.52030537785938
 20
3.953297077061929
 42
0.1615511064879549
 10
17.5390084694576
 20
3.958789411049524
 42
0.1615511064879543
 10
17.55071971876998
 20
3.974372029812279
 42
0.106153226260232
 10
17.55400624778159
 20
4.003423498898751
 42
0.0703450477663075
 10
17.54657063030617
 20
4.033897275110218
 42
0.0566056099584687
 10
17.52815819842293
 20
4.068179447102683
 42
0.05660560995847
 10
17.50252669820003
 20
4.097459323480462
 42
0.0703450477663058
 10
17.47660575813504
 20
4.115124099447752
 42
0.1061532262602316
 10
17.44825073886336
 20
4.12225024925872
 42
0.1615511064879538
  0
LWPOLYLINE
  5
1D17
330
18
100
AcDbEntity
  8
image
100
AcDbPolyline
 90
       16
 70
     1
 43
0.0
 10
17.32958386872149
 20
4.032718979340708
 42
0.1833035428166229
 10
17.3247096889926
 20
4.024369005806818
 42
0.1024612315138192
 10
17.32535917368098
 20
4.007471120393903
 42
0.0615734602679465
 10
17.33193033728042
 20
3.990306459108144
 42
0.0478438451985803
 10
17.34495713906468
 20
3.970605404978631
 42
0.0478438451985776
 10
17.36149098311112
 20
3.953739430367378
 42
0.061573460267943
 10
17.37689754254574
 20
3.943717269198569
 42
0.1024612315138217
 10
17.39328415064013
 20
3.939541214008647
 42
0.1833035428166229
 10
17.40247012895263
 20
3.942557418326725
 42
0.1833035428166234
 10
17.40734430868152
 20
3.950907391860615
 42
0.102461231513819
 10
17.40669482399315
 20
3.967805277273516
 42
0.0615734602679484
 10
17.4001236603937
 20
3.984969938559295
 42
0.0478438451985819
 10
17.38709685860944
 20
4.004670992688803
 42
0.0478438451985799
 10
17.37056301456298
 20
4.021536967300045
 42
0.0615734602679431
 10
17.35515645512838
 20
4.031559128468866
 42
0.1024612315138189
 10
17.33876984703399
 20
4.03573518365879
 42
0.183303542816622
  0
LINE
  5
1D18
330
18
100
AcDbEntity
  8
image
100
AcDbLine
 10
18.25851343697641
 20
3.83512941505913
 30
0.0
 11
18.25851343697641
 21
4.114240865288007
 31
0.0
  0
LINE
  5
1D19
330
18
100
AcDbEntity
  8
image
100
AcDbLine
 10
18.02831618443805
 20
4.128570291885392
 30
0.0
 11
17.83883069700488
 21
4.128570291885392
 31
0.0
  0
LINE
  5
1D22
330
18
100
AcDbEntity
  8
image
100
AcDbLine
 10
18.02832154271096
 20
4.53537862942811
 30
0.0
 11
18.02832154271096
 21
4.328545942828108
 31
0.0
  0
INSERT
  5
1D26
330
18
100
AcDbEntity
  8
text_bubbles
100
AcDbBlockReference
 66
     1
  2
bubble
 10
20.5634364320177
 20
4.619260057771676
 30
0.0
  0
ATTRIB
  5
1D27
330
1D26
100
AcDbEntity
  8
text_bubbles
100
AcDbText
 10
20.5009364320177
 20
4.556760057771676
 30
0.0
 40
0.125
  1
6
  7
ROMANS
 72
     4
 11
20.5634364320177
 21
4.619260057771676
 31
0.0
100
AcDbAttribute
  2
XX
 70
     0
  0
SEQEND
  5
1D28
330
1D26
100
AcDbEntity
  8
text_bubbles
  0
INSERT
  5
1D29
330
18
100
AcDbEntity
  8
text_bubbles
100
AcDbBlockReference
 66
     1
  2
bubble
 10
18.86756228491214
 20
3.968733293184144
 30
0.0
  0
ATTRIB
  5
1D2A
330
1D29
100
AcDbEntity
  8
text_bubbles
100
AcDbText
 10
18.80803847538833
 20
3.906233293184144
 30
0.0
 40
0.125
  1
5
  7
ROMANS
 72
     4
 11
18.86756228491214
 21
3.968733293184144
 31
0.0
100
AcDbAttribute
  2
XX
 70
     0
  0
SEQEND
  5
1D2B
330
1D29
100
AcDbEntity
  8
text_bubbles
  0
INSERT
  5
1D2C
330
18
100
AcDbEntity
  8
text_bubbles
100
AcDbBlockReference
 66
     1
  2
bubble
 10
20.5634364320177
 20
5.03526760618208
 30
0.0
  0
ATTRIB
  5
1D2D
330
1D2C
100
AcDbEntity
  8
text_bubbles
100
AcDbText
 10
20.50391262249389
 20
4.97276760618208
 30
0.0
 40
0.125
  1
5
  7
ROMANS
 72
     4
 11
20.5634364320177
 21
5.03526760618208
 31
0.0
100
AcDbAttribute
  2
XX
 70
     0
  0
SEQEND
  5
1D2E
330
1D2C
100
AcDbEntity
  8
text_bubbles
  0
INSERT
  5
1D2F
330
18
100
AcDbEntity
  8
text_bubbles
100
AcDbBlockReference
 66
     1
  2
bubble
 10
20.5634364320177
 20
5.478518824342618
 30
0.0
  0
ATTRIB
  5
1D30
330
1D2F
100
AcDbEntity
  8
text_bubbles
100
AcDbText
 10
20.5009364320177
 20
5.416018824342618
 30
0.0
 40
0.125
  1
4
  7
ROMANS
 72
     4
 11
20.5634364320177
 21
5.478518824342618
 31
0.0
100
AcDbAttribute
  2
XX
 70
     0
  0
SEQEND
  5
1D31
330
1D2F
100
AcDbEntity
  8
text_bubbles
  0
HATCH
  5
1D32
330
18
100
AcDbEntity
  8
image
100
AcDbHatch
 10
0.0
 20
0.0
 30
0.0
210
0.0
220
0.0
230
1.0
  2
EARTH
 70
     0
 71
     0
 91
        2
 92
        1
 93
        5
 72
     1
 10
17.99473545437573
 20
6.798901337994039
 11
17.61722884533444
 21
6.798901337994039
 72
     1
 10
17.61722884533444
 20
6.798901337994039
 11
17.61722884533444
 21
6.422726894653131
 72
     1
 10
17.61722884533444
 20
6.422726894653131
 11
17.84907645708193
 21
6.353032347362167
 72
     1
 10
17.84907645708193
 20
6.353032347362167
 11
17.99473545437573
 21
6.442619520561031
 72
     1
 10
17.99473545437573
 20
6.442619520561031
 11
17.99473545437573
 21
6.798901337994039
 97
        0
 92
        1
 93
        5
 72
     1
 10
13.92782657486947
 20
6.798901337994039
 11
14.30533318391077
 21
6.798901337994039
 72
     1
 10
14.30533318391077
 20
6.798901337994039
 11
14.30533318391077
 21
6.422726894653131
 72
     1
 10
14.30533318391077
 20
6.422726894653131
 11
14.07348557216327
 21
6.353032347362167
 72
     1
 10
14.07348557216327
 20
6.353032347362167
 11
13.92782657486947
 21
6.442619520561031
 72
     1
 10
13.92782657486947
 20
6.442619520561031
 11
13.92782657486947
 21
6.798901337994039
 97
        0
 75
     0
 76
     1
 52
45.0
 41
0.75
 77
     0
 78
     6
 53
45.0
 43
-8.743014572359875
 44
2.046283188743353
 45
0.0
 46
0.2651650429449553
 79
     2
 49
0.1875
 49
-0.1875
 53
45.0
 43
-8.792733017912055
 44
2.096001634295532
 45
0.0
 46
0.2651650429449553
 79
     2
 49
0.1875
 49
-0.1875
 53
45.0
 43
-8.842451463464232
 44
2.145720079847711
 45
0.0
 46
0.2651650429449553
 79
     2
 49
0.1875
 49
-0.1875
 53
135.0
 43
-8.842451463464232
 44
2.178865710215831
 45
-0.2651650429449553
 46
0.0000000000000001
 79
     2
 49
0.1875
 49
-0.1875
 53
135.0
 43
-8.792733017912055
 44
2.22858415576801
 45
-0.2651650429449553
 46
0.0000000000000001
 79
     2
 49
0.1875
 49
-0.1875
 53
135.0
 43
-8.743014572359875
 44
2.278302601320189
 45
-0.2651650429449553
 46
0.0000000000000001
 79
     2
 49
0.1875
 49
-0.1875
 98
        1
 10
-3.361902194820999
 20
-5.595818956413422
  0
LINE
  5
1D33
330
18
100
AcDbEntity
  8
image
100
AcDbLine
 10
17.55354023828543
 20
6.810612636336606
 30
0.0
 11
14.36902179095978
 21
6.810612636336613
 31
0.0
  0
LWPOLYLINE
  5
1D34
330
18
100
AcDbEntity
  8
image
100
AcDbPolyline
 90
        4
 70
     0
 43
0.0
 10
14.36902179095977
 20
6.810612636336613
 10
14.36902179095977
 20
6.471222331429366
 10
17.55354023828543
 20
6.471222331429366
 10
17.55354023828543
 20
6.810612636336606
  0
LINE
  5
1D37
330
18
100
AcDbEntity
  8
image
100
AcDbLine
 10
14.35704135556077
 20
6.810538182028138
 30
0.0
 11
14.35704135556077
 21
6.461508023390634
 31
0.0
  0
LINE
  5
1D38
330
18
100
AcDbEntity
  8
image
100
AcDbLine
 10
14.30533318391077
 20
6.810538182028138
 30
0.0
 11
14.30533318391077
 21
6.345164637178132
 31
0.0
  0
LINE
  5
1D39
330
18
100
AcDbEntity
  8
image
100
AcDbLine
 10
14.13548882447642
 20
5.569542062428122
 30
0.0
 11
14.10441359723174
 21
5.155876689228118
 31
0.0
  0
LINE
  5
1D3A
330
18
100
AcDbEntity
  8
image
100
AcDbLine
 10
14.14039069552309
 20
5.117095560490618
 30
0.0
 11
14.02663279554066
 21
5.117095560490618
 31
0.0
  0
LINE
  5
1D3B
330
18
100
AcDbEntity
  8
image
100
AcDbLine
 10
14.10441359723174
 20
5.155876689228118
 30
0.0
 11
14.02663279554066
 21
5.155876689228118
 31
0.0
  0
LINE
  5
1D78
330
18
100
AcDbEntity
  8
image
100
AcDbLine
 10
14.29143728182246
 20
6.129682338759494
 30
0.0
 11
14.1739721735578
 21
5.564123494814515
 31
0.0
  0
LINE
  5
1D79
330
18
100
AcDbEntity
  8
image
100
AcDbLine
 10
14.25362501226077
 20
6.13833195057813
 30
0.0
 11
14.13548882447642
 21
5.569542062428122
 31
0.0
  0
LINE
  5
1D7A
330
18
100
AcDbEntity
  8
image
100
AcDbLine
 10
14.40874952721077
 20
6.422726894653131
 30
0.0
 11
14.40874952721077
 21
6.228821250965631
 31
0.0
  0
LINE
  5
1D7B
330
18
100
AcDbEntity
  8
image
100
AcDbLine
 10
14.44753065594827
 20
6.461508023390634
 30
0.0
 11
14.44753065594827
 21
6.228821250965631
 31
0.0
  0
LINE
  5
1D7C
330
18
100
AcDbEntity
  8
image
100
AcDbLine
 10
14.36469842079587
 20
6.422726894653131
 30
0.0
 11
14.29143728182246
 21
6.129682338759494
 31
0.0
  0
LINE
  5
1D7D
330
18
100
AcDbEntity
  8
image
100
AcDbLine
 10
14.30533318391077
 20
6.345164637178132
 30
0.0
 11
14.25362501226077
 21
6.13833195057813
 31
0.0
  0
LINE
  5
1D7E
330
18
100
AcDbEntity
  8
image
100
AcDbLine
 10
14.44753065594827
 20
6.228821250965631
 30
0.0
 11
14.31622200987399
 21
6.228821250965631
 31
0.0
  0
LINE
  5
1D7F
330
18
100
AcDbEntity
  8
image
100
AcDbLine
 10
14.44753065594827
 20
6.461508023390634
 30
0.0
 11
14.35704135556077
 21
6.461508023390634
 31
0.0
  0
LINE
  5
1D80
330
18
100
AcDbEntity
  8
image
100
AcDbLine
 10
14.40874952721077
 20
6.422726894653131
 30
0.0
 11
14.36469842079587
 21
6.422726894653131
 31
0.0
  0
INSERT
  5
1D81
330
18
100
AcDbEntity
  8
text_bubbles
100
AcDbBlockReference
 66
     1
  2
bubble
 10
14.58685699385214
 20
7.321220113456286
 30
0.0
  0
ATTRIB
  5
1D82
330
1D81
100
AcDbEntity
  8
text_bubbles
100
AcDbText
 10
14.52435699385214
 20
7.258720113456286
 30
0.0
 40
0.125
  1
6
  7
ROMANS
 72
     4
 11
14.58685699385214
 21
7.321220113456286
 31
0.0
100
AcDbAttribute
  2
XX
 70
     0
  0
SEQEND
  5
1D83
330
1D81
100
AcDbEntity
  8
text_bubbles
  0
LINE
  5
1D84
330
18
100
AcDbEntity
  8
image
100
AcDbLine
 10
14.28016627518484
 20
7.189406653771673
 30
0.0
 11
14.17309223698774
 21
6.798901337994034
 31
0.0
  0
LINE
  5
1D85
330
18
100
AcDbEntity
  8
image
100
AcDbLine
 10
14.37980247108939
 20
7.161631819251355
 30
0.0
 11
14.08656808377692
 21
6.798901337994037
 31
0.0
  0
LINE
  5
1D86
330
18
100
AcDbEntity
  8
image
100
AcDbLine
 10
14.21107597284321
 20
7.189406653771676
 30
0.0
 11
14.1040019346461
 21
6.798901337994037
 31
0.0
  0
LWPOLYLINE
  5
1D87
330
18
100
AcDbEntity
  8
image
100
AcDbPolyline
 90
        2
 70
     0
 43
0.0
 10
14.30533318391078
 20
6.798901337994039
 10
13.94562138705703
 20
6.798901337994039
  0
LINE
  5
1D88
330
18
100
AcDbEntity
  8
image
100
AcDbLine
 10
13.8804457940151
 20
7.293533812435832
 30
0.0
 11
13.99962956375008
 21
6.798901337994039
 31
0.0
  0
LINE
  5
1D89
330
18
100
AcDbEntity
  8
image
100
AcDbLine
 10
13.73930639618119
 20
7.27704606328778
 30
0.0
 11
13.96719624160853
 21
6.798901337994039
 31
0.0
  0
LINE
  5
1D8A
330
18
100
AcDbEntity
  8
image
100
AcDbLine
 10
13.94381081734327
 20
7.217092912509933
 30
0.0
 11
13.98336947979747
 21
6.798901337994039
 31
0.0
  0
LINE
  5
1D8B
330
18
100
AcDbEntity
  8
image
100
AcDbLine
 10
14.10237094492027
 20
7.251700735932759
 30
0.0
 11
14.04715150614725
 21
6.798901337994037
 31
0.0
  0
LINE
  5
1D8C
330
18
100
AcDbEntity
  8
image
100
AcDbLine
 10
13.94424996858404
 20
7.31002156158388
 30
0.0
 11
13.94424996858404
 21
6.798901337994037
 31
0.0
  0
LINE
  5
1D8D
330
18
100
AcDbEntity
  8
image
100
AcDbLine
 10
14.12266728605025
 20
7.189406653771676
 30
0.0
 11
14.01559324785315
 21
6.798901337994037
 31
0.0
  0
LINE
  5
1D8E
330
18
100
AcDbEntity
  8
image
100
AcDbLine
 10
14.04653007452004
 20
7.23093604187907
 30
0.0
 11
13.93578503956699
 21
6.798901337994039
 31
0.0
  0
LINE
  5
1D8F
330
18
100
AcDbEntity
  8
image
100
AcDbLine
 10
14.00024800439491
 20
7.260558314139696
 30
0.0
 11
14.03875353000159
 21
6.798901337994045
 31
0.0
  0
LINE
  5
1D90
330
18
100
AcDbEntity
  8
image
100
AcDbLine
 10
14.16527168556641
 20
7.31002156158388
 30
0.0
 11
14.16527168556641
 21
6.798901337994037
 31
0.0
  0
LINE
  5
1D91
330
18
100
AcDbEntity
  8
image
100
AcDbLine
 10
14.13493876131299
 20
7.23093604187907
 30
0.0
 11
14.02419372635994
 21
6.808720596120585
 31
0.0
  0
LINE
  5
1D92
330
18
100
AcDbEntity
  8
image
100
AcDbLine
 10
14.08865669118786
 20
7.260558314139696
 30
0.0
 11
14.12716221679454
 21
6.798901337994045
 31
0.0
  0
LINE
  5
1D94
330
18
100
AcDbEntity
  8
image
100
AcDbLine
 10
14.20157210790885
 20
7.31002156158388
 30
0.0
 11
14.20157210790885
 21
6.798901337994037
 31
0.0
  0
LINE
  5
1D95
330
18
100
AcDbEntity
  8
image
100
AcDbLine
 10
14.32502289928334
 20
7.227582815843581
 30
0.0
 11
14.22242121925061
 21
6.798901337994039
 31
0.0
  0
LINE
  5
1D96
330
18
100
AcDbEntity
  8
image
100
AcDbLine
 10
14.32339266190265
 20
7.251700735932759
 30
0.0
 11
14.26817322312963
 21
6.798901337994037
 31
0.0
  0
LINE
  5
1D97
330
18
100
AcDbEntity
  8
image
100
AcDbLine
 10
14.25368037235937
 20
7.31002156158388
 30
0.0
 11
14.25368037235937
 21
6.798901337994037
 31
0.0
  0
LINE
  5
1D99
330
18
100
AcDbEntity
  8
image
100
AcDbLine
 10
14.35704135556077
 20
6.810538182028138
 30
0.0
 11
14.30533318391077
 21
6.810538182028138
 31
0.0
  0
LINE
  5
1D9B
330
18
100
AcDbEntity
  8
image
100
AcDbLine
 10
17.61465616951081
 20
6.810538182028138
 30
0.0
 11
17.61465616951081
 21
6.345164637178132
 31
0.0
  0
LINE
  5
1D9C
330
18
100
AcDbEntity
  8
image
100
AcDbLine
 10
17.56294799786082
 20
6.810538182028138
 30
0.0
 11
17.56294799786082
 21
6.461508023390634
 31
0.0
  0
INSERT
  5
1D9D
330
18
100
AcDbEntity
  8
text_bubbles
100
AcDbBlockReference
 66
     1
  2
bubble
 10
18.38617240103612
 20
5.666368895539608
 30
0.0
  0
ATTRIB
  5
1D9E
330
1D9D
100
AcDbEntity
  8
text_bubbles
100
AcDbText
 10
18.32367240103613
 20
5.603868895539608
 30
0.0
 40
0.125
  1
4
  7
ROMANS
 72
     4
 11
18.38617240103612
 21
5.666368895539608
 31
0.0
100
AcDbAttribute
  2
XX
 70
     0
  0
SEQEND
  5
1D9F
330
1D9D
100
AcDbEntity
  8
text_bubbles
  0
LINE
  5
1DA3
330
18
100
AcDbEntity
  8
image
100
AcDbLine
 10
17.78450052894516
 20
5.569542062428122
 30
0.0
 11
17.81557575618985
 21
5.155876689228118
 31
0.0
  0
LINE
  5
1DA9
330
18
100
AcDbEntity
  8
image
100
AcDbLine
 10
17.7795986578985
 20
5.117095560490618
 30
0.0
 11
17.89335655788093
 21
5.117095560490618
 31
0.0
  0
LINE
  5
1DAA
330
18
100
AcDbEntity
  8
image
100
AcDbLine
 10
17.81557575618985
 20
5.155876689228118
 30
0.0
 11
17.89335655788093
 21
5.155876689228118
 31
0.0
  0
INSERT
  5
1DAB
330
18
100
AcDbEntity
  8
text_bubbles
100
AcDbBlockReference
 66
     1
  2
bubble
 10
15.38415308670411
 20
6.197612924263788
 30
0.0
  0
ATTRIB
  5
1DAC
330
1DAB
100
AcDbEntity
  8
text_bubbles
100
AcDbText
 10
15.3246292771803
 20
6.135112924263788
 30
0.0
 40
0.125
  1
3
  7
ROMANS
 72
     4
 11
15.38415308670411
 21
6.197612924263788
 31
0.0
100
AcDbAttribute
  2
XX
 70
     0
  0
SEQEND
  5
1DAD
330
1DAB
100
AcDbEntity
  8
text_bubbles
  0
LINE
  5
1DAE
330
18
100
AcDbEntity
  8
image
  6
Continuous
100
AcDbLine
 10
16.16847080230828
 20
5.845408799060152
 30
0.0
 11
16.05546804016126
 21
5.509051331414932
 31
0.0
  0
LINE
  5
1DAF
330
18
100
AcDbEntity
  8
image
  6
Continuous
100
AcDbLine
 10
16.12441279510715
 20
5.537919391852355
 30
0.0
 11
16.18708465529845
 21
5.84893525971659
 31
0.0
  0
LINE
  5
1DB0
330
18
100
AcDbEntity
  8
image
  6
Continuous
100
AcDbLine
 10
16.1293115576112
 20
5.526488946009473
 30
0.0
 11
16.01267167296072
 21
5.829868805854006
 31
0.0
  0
LINE
  5
1DB1
330
18
100
AcDbEntity
  8
image
  6
Continuous
100
AcDbLine
 10
16.06559578002335
 20
5.539196974479386
 30
0.0
 11
15.98724744499333
 21
5.829868805854006
 31
0.0
  0
LWPOLYLINE
  5
1DB2
330
18
100
AcDbEntity
  8
image
  6
Continuous
100
AcDbPolyline
 90
        8
 70
     1
 43
0.0
 10
16.14364857768244
 20
5.837478995524193
 10
16.15197964997217
 20
5.829147923234456
 10
16.19363951064981
 20
5.829147923234456
 10
16.20197208268254
 20
5.837478995524193
 10
16.20197208268254
 20
5.908299858830389
 10
16.19363951064981
 20
5.916632430863112
 10
16.15197964997217
 20
5.916632430863112
 10
16.14364857768244
 20
5.908299858830389
  0
LWPOLYLINE
  5
1DB3
330
18
100
AcDbEntity
  8
image
  6
Continuous
100
AcDbPolyline
 90
        8
 70
     1
 43
0.0
 10
15.96867806268213
 20
5.816649065185373
 10
15.97701063471486
 20
5.808317992895636
 10
16.01866899564952
 20
5.808317992895636
 10
16.02700156768224
 20
5.816649065185373
 10
16.02700156768224
 20
5.891636214507931
 10
16.01866899564952
 20
5.899968786540654
 10
15.97701063471486
 20
5.899968786540654
 10
15.96867806268213
 20
5.891636214507931
  0
LINE
  5
1DB4
330
18
100
AcDbEntity
  8
image
100
AcDbLine
 10
17.66636434116081
 20
6.13833195057813
 30
0.0
 11
17.78450052894516
 21
5.569542062428122
 31
0.0
  0
LINE
  5
1DB5
330
18
100
AcDbEntity
  8
image
100
AcDbLine
 10
17.62855207159913
 20
6.129682338759494
 30
0.0
 11
17.74601717986379
 21
5.564123494814515
 31
0.0
  0
LINE
  5
1DB8
330
18
100
AcDbEntity
  8
image
100
AcDbLine
 10
17.61465616951081
 20
6.345164637178132
 30
0.0
 11
17.66636434116081
 21
6.13833195057813
 31
0.0
  0
LINE
  5
1DB9
330
18
100
AcDbEntity
  8
image
100
AcDbLine
 10
17.55529093262572
 20
6.422726894653131
 30
0.0
 11
17.62855207159913
 21
6.129682338759494
 31
0.0
  0
LINE
  5
1DBA
330
18
100
AcDbEntity
  8
image
100
AcDbLine
 10
17.47245869747331
 20
6.461508023390634
 30
0.0
 11
17.47245869747331
 21
6.228821250965631
 31
0.0
  0
LINE
  5
1DBB
330
18
100
AcDbEntity
  8
image
100
AcDbLine
 10
17.51123982621081
 20
6.422726894653131
 30
0.0
 11
17.51123982621081
 21
6.228821250965631
 31
0.0
  0
LINE
  5
1DBC
330
18
100
AcDbEntity
  8
image
100
AcDbLine
 10
17.60376734354759
 20
6.228821250965631
 30
0.0
 11
17.47245869747331
 21
6.228821250965631
 31
0.0
  0
LINE
  5
1DBD
330
18
100
AcDbEntity
  8
image
100
AcDbLine
 10
17.51123982621081
 20
6.422726894653131
 30
0.0
 11
17.55529093262572
 21
6.422726894653131
 31
0.0
  0
LINE
  5
1DBE
330
18
100
AcDbEntity
  8
image
100
AcDbLine
 10
17.56294799786082
 20
6.461508023390634
 30
0.0
 11
17.47245869747331
 21
6.461508023390634
 31
0.0
  0
INSERT
  5
1DBF
330
18
100
AcDbEntity
  8
text_bubbles
100
AcDbBlockReference
 66
     1
  2
bubble
 10
20.55694043069303
 20
6.348655004356102
 30
0.0
  0
ATTRIB
  5
1DC0
330
1DBF
100
AcDbEntity
  8
text_bubbles
100
AcDbText
 10
20.49741662116922
 20
6.286155004356102
 30
0.0
 40
0.125
  1
2
  7
ROMANS
 72
     4
 11
20.55694043069303
 21
6.348655004356102
 31
0.0
100
AcDbAttribute
  2
XX
 70
     0
  0
SEQEND
  5
1DC1
330
1DBF
100
AcDbEntity
  8
text_bubbles
  0
INSERT
  5
1DC2
330
18
100
AcDbEntity
  8
text_bubbles
100
AcDbBlockReference
 66
     1
  2
bubble
 10
20.5634364320177
 20
5.885617516468179
 30
0.0
  0
ATTRIB
  5
1DC3
330
1DC2
100
AcDbEntity
  8
text_bubbles
100
AcDbText
 10
20.50391262249389
 20
5.823117516468179
 30
0.0
 40
0.125
  1
3
  7
ROMANS
 72
     4
 11
20.5634364320177
 21
5.885617516468179
 31
0.0
100
AcDbAttribute
  2
XX
 70
     0
  0
SEQEND
  5
1DC4
330
1DC2
100
AcDbEntity
  8
text_bubbles
  0
INSERT
  5
1DC5
330
18
100
AcDbEntity
  8
text_bubbles
100
AcDbBlockReference
 66
     1
  2
bubble
 10
20.55694043069303
 20
6.759229894946662
 30
0.0
  0
ATTRIB
  5
1DC6
330
1DC5
100
AcDbEntity
  8
text_bubbles
100
AcDbText
 10
20.50634519259779
 20
6.696729894946662
 30
0.0
 40
0.125
  1
1
  7
ROMANS
 72
     4
 11
20.55694043069303
 21
6.759229894946662
 31
0.0
100
AcDbAttribute
  2
XX
 70
     0
  0
SEQEND
  5
1DC7
330
1DC5
100
AcDbEntity
  8
text_bubbles
  0
LINE
  5
1DC8
330
18
100
AcDbEntity
  8
image
100
AcDbLine
 10
18.02864880906334
 20
7.227582815843588
 30
0.0
 11
17.92604712903061
 21
6.798901337994046
 31
0.0
  0
LINE
  5
1DC9
330
18
100
AcDbEntity
  8
image
100
AcDbLine
 10
17.92903108518358
 20
7.224014477194502
 30
0.0
 11
17.88917672838353
 21
6.798901337994039
 31
0.0
  0
LINE
  5
1DCA
330
18
100
AcDbEntity
  8
image
100
AcDbLine
 10
17.88879831171396
 20
7.2605583141397
 30
0.0
 11
17.92730383732065
 21
6.798901337994046
 31
0.0
  0
LINE
  5
1DCB
330
18
100
AcDbEntity
  8
image
100
AcDbLine
 10
18.01121759336932
 20
7.18940665377168
 30
0.0
 11
17.90414355517222
 21
6.798901337994039
 31
0.0
  0
LINE
  5
1DCC
330
18
100
AcDbEntity
  8
image
100
AcDbLine
 10
17.78445308615202
 20
7.251700735932764
 30
0.0
 11
17.72923364737899
 21
6.798901337994039
 31
0.0
  0
LINE
  5
1DCD
330
18
100
AcDbEntity
  8
image
100
AcDbLine
 10
17.62633210981578
 20
7.310021561583884
 30
0.0
 11
17.62633210981578
 21
6.798901337994039
 31
0.0
  0
LINE
  5
1DCE
330
18
100
AcDbEntity
  8
image
100
AcDbLine
 10
18.06115868964239
 20
7.227582815843588
 30
0.0
 11
17.95855700960966
 21
6.798901337994046
 31
0.0
  0
LINE
  5
1DCF
330
18
100
AcDbEntity
  8
image
100
AcDbLine
 10
17.63866330793456
 20
7.217092912509933
 30
0.0
 11
17.67822197038876
 21
6.798901337994039
 31
0.0
  0
LINE
  5
1DD0
330
18
100
AcDbEntity
  8
image
100
AcDbLine
 10
17.83938868378696
 20
7.224014477194504
 30
0.0
 11
17.79953432698691
 21
6.798901337994039
 31
0.0
  0
LINE
  5
1DD1
330
18
100
AcDbEntity
  8
image
100
AcDbLine
 10
17.69147088590944
 20
7.293533812435832
 30
0.0
 11
17.81065465564441
 21
6.798901337994039
 31
0.0
  0
LINE
  5
1DD2
330
18
100
AcDbEntity
  8
image
100
AcDbLine
 10
17.4934424685036
 20
7.27704606328778
 30
0.0
 11
17.72133231393096
 21
6.798901337994039
 31
0.0
  0
LINE
  5
1DD3
330
18
100
AcDbEntity
  8
image
100
AcDbLine
 10
17.95517679192153
 20
7.217092912509933
 30
0.0
 11
17.99473545437573
 21
6.798901337994039
 31
0.0
  0
LINE
  5
1DD4
330
18
100
AcDbEntity
  8
image
100
AcDbLine
 10
17.80609004823475
 20
7.18940665377168
 30
0.0
 11
17.69901601003764
 21
6.798901337994039
 31
0.0
  0
LINE
  5
1DD5
330
18
100
AcDbEntity
  8
image
100
AcDbLine
 10
17.72995283670453
 20
7.230936041879074
 30
0.0
 11
17.61465616951081
 21
6.798901337994039
 31
0.0
  0
LINE
  5
1DD6
330
18
100
AcDbEntity
  8
image
100
AcDbLine
 10
17.6836707665794
 20
7.2605583141397
 30
0.0
 11
17.72217629218609
 21
6.798901337994046
 31
0.0
  0
LINE
  5
1DD7
330
18
100
AcDbEntity
  8
image
100
AcDbLine
 10
17.84869444775091
 20
7.310021561583884
 30
0.0
 11
17.84869444775091
 21
6.798901337994039
 31
0.0
  0
LINE
  5
1DD8
330
18
100
AcDbEntity
  8
image
100
AcDbLine
 10
17.93900640766671
 20
7.227582815843589
 30
0.0
 11
17.83640472763398
 21
6.798901337994046
 31
0.0
  0
LINE
  5
1DD9
330
18
100
AcDbEntity
  8
image
100
AcDbLine
 10
18.06322523327389
 20
7.161631819251357
 30
0.0
 11
17.76999084596141
 21
6.798901337994039
 31
0.0
  0
LWPOLYLINE
  5
1DDA
330
18
100
AcDbEntity
  8
image
100
AcDbPolyline
 90
        2
 70
     0
 43
0.0
 10
17.61465616951081
 20
6.798901337994039
 10
17.97436796636456
 20
6.798901337994039
  0
LINE
  5
1DDB
330
18
100
AcDbEntity
  8
image
100
AcDbLine
 10
17.61465616951081
 20
6.810538182028136
 30
0.0
 11
17.56294799786082
 21
6.810538182028136
 31
0.0
  0
INSERT
  5
1DE2
330
18
100
AcDbEntity
  8
text_bubbles
100
AcDbBlockReference
 66
     1
  2
bubble
 10
15.36861528522631
 20
5.444011707752838
 30
0.0
  0
ATTRIB
  5
1DE3
330
1DE2
100
AcDbEntity
  8
text_bubbles
100
AcDbText
 10
15.30909147570249
 20
5.381511707752838
 30
0.0
 40
0.125
  1
2
  7
ROMANS
 72
     4
 11
15.36861528522631
 21
5.444011707752838
 31
0.0
100
AcDbAttribute
  2
XX
 70
     0
  0
SEQEND
  5
1DE4
330
1DE2
100
AcDbEntity
  8
text_bubbles
  0
INSERT
  5
1E30
330
18
100
AcDbEntity
  8
0
  6
Continuous
100
AcDbBlockReference
  2
pagesetups
 10
0.0
 20
0.0
 30
0.0
  0
LWPOLYLINE
  5
1E49
330
18
100
AcDbEntity
  8
image
  6
HIDDEN2
100
AcDbPolyline
 90
       24
 70
     1
 43
0.0134976868780607
 10
16.26862665997237
 20
4.837649837975737
 10
16.29362287632756
 20
4.841816123992097
 10
16.31861759293976
 20
4.854314982041183
 10
16.33944752327858
 20
4.875143412637017
 10
16.35194638132765
 20
4.895973342975835
 10
16.35611116760103
 20
4.92513584534738
 10
16.35611116760103
 20
6.145760164847144
 10
16.35194638132765
 20
6.17075488145934
 10
16.33944752327858
 20
6.195751097814524
 10
16.31861759293976
 20
6.216581028153343
 10
16.29778916234392
 20
6.229078386459441
 10
16.26862665997237
 20
6.233244672475802
 10
15.92285341573112
 20
6.233244672475802
 10
15.89785719937595
 20
6.229078386459441
 10
15.87286098302075
 20
6.216581028153343
 10
15.85203105268194
 20
6.195751097814524
 10
15.83953369437584
 20
6.1749211674757
 10
15.83536740835948
 20
6.145760164847144
 10
15.83536740835948
 20
4.92513584534738
 10
15.83953369437584
 20
4.900139628992199
 10
15.85203105268194
 20
4.875143412637017
 10
15.87286098302075
 20
4.854314982041183
 10
15.89369091335957
 20
4.841816123992097
 10
15.92285341573112
 20
4.837649837975737
  0
POLYLINE
  5
1E59
330
18
100
AcDbEntity
  8
image
  6
Continuous
100
AcDb2dPolyline
 66
     1
 10
0.0
 20
0.0
 30
0.0
 70
     4
 75
     6
  0
VERTEX
  5
1E5B
330
1E59
100
AcDbEntity
  8
image
  6
Continuous
100
AcDbVertex
100
AcDb2dVertex
 10
16.13220520273854
 20
5.543360879479211
 30
0.0
 70
    16
  0
VERTEX
  5
1E95
330
1E59
100
AcDbEntity
  8
image
  6
Continuous
100
AcDbVertex
100
AcDb2dVertex
 10
16.13220520273854
 20
5.543360879479211
 30
0.0
 70
     8
  0
VERTEX
  5
1E96
330
1E59
100
AcDbEntity
  8
image
  6
Continuous
100
AcDbVertex
100
AcDb2dVertex
 10
16.13905781253889
 20
5.379835834416857
 30
0.0
 70
     8
  0
VERTEX
  5
1E97
330
1E59
100
AcDbEntity
  8
image
  6
Continuous
100
AcDbVertex
100
AcDb2dVertex
 10
16.1466591172119
 20
5.236535822867195
 30
0.0
 70
     8
  0
VERTEX
  5
1E98
330
1E59
100
AcDbEntity
  8
image
  6
Continuous
100
AcDbVertex
100
AcDb2dVertex
 10
16.15496190606754
 20
5.111458763498731
 30
0.0
 70
     8
  0
VERTEX
  5
1E99
330
1E59
100
AcDbEntity
  8
image
  6
Continuous
100
AcDbVertex
100
AcDb2dVertex
 10
16.16391896841579
 20
5.002602574979972
 30
0.0
 70
     8
  0
VERTEX
  5
1E9A
330
1E59
100
AcDbEntity
  8
image
  6
Continuous
100
AcDbVertex
100
AcDb2dVertex
 10
16.17348309356662
 20
4.907965175979423
 30
0.0
 70
     8
  0
VERTEX
  5
1E9B
330
1E59
100
AcDbEntity
  8
image
  6
Continuous
100
AcDbVertex
100
AcDb2dVertex
 10
16.18360707083002
 20
4.825544485165591
 30
0.0
 70
     8
  0
VERTEX
  5
1E9C
330
1E59
100
AcDbEntity
  8
image
  6
Continuous
100
AcDbVertex
100
AcDb2dVertex
 10
16.19424368951596
 20
4.753338421206982
 30
0.0
 70
     8
  0
VERTEX
  5
1E9D
330
1E59
100
AcDbEntity
  8
image
  6
Continuous
100
AcDbVertex
100
AcDb2dVertex
 10
16.20534573893442
 20
4.6893449027721
 30
0.0
 70
     8
  0
VERTEX
  5
1E9E
330
1E59
100
AcDbEntity
  8
image
  6
Continuous
100
AcDbVertex
100
AcDb2dVertex
 10
16.21686680582389
 20
4.631818963074364
 30
0.0
 70
     8
  0
VERTEX
  5
1E9F
330
1E59
100
AcDbEntity
  8
image
  6
Continuous
100
AcDbVertex
100
AcDb2dVertex
 10
16.22876366663692
 20
4.580044093506826
 30
0.0
 70
     8
  0
VERTEX
  5
1EA0
330
1E59
100
AcDbEntity
  8
image
  6
Continuous
100
AcDbVertex
100
AcDb2dVertex
 10
16.24099389525456
 20
4.533560900007449
 30
0.0
 70
     8
  0
VERTEX
  5
1EA1
330
1E59
100
AcDbEntity
  8
image
  6
Continuous
100
AcDbVertex
100
AcDb2dVertex
 10
16.25351506555786
 20
4.491909988514197
 30
0.0
 70
     8
  0
VERTEX
  5
1EA2
330
1E59
100
AcDbEntity
  8
image
  6
Continuous
100
AcDbVertex
100
AcDb2dVertex
 10
16.26628475142789
 20
4.454631964965033
 30
0.0
 70
     8
  0
VERTEX
  5
1EA3
330
1E59
100
AcDbEntity
  8
image
  6
Continuous
100
AcDbVertex
100
AcDb2dVertex
 10
16.27926052674571
 20
4.421267435297919
 30
0.0
 70
     8
  0
VERTEX
  5
1EA4
330
1E59
100
AcDbEntity
  8
image
  6
Continuous
100
AcDbVertex
100
AcDb2dVertex
 10
16.29239996539236
 20
4.39135700545082
 30
0.0
 70
     8
  0
VERTEX
  5
1EA5
330
1E59
100
AcDbEntity
  8
image
  6
Continuous
100
AcDbVertex
100
AcDb2dVertex
 10
16.3056606412489
 20
4.364441281361698
 30
0.0
 70
     8
  0
VERTEX
  5
1EA6
330
1E59
100
AcDbEntity
  8
image
  6
Continuous
100
AcDbVertex
100
AcDb2dVertex
 10
16.31904103231013
 20
4.340112980083786
 30
0.0
 70
     8
  0
VERTEX
  5
1EA7
330
1E59
100
AcDbEntity
  8
image
  6
Continuous
100
AcDbVertex
100
AcDb2dVertex
 10
16.33270323302571
 20
4.318173263131381
 30
0.0
 70
     8
  0
VERTEX
  5
1EA8
330
1E59
100
AcDbEntity
  8
image
  6
Continuous
100
AcDbVertex
100
AcDb2dVertex
 10
16.34685024195906
 20
4.298475403134053
 30
0.0
 70
     8
  0
VERTEX
  5
1EA9
330
1E59
100
AcDbEntity
  8
image
  6
Continuous
100
AcDbVertex
100
AcDb2dVertex
 10
16.36168505767358
 20
4.280872672721371
 30
0.0
 70
     8
  0
VERTEX
  5
1EAA
330
1E59
100
AcDbEntity
  8
image
  6
Continuous
100
AcDbVertex
100
AcDb2dVertex
 10
16.37741067873269
 20
4.265218344522902
 30
0.0
 70
     8
  0
VERTEX
  5
1EAB
330
1E59
100
AcDbEntity
  8
image
  6
Continuous
100
AcDbVertex
100
AcDb2dVertex
 10
16.39423010369977
 20
4.251365691168214
 30
0.0
 70
     8
  0
VERTEX
  5
1EAC
330
1E59
100
AcDbEntity
  8
image
  6
Continuous
100
AcDbVertex
100
AcDb2dVertex
 10
16.41234633113826
 20
4.239167985286875
 30
0.0
 70
     8
  0
VERTEX
  5
1EAD
330
1E59
100
AcDbEntity
  8
image
  6
Continuous
100
AcDbVertex
100
AcDb2dVertex
 10
16.43196235961154
 20
4.228478499508454
 30
0.0
 70
     8
  0
VERTEX
  5
1EAE
330
1E59
100
AcDbEntity
  8
image
  6
Continuous
100
AcDbVertex
100
AcDb2dVertex
 10
16.45325444959617
 20
4.219165506235544
 30
0.0
 70
     8
  0
VERTEX
  5
1EAF
330
1E59
100
AcDbEntity
  8
image
  6
Continuous
100
AcDbVertex
100
AcDb2dVertex
 10
16.47629190922131
 20
4.21115727696285
 30
0.0
 70
     8
  0
VERTEX
  5
1EB0
330
1E59
100
AcDbEntity
  8
image
  6
Continuous
100
AcDbVertex
100
AcDb2dVertex
 10
16.50111730852921
 20
4.204397082958103
 30
0.0
 70
     8
  0
VERTEX
  5
1EB1
330
1E59
100
AcDbEntity
  8
image
  6
Continuous
100
AcDbVertex
100
AcDb2dVertex
 10
16.52777321756218
 20
4.198828195489033
 30
0.0
 70
     8
  0
VERTEX
  5
1EB2
330
1E59
100
AcDbEntity
  8
image
  6
Continuous
100
AcDbVertex
100
AcDb2dVertex
 10
16.55630220636249
 20
4.19439388582337
 30
0.0
 70
     8
  0
VERTEX
  5
1EB3
330
1E59
100
AcDbEntity
  8
image
  6
Continuous
100
AcDbVertex
100
AcDb2dVertex
 10
16.58674684497244
 20
4.191037425228843
 30
0.0
 70
     8
  0
VERTEX
  5
1EB4
330
1E59
100
AcDbEntity
  8
image
  6
Continuous
100
AcDbVertex
100
AcDb2dVertex
 10
16.61914970343431
 20
4.188702084973185
 30
0.0
 70
     8
  0
VERTEX
  5
1EB5
330
1E59
100
AcDbEntity
  8
image
  6
Continuous
100
AcDbVertex
100
AcDb2dVertex
 10
16.65355335179038
 20
4.187331136324126
 30
0.0
 70
     8
  0
VERTEX
  5
1EB6
330
1E59
100
AcDbEntity
  8
image
  6
Continuous
100
AcDbVertex
100
AcDb2dVertex
 10
16.6899814400593
 20
4.186846577169057
 30
0.0
 70
     8
  0
VERTEX
  5
1EB7
330
1E59
100
AcDbEntity
  8
image
  6
Continuous
100
AcDbVertex
100
AcDb2dVertex
 10
16.72838193816516
 20
4.187085311874017
 30
0.0
 70
     8
  0
VERTEX
  5
1EB8
330
1E59
100
AcDbEntity
  8
image
  6
Continuous
100
AcDbVertex
100
AcDb2dVertex
 10
16.76868389600842
 20
4.187862971424709
 30
0.0
 70
     8
  0
VERTEX
  5
1EB9
330
1E59
100
AcDbEntity
  8
image
  6
Continuous
100
AcDbVertex
100
AcDb2dVertex
 10
16.81081636348952
 20
4.188995186806833
 30
0.0
 70
     8
  0
VERTEX
  5
1EBA
330
1E59
100
AcDbEntity
  8
image
  6
Continuous
100
AcDbVertex
100
AcDb2dVertex
 10
16.85470839050892
 20
4.190297589006091
 30
0.0
 70
     8
  0
VERTEX
  5
1EBB
330
1E59
100
AcDbEntity
  8
image
  6
Continuous
100
AcDbVertex
100
AcDb2dVertex
 10
16.90028902696707
 20
4.191585809008182
 30
0.0
 70
     8
  0
VERTEX
  5
1EBC
330
1E59
100
AcDbEntity
  8
image
  6
Continuous
100
AcDbVertex
100
AcDb2dVertex
 10
16.94748732276442
 20
4.192675477798808
 30
0.0
 70
     8
  0
VERTEX
  5
1EBD
330
1E59
100
AcDbEntity
  8
image
  6
Continuous
100
AcDbVertex
100
AcDb2dVertex
 10
16.99623232780143
 20
4.193382226363673
 30
0.0
 70
     8
  0
VERTEX
  5
1EBE
330
1E59
100
AcDbEntity
  8
image
  6
Continuous
100
AcDbVertex
100
AcDb2dVertex
 10
17.04637268203435
 20
4.193566596082885
 30
0.0
 70
     8
  0
VERTEX
  5
1EBF
330
1E59
100
AcDbEntity
  8
image
  6
Continuous
100
AcDbVertex
100
AcDb2dVertex
 10
17.09743538564261
 20
4.19326876991421
 30
0.0
 70
     8
  0
VERTEX
  5
1EC0
330
1E59
100
AcDbEntity
  8
image
  6
Continuous
100
AcDbVertex
100
AcDb2dVertex
 10
17.14886702886147
 20
4.192573841209819
 30
0.0
 70
     8
  0
VERTEX
  5
1EC1
330
1E59
100
AcDbEntity
  8
image
  6
Continuous
100
AcDbVertex
100
AcDb2dVertex
 10
17.20011420192617
 20
4.191566903321885
 30
0.0
 70
     8
  0
VERTEX
  5
1EC2
330
1E59
100
AcDbEntity
  8
image
  6
Continuous
100
AcDbVertex
100
AcDb2dVertex
 10
17.25062349507195
 20
4.190333049602584
 30
0.0
 70
     8
  0
VERTEX
  5
1EC3
330
1E59
100
AcDbEntity
  8
image
  6
Continuous
100
AcDbVertex
100
AcDb2dVertex
 10
17.29984149853404
 20
4.188957373404087
 30
0.0
 70
     8
  0
VERTEX
  5
1EC4
330
1E59
100
AcDbEntity
  8
image
  6
Continuous
100
AcDbVertex
100
AcDb2dVertex
 10
17.34721480254771
 20
4.187524968078569
 30
0.0
 70
     8
  0
VERTEX
  5
1EC5
330
1E59
100
AcDbEntity
  8
image
  6
Continuous
100
AcDbVertex
100
AcDb2dVertex
 10
17.39218999734818
 20
4.186120926978203
 30
0.0
 70
     8
  0
VERTEX
  5
1EC6
330
1E59
100
AcDbEntity
  8
image
  6
Continuous
100
AcDbVertex
100
AcDb2dVertex
 10
17.4343153681215
 20
4.184830343464561
 30
0.0
 70
     8
  0
VERTEX
  5
1EC7
330
1E59
100
AcDbEntity
  8
image
  6
Continuous
100
AcDbVertex
100
AcDb2dVertex
 10
17.47354597985697
 20
4.183738310936811
 30
0.0
 70
     8
  0
VERTEX
  5
1EC8
330
1E59
100
AcDbEntity
  8
image
  6
Continuous
100
AcDbVertex
100
AcDb2dVertex
 10
17.50993859249468
 20
4.18292992280352
 30
0.0
 70
     8
  0
VERTEX
  5
1EC9
330
1E59
100
AcDbEntity
  8
image
  6
Continuous
100
AcDbVertex
100
AcDb2dVertex
 10
17.5435499659747
 20
4.182490272473254
 30
0.0
 70
     8
  0
VERTEX
  5
1ECA
330
1E59
100
AcDbEntity
  8
image
  6
Continuous
100
AcDbVertex
100
AcDb2dVertex
 10
17.57443686023714
 20
4.18250445335458
 30
0.0
 70
     8
  0
VERTEX
  5
1ECB
330
1E59
100
AcDbEntity
  8
image
  6
Continuous
100
AcDbVertex
100
AcDb2dVertex
 10
17.60265603522209
 20
4.183057558856064
 30
0.0
 70
     8
  0
VERTEX
  5
1ECC
330
1E59
100
AcDbEntity
  8
image
  6
Continuous
100
AcDbVertex
100
AcDb2dVertex
 10
17.62826425086964
 20
4.184234682386273
 30
0.0
 70
     8
  0
VERTEX
  5
1ECD
330
1E59
100
AcDbEntity
  8
image
  6
Continuous
100
AcDbVertex
100
AcDb2dVertex
 10
17.65131826711987
 20
4.186120917353775
 30
0.0
 70
     8
  0
VERTEX
  5
1ECE
330
1E59
100
AcDbEntity
  8
image
  6
Continuous
100
AcDbVertex
100
AcDb2dVertex
 10
17.67186960304598
 20
4.188764284817198
 30
0.0
 70
     8
  0
VERTEX
  5
1ECF
330
1E59
100
AcDbEntity
  8
image
  6
Continuous
100
AcDbVertex
100
AcDb2dVertex
 10
17.68994881425347
 20
4.192064516435432
 30
0.0
 70
     8
  0
VERTEX
  5
1ED0
330
1E59
100
AcDbEntity
  8
image
  6
Continuous
100
AcDbVertex
100
AcDb2dVertex
 10
17.70558121548098
 20
4.195884271517428
 30
0.0
 70
     8
  0
VERTEX
  5
1ED1
330
1E59
100
AcDbEntity
  8
image
  6
Continuous
100
AcDbVertex
100
AcDb2dVertex
 10
17.71879212146711
 20
4.200086209372139
 30
0.0
 70
     8
  0
VERTEX
  5
1ED2
330
1E59
100
AcDbEntity
  8
image
  6
Continuous
100
AcDbVertex
100
AcDb2dVertex
 10
17.72960684695046
 20
4.204532989308518
 30
0.0
 70
     8
  0
VERTEX
  5
1ED3
330
1E59
100
AcDbEntity
  8
image
  6
Continuous
100
AcDbVertex
100
AcDb2dVertex
 10
17.73805070666966
 20
4.209087270635515
 30
0.0
 70
     8
  0
VERTEX
  5
1ED4
330
1E59
100
AcDbEntity
  8
image
  6
Continuous
100
AcDbVertex
100
AcDb2dVertex
 10
17.74414901536333
 20
4.213611712662082
 30
0.0
 70
     8
  0
VERTEX
  5
1ED5
330
1E59
100
AcDbEntity
  8
image
  6
Continuous
100
AcDbVertex
100
AcDb2dVertex
 10
17.74792708777006
 20
4.217968974697173
 30
0.0
 70
     8
  0
VERTEX
  5
1ED6
330
1E59
100
AcDbEntity
  8
image
  6
Continuous
100
AcDbVertex
100
AcDb2dVertex
 10
17.74941464712814
 20
4.222040001665302
 30
0.0
 70
     8
  0
VERTEX
  5
1ED7
330
1E59
100
AcDbEntity
  8
image
  6
Continuous
100
AcDbVertex
100
AcDb2dVertex
 10
17.74865905067449
 20
4.22577888095323
 30
0.0
 70
     8
  0
VERTEX
  5
1ED8
330
1E59
100
AcDbEntity
  8
image
  6
Continuous
100
AcDbVertex
100
AcDb2dVertex
 10
17.74571206414569
 20
4.229157985563282
 30
0.0
 70
     8
  0
VERTEX
  5
1ED9
330
1E59
100
AcDbEntity
  8
image
  6
Continuous
100
AcDbVertex
100
AcDb2dVertex
 10
17.74062545327832
 20
4.232149688497782
 30
0.0
 70
     8
  0
VERTEX
  5
1EDA
330
1E59
100
AcDbEntity
  8
image
  6
Continuous
100
AcDbVertex
100
AcDb2dVertex
 10
17.73345098380897
 20
4.234726362759055
 30
0.0
 70
     8
  0
VERTEX
  5
1EDB
330
1E59
100
AcDbEntity
  8
image
  6
Continuous
100
AcDbVertex
100
AcDb2dVertex
 10
17.72424042147422
 20
4.236860381349424
 30
0.0
 70
     8
  0
VERTEX
  5
1EDC
330
1E59
100
AcDbEntity
  8
image
  6
Continuous
100
AcDbVertex
100
AcDb2dVertex
 10
17.71304553201066
 20
4.238524117271214
 30
0.0
 70
     8
  0
VERTEX
  5
1EDD
330
1E59
100
AcDbEntity
  8
image
  6
Continuous
100
AcDbVertex
100
AcDb2dVertex
 10
17.69991808115486
 20
4.239689943526751
 30
0.0
 70
     8
  0
VERTEX
  5
1EDE
330
1E59
100
AcDbEntity
  8
image
  6
Continuous
100
AcDbVertex
100
AcDb2dVertex
 10
17.68493987937703
 20
4.240346533225564
 30
0.0
 70
     8
  0
VERTEX
  5
1EDF
330
1E59
100
AcDbEntity
  8
image
  6
Continuous
100
AcDbVertex
100
AcDb2dVertex
 10
17.66831291608186
 20
4.240547759906013
 30
0.0
 70
     8
  0
VERTEX
  5
1EE0
330
1E59
100
AcDbEntity
  8
image
  6
Continuous
100
AcDbVertex
100
AcDb2dVertex
 10
17.65026922540766
 20
4.240363797213662
 30
0.0
 70
     8
  0
VERTEX
  5
1EE1
330
1E59
100
AcDbEntity
  8
image
  6
Continuous
100
AcDbVertex
100
AcDb2dVertex
 10
17.63104084149272
 20
4.23986481879408
 30
0.0
 70
     8
  0
VERTEX
  5
1EE2
330
1E59
100
AcDbEntity
  8
image
  6
Continuous
100
AcDbVertex
100
AcDb2dVertex
 10
17.61085979847536
 20
4.239120998292831
 30
0.0
 70
     8
  0
VERTEX
  5
1EE3
330
1E59
100
AcDbEntity
  8
image
  6
Continuous
100
AcDbVertex
100
AcDb2dVertex
 10
17.58995813049389
 20
4.23820250935548
 30
0.0
 70
     8
  0
VERTEX
  5
1EE4
330
1E59
100
AcDbEntity
  8
image
  6
Continuous
100
AcDbVertex
100
AcDb2dVertex
 10
17.5685678716866
 20
4.237179525627595
 30
0.0
 70
     8
  0
VERTEX
  5
1EE5
330
1E59
100
AcDbEntity
  8
image
  6
Continuous
100
AcDbVertex
100
AcDb2dVertex
 10
17.54692105619181
 20
4.236122220754739
 30
0.0
 70
     8
  0
VERTEX
  5
1EE6
330
1E59
100
AcDbEntity
  8
image
  6
Continuous
100
AcDbVertex
100
AcDb2dVertex
 10
17.5251784466983
 20
4.235088325857191
 30
0.0
 70
     8
  0
VERTEX
  5
1EE7
330
1E59
100
AcDbEntity
  8
image
  6
Continuous
100
AcDbVertex
100
AcDb2dVertex
 10
17.50321572009671
 20
4.234085801954056
 30
0.0
 70
     8
  0
VERTEX
  5
1EE8
330
1E59
100
AcDbEntity
  8
image
  6
Continuous
100
AcDbVertex
100
AcDb2dVertex
 10
17.48083728182814
 20
4.233110167539156
 30
0.0
 70
     8
  0
VERTEX
  5
1EE9
330
1E59
100
AcDbEntity
  8
image
  6
Continuous
100
AcDbVertex
100
AcDb2dVertex
 10
17.45784753733373
 20
4.232156941106308
 30
0.0
 70
     8
  0
VERTEX
  5
1EEA
330
1E59
100
AcDbEntity
  8
image
  6
Continuous
100
AcDbVertex
100
AcDb2dVertex
 10
17.43405089205457
 20
4.231221641149331
 30
0.0
 70
     8
  0
VERTEX
  5
1EEB
330
1E59
100
AcDbEntity
  8
image
  6
Continuous
100
AcDbVertex
100
AcDb2dVertex
 10
17.40925175143178
 20
4.230299786162043
 30
0.0
 70
     8
  0
VERTEX
  5
1EEC
330
1E59
100
AcDbEntity
  8
image
  6
Continuous
100
AcDbVertex
100
AcDb2dVertex
 10
17.38325452090647
 20
4.229386894638263
 30
0.0
 70
     8
  0
VERTEX
  5
1EED
330
1E59
100
AcDbEntity
  8
image
  6
Continuous
100
AcDbVertex
100
AcDb2dVertex
 10
17.35586360591976
 20
4.228478485071811
 30
0.0
 70
     8
  0
VERTEX
  5
1EEE
330
1E59
100
AcDbEntity
  8
image
  6
Continuous
100
AcDbVertex
100
AcDb2dVertex
 10
17.32690891599886
 20
4.227573186564328
 30
0.0
 70
     8
  0
VERTEX
  5
1EEF
330
1E59
100
AcDbEntity
  8
image
  6
Continuous
100
AcDbVertex
100
AcDb2dVertex
 10
17.29632237701538
 20
4.226682070648764
 30
0.0
 70
     8
  0
VERTEX
  5
1EF0
330
1E59
100
AcDbEntity
  8
image
  6
Continuous
100
AcDbVertex
100
AcDb2dVertex
 10
17.26406141892704
 20
4.225819319465889
 30
0.0
 70
     8
  0
VERTEX
  5
1EF1
330
1E59
100
AcDbEntity
  8
image
  6
Continuous
100
AcDbVertex
100
AcDb2dVertex
 10
17.23008347169155
 20
4.224999115156477
 30
0.0
 70
     8
  0
VERTEX
  5
1EF2
330
1E59
100
AcDbEntity
  8
image
  6
Continuous
100
AcDbVertex
100
AcDb2dVertex
 10
17.19434596526664
 20
4.224235639861301
 30
0.0
 70
     8
  0
VERTEX
  5
1EF3
330
1E59
100
AcDbEntity
  8
image
  6
Continuous
100
AcDbVertex
100
AcDb2dVertex
 10
17.15680632961001
 20
4.223543075721131
 30
0.0
 70
     8
  0
VERTEX
  5
1EF4
330
1E59
100
AcDbEntity
  8
image
  6
Continuous
100
AcDbVertex
100
AcDb2dVertex
 10
17.11742199467937
 20
4.222935604876743
 30
0.0
 70
     8
  0
VERTEX
  5
1EF5
330
1E59
100
AcDbEntity
  8
image
  6
Continuous
100
AcDbVertex
100
AcDb2dVertex
 10
17.07615039043245
 20
4.222427409468908
 30
0.0
 70
     8
  0
VERTEX
  5
1EF6
330
1E59
100
AcDbEntity
  8
image
  6
Continuous
100
AcDbVertex
100
AcDb2dVertex
 10
17.0330530067898
 20
4.22203739906565
 30
0.0
 70
     8
  0
VERTEX
  5
1EF7
330
1E59
100
AcDbEntity
  8
image
  6
Continuous
100
AcDbVertex
100
AcDb2dVertex
 10
16.98860757352339
 20
4.221803392944
 30
0.0
 70
     8
  0
VERTEX
  5
1EF8
330
1E59
100
AcDbEntity
  8
image
  6
Continuous
100
AcDbVertex
100
AcDb2dVertex
 10
16.943395880368
 20
4.221767937808242
 30
0.0
 70
     8
  0
VERTEX
  5
1EF9
330
1E59
100
AcDbEntity
  8
image
  6
Continuous
100
AcDbVertex
100
AcDb2dVertex
 10
16.89799971705846
 20
4.22197358036266
 30
0.0
 70
     8
  0
VERTEX
  5
1EFA
330
1E59
100
AcDbEntity
  8
image
  6
Continuous
100
AcDbVertex
100
AcDb2dVertex
 10
16.85300087332955
 20
4.222462867311536
 30
0.0
 70
     8
  0
VERTEX
  5
1EFB
330
1E59
100
AcDbEntity
  8
image
  6
Continuous
100
AcDbVertex
100
AcDb2dVertex
 10
16.80898113891608
 20
4.223278345359155
 30
0.0
 70
     8
  0
VERTEX
  5
1EFC
330
1E59
100
AcDbEntity
  8
image
  6
Continuous
100
AcDbVertex
100
AcDb2dVertex
 10
16.76652230355287
 20
4.224462561209798
 30
0.0
 70
     8
  0
VERTEX
  5
1EFD
330
1E59
100
AcDbEntity
  8
image
  6
Continuous
100
AcDbVertex
100
AcDb2dVertex
 10
16.72620615697469
 20
4.22605806156775
 30
0.0
 70
     8
  0
VERTEX
  5
1EFE
330
1E59
100
AcDbEntity
  8
image
  6
Continuous
100
AcDbVertex
100
AcDb2dVertex
 10
16.6885269839942
 20
4.228097938310987
 30
0.0
 70
     8
  0
VERTEX
  5
1EFF
330
1E59
100
AcDbEntity
  8
image
  6
Continuous
100
AcDbVertex
100
AcDb2dVertex
 10
16.65362904973529
 20
4.230577464012256
 30
0.0
 70
     8
  0
VERTEX
  5
1F00
330
1E59
100
AcDbEntity
  8
image
  6
Continuous
100
AcDbVertex
100
AcDb2dVertex
 10
16.62156911439972
 20
4.233482456418
 30
0.0
 70
     8
  0
VERTEX
  5
1F01
330
1E59
100
AcDbEntity
  8
image
  6
Continuous
100
AcDbVertex
100
AcDb2dVertex
 10
16.59240393818922
 20
4.236798733274659
 30
0.0
 70
     8
  0
VERTEX
  5
1F02
330
1E59
100
AcDbEntity
  8
image
  6
Continuous
100
AcDbVertex
100
AcDb2dVertex
 10
16.56619028130554
 20
4.240512112328675
 30
0.0
 70
     8
  0
VERTEX
  5
1F03
330
1E59
100
AcDbEntity
  8
image
  6
Continuous
100
AcDbVertex
100
AcDb2dVertex
 10
16.54298490395042
 20
4.24460841132649
 30
0.0
 70
     8
  0
VERTEX
  5
1F04
330
1E59
100
AcDbEntity
  8
image
  6
Continuous
100
AcDbVertex
100
AcDb2dVertex
 10
16.5228445663256
 20
4.249073448014542
 30
0.0
 70
     8
  0
VERTEX
  5
1F05
330
1E59
100
AcDbEntity
  8
image
  6
Continuous
100
AcDbVertex
100
AcDb2dVertex
 10
16.50582602863282
 20
4.253893040139275
 30
0.0
 70
     8
  0
VERTEX
  5
1F06
330
1E59
100
AcDbEntity
  8
image
  6
Continuous
100
AcDbVertex
100
AcDb2dVertex
 10
16.49193638602449
 20
4.259050641747602
 30
0.0
 70
     8
  0
VERTEX
  5
1F07
330
1E59
100
AcDbEntity
  8
image
  6
Continuous
100
AcDbVertex
100
AcDb2dVertex
 10
16.48098407345568
 20
4.264520252088326
 30
0.0
 70
     8
  0
VERTEX
  5
1F08
330
1E59
100
AcDbEntity
  8
image
  6
Continuous
100
AcDbVertex
100
AcDb2dVertex
 10
16.47272786083215
 20
4.270273506710721
 30
0.0
 70
     8
  0
VERTEX
  5
1F09
330
1E59
100
AcDbEntity
  8
image
  6
Continuous
100
AcDbVertex
100
AcDb2dVertex
 10
16.46692651805963
 20
4.276282041164066
 30
0.0
 70
     8
  0
VERTEX
  5
1F0A
330
1E59
100
AcDbEntity
  8
image
  6
Continuous
100
AcDbVertex
100
AcDb2dVertex
 10
16.46333881504389
 20
4.282517490997633
 30
0.0
 70
     8
  0
VERTEX
  5
1F0B
330
1E59
100
AcDbEntity
  8
image
  6
Continuous
100
AcDbVertex
100
AcDb2dVertex
 10
16.46172352169064
 20
4.288951491760698
 30
0.0
 70
     8
  0
VERTEX
  5
1F0C
330
1E59
100
AcDbEntity
  8
image
  6
Continuous
100
AcDbVertex
100
AcDb2dVertex
 10
16.46183940790565
 20
4.295555679002539
 30
0.0
 70
     8
  0
VERTEX
  5
1F0D
330
1E59
100
AcDbEntity
  8
image
  6
Continuous
100
AcDbVertex
100
AcDb2dVertex
 10
16.46344524359466
 20
4.30230168827243
 30
0.0
 70
     8
  0
VERTEX
  5
1F0E
330
1E59
100
AcDbEntity
  8
image
  6
Continuous
100
AcDbVertex
100
AcDb2dVertex
 10
16.46630689369953
 20
4.309139881795701
 30
0.0
 70
     8
  0
VERTEX
  5
1F0F
330
1E59
100
AcDbEntity
  8
image
  6
Continuous
100
AcDbVertex
100
AcDb2dVertex
 10
16.4702186033066
 20
4.315935528501902
 30
0.0
 70
     8
  0
VERTEX
  5
1F10
330
1E59
100
AcDbEntity
  8
image
  6
Continuous
100
AcDbVertex
100
AcDb2dVertex
 10
16.47498171253835
 20
4.322532623996639
 30
0.0
 70
     8
  0
VERTEX
  5
1F11
330
1E59
100
AcDbEntity
  8
image
  6
Continuous
100
AcDbVertex
100
AcDb2dVertex
 10
16.48039756151723
 20
4.328775163885516
 30
0.0
 70
     8
  0
VERTEX
  5
1F12
330
1E59
100
AcDbEntity
  8
image
  6
Continuous
100
AcDbVertex
100
AcDb2dVertex
 10
16.48626749036571
 20
4.334507143774138
 30
0.0
 70
     8
  0
VERTEX
  5
1F13
330
1E59
100
AcDbEntity
  8
image
  6
Continuous
100
AcDbVertex
100
AcDb2dVertex
 10
16.49239283920624
 20
4.339572559268111
 30
0.0
 70
     8
  0
VERTEX
  5
1F14
330
1E59
100
AcDbEntity
  8
image
  6
Continuous
100
AcDbVertex
100
AcDb2dVertex
 10
16.49857494816131
 20
4.343815405973039
 30
0.0
 70
     8
  0
VERTEX
  5
1F15
330
1E59
100
AcDbEntity
  8
image
  6
Continuous
100
AcDbVertex
100
AcDb2dVertex
 10
16.50461515735336
 20
4.347079679494528
 30
0.0
 70
     8
  0
VERTEX
  5
1F16
330
1E59
100
AcDbEntity
  8
image
  6
Continuous
100
AcDbVertex
100
AcDb2dVertex
 10
16.51035974187197
 20
4.349254285804398
 30
0.0
 70
     8
  0
VERTEX
  5
1F17
330
1E59
100
AcDbEntity
  8
image
  6
Continuous
100
AcDbVertex
100
AcDb2dVertex
 10
16.51583471667515
 20
4.350407772339331
 30
0.0
 70
     8
  0
VERTEX
  5
1F18
330
1E59
100
AcDbEntity
  8
image
  6
Continuous
100
AcDbVertex
100
AcDb2dVertex
 10
16.52111103168801
 20
4.350653596902225
 30
0.0
 70
     8
  0
VERTEX
  5
1F19
330
1E59
100
AcDbEntity
  8
image
  6
Continuous
100
AcDbVertex
100
AcDb2dVertex
 10
16.52625963683566
 20
4.35010521729598
 30
0.0
 70
     8
  0
VERTEX
  5
1F1A
330
1E59
100
AcDbEntity
  8
image
  6
Continuous
100
AcDbVertex
100
AcDb2dVertex
 10
16.53135148204322
 20
4.348876091323491
 30
0.0
 70
     8
  0
VERTEX
  5
1F1B
330
1E59
100
AcDbEntity
  8
image
  6
Continuous
100
AcDbVertex
100
AcDb2dVertex
 10
16.53645751723581
 20
4.347079676787657
 30
0.0
 70
     8
  0
VERTEX
  5
1F1C
330
1E59
100
AcDbEntity
  8
image
  6
Continuous
100
AcDbVertex
100
AcDb2dVertex
 10
16.54164869233853
 20
4.344829431491377
 30
0.0
 70
     8
  0
VERTEX
  5
1F1D
330
1E59
100
AcDbEntity
  8
image
  6
Continuous
100
AcDbVertex
100
AcDb2dVertex
 10
16.5469959572765
 20
4.342238813237548
 30
0.0
 70
     8
  0
VERTEX
  5
1F1E
330
1E59
100
AcDbEntity
  8
image
  6
Continuous
100
AcDbVertex
100
AcDb2dVertex
 10
16.55258681698644
 20
4.339409461284436
 30
0.0
 70
     8
  0
VERTEX
  5
1F1F
330
1E59
100
AcDbEntity
  8
image
  6
Continuous
100
AcDbVertex
100
AcDb2dVertex
 10
16.55857499645145
 20
4.336395740711776
 30
0.0
 70
     8
  0
VERTEX
  5
1F20
330
1E59
100
AcDbEntity
  8
image
  6
Continuous
100
AcDbVertex
100
AcDb2dVertex
 10
16.56513077566624
 20
4.333240198054674
 30
0.0
 70
     8
  0
VERTEX
  5
1F21
330
1E59
100
AcDbEntity
  8
image
  6
Continuous
100
AcDbVertex
100
AcDb2dVertex
 10
16.57242443462552
 20
4.329985379848233
 30
0.0
 70
     8
  0
VERTEX
  5
1F22
330
1E59
100
AcDbEntity
  8
image
  6
Continuous
100
AcDbVertex
100
AcDb2dVertex
 10
16.58062625332399
 20
4.326673832627556
 30
0.0
 70
     8
  0
VERTEX
  5
1F23
330
1E59
100
AcDbEntity
  8
image
  6
Continuous
100
AcDbVertex
100
AcDb2dVertex
 10
16.58990651175636
 20
4.323348102927749
 30
0.0
 70
     8
  0
VERTEX
  5
1F24
330
1E59
100
AcDbEntity
  8
image
  6
Continuous
100
AcDbVertex
100
AcDb2dVertex
 10
16.60043548991735
 20
4.320050737283914
 30
0.0
 70
     8
  0
VERTEX
  5
1F25
330
1E59
100
AcDbEntity
  8
image
  6
Continuous
100
AcDbVertex
100
AcDb2dVertex
 10
16.61238346780165
 20
4.316824282231155
 30
0.0
 70
     8
  0
VERTEX
  5
1F26
330
1E59
100
AcDbEntity
  8
image
  6
Continuous
100
AcDbVertex
100
AcDb2dVertex
 10
16.62591599539443
 20
4.31371128435157
 30
0.0
 70
     8
  0
VERTEX
  5
1F27
330
1E59
100
AcDbEntity
  8
image
  6
Continuous
100
AcDbVertex
100
AcDb2dVertex
 10
16.64117970264268
 20
4.310754290415236
 30
0.0
 70
     8
  0
VERTEX
  5
1F28
330
1E59
100
AcDbEntity
  8
image
  6
Continuous
100
AcDbVertex
100
AcDb2dVertex
 10
16.65831648948385
 20
4.307995847239221
 30
0.0
 70
     8
  0
VERTEX
  5
1F29
330
1E59
100
AcDbEntity
  8
image
  6
Continuous
100
AcDbVertex
100
AcDb2dVertex
 10
16.67746825585537
 20
4.305478501640595
 30
0.0
 70
     8
  0
VERTEX
  5
1F2A
330
1E59
100
AcDbEntity
  8
image
  6
Continuous
100
AcDbVertex
100
AcDb2dVertex
 10
16.6987769016947
 20
4.303244800436427
 30
0.0
 70
     8
  0
VERTEX
  5
1F2B
330
1E59
100
AcDbEntity
  8
image
  6
Continuous
100
AcDbVertex
100
AcDb2dVertex
 10
16.72238432693928
 20
4.301337290443789
 30
0.0
 70
     8
  0
VERTEX
  5
1F2C
330
1E59
100
AcDbEntity
  8
image
  6
Continuous
100
AcDbVertex
100
AcDb2dVertex
 10
16.74843243152655
 20
4.299798518479748
 30
0.0
 70
     8
  0
VERTEX
  5
1F2D
330
1E59
100
AcDbEntity
  8
image
  6
Continuous
100
AcDbVertex
100
AcDb2dVertex
 10
16.77706311539397
 20
4.298671031361373
 30
0.0
 70
     8
  0
VERTEX
  5
1F2E
330
1E59
100
AcDbEntity
  8
image
  6
Continuous
100
AcDbVertex
100
AcDb2dVertex
 10
16.80830239351406
 20
4.297978466234324
 30
0.0
 70
     8
  0
VERTEX
  5
1F2F
330
1E59
100
AcDbEntity
  8
image
  6
Continuous
100
AcDbVertex
100
AcDb2dVertex
 10
16.84171274099977
 20
4.297668821558612
 30
0.0
 70
     8
  0
VERTEX
  5
1F30
330
1E59
100
AcDbEntity
  8
image
  6
Continuous
100
AcDbVertex
100
AcDb2dVertex
 10
16.87674074799911
 20
4.297671186122834
 30
0.0
 70
     8
  0
VERTEX
  5
1F31
330
1E59
100
AcDbEntity
  8
image
  6
Continuous
100
AcDbVertex
100
AcDb2dVertex
 10
16.91283300466011
 20
4.297914648715591
 30
0.0
 70
     8
  0
VERTEX
  5
1F32
330
1E59
100
AcDbEntity
  8
image
  6
Continuous
100
AcDbVertex
100
AcDb2dVertex
 10
16.94943610113081
 20
4.29832829812548
 30
0.0
 70
     8
  0
VERTEX
  5
1F33
330
1E59
100
AcDbEntity
  8
image
  6
Continuous
100
AcDbVertex
100
AcDb2dVertex
 10
16.98599662755922
 20
4.298841223141102
 30
0.0
 70
     8
  0
VERTEX
  5
1F34
330
1E59
100
AcDbEntity
  8
image
  6
Continuous
100
AcDbVertex
100
AcDb2dVertex
 10
17.02196117409336
 20
4.299382512551056
 30
0.0
 70
     8
  0
VERTEX
  5
1F35
330
1E59
100
AcDbEntity
  8
image
  6
Continuous
100
AcDbVertex
100
AcDb2dVertex
 10
17.05677633088128
 20
4.299881255143939
 30
0.0
 70
     8
  0
VERTEX
  5
1F36
330
1E59
100
AcDbEntity
  8
image
  6
Continuous
100
AcDbVertex
100
AcDb2dVertex
 10
17.0900258580425
 20
4.300278358243587
 30
0.0
 70
     8
  0
VERTEX
  5
1F37
330
1E59
100
AcDbEntity
  8
image
  6
Continuous
100
AcDbVertex
100
AcDb2dVertex
 10
17.12184219558259
 20
4.300562003314762
 30
0.0
 70
     8
  0
VERTEX
  5
1F38
330
1E59
100
AcDbEntity
  8
image
  6
Continuous
100
AcDbVertex
100
AcDb2dVertex
 10
17.15249495347865
 20
4.300732190357469
 30
0.0
 70
     8
  0
VERTEX
  5
1F39
330
1E59
100
AcDbEntity
  8
image
  6
Continuous
100
AcDbVertex
100
AcDb2dVertex
 10
17.18225374170775
 20
4.300788919371703
 30
0.0
 70
     8
  0
VERTEX
  5
1F3A
330
1E59
100
AcDbEntity
  8
image
  6
Continuous
100
AcDbVertex
100
AcDb2dVertex
 10
17.21138817024698
 20
4.300732190357469
 30
0.0
 70
     8
  0
VERTEX
  5
1F3B
330
1E59
100
AcDbEntity
  8
image
  6
Continuous
100
AcDbVertex
100
AcDb2dVertex
 10
17.24016784907342
 20
4.300562003314762
 30
0.0
 70
     8
  0
VERTEX
  5
1F3C
330
1E59
100
AcDbEntity
  8
image
  6
Continuous
100
AcDbVertex
100
AcDb2dVertex
 10
17.26886238816416
 20
4.300278358243587
 30
0.0
 70
     8
  0
VERTEX
  5
1F3D
330
1E59
100
AcDbEntity
  8
image
  6
Continuous
100
AcDbVertex
100
AcDb2dVertex
 10
17.29774139749628
 20
4.299881255143939
 30
0.0
 70
     8
  0
VERTEX
  5
1F3E
330
1E59
100
AcDbEntity
  8
image
  6
Continuous
100
AcDbVertex
100
AcDb2dVertex
 10
17.32696333204789
 20
4.299377785142602
 30
0.0
 70
     8
  0
VERTEX
  5
1F3F
330
1E59
100
AcDbEntity
  8
image
  6
Continuous
100
AcDbVertex
100
AcDb2dVertex
 10
17.35624202680124
 20
4.29880340387347
 30
0.0
 70
     8
  0
VERTEX
  5
1F40
330
1E59
100
AcDbEntity
  8
image
  6
Continuous
100
AcDbVertex
100
AcDb2dVertex
 10
17.38518016173962
 20
4.29820065809722
 30
0.0
 70
     8
  0
VERTEX
  5
1F41
330
1E59
100
AcDbEntity
  8
image
  6
Continuous
100
AcDbVertex
100
AcDb2dVertex
 10
17.41338041684629
 20
4.297612094574529
 30
0.0
 70
     8
  0
VERTEX
  5
1F42
330
1E59
100
AcDbEntity
  8
image
  6
Continuous
100
AcDbVertex
100
AcDb2dVertex
 10
17.44044547210453
 20
4.297080260066074
 30
0.0
 70
     8
  0
VERTEX
  5
1F43
330
1E59
100
AcDbEntity
  8
image
  6
Continuous
100
AcDbVertex
100
AcDb2dVertex
 10
17.46597800749763
 20
4.29664770133253
 30
0.0
 70
     8
  0
VERTEX
  5
1F44
330
1E59
100
AcDbEntity
  8
image
  6
Continuous
100
AcDbVertex
100
AcDb2dVertex
 10
17.48958070300885
 20
4.296356965134574
 30
0.0
 70
     8
  0
VERTEX
  5
1F45
330
1E59
100
AcDbEntity
  8
image
  6
Continuous
100
AcDbVertex
100
AcDb2dVertex
 10
17.51085623862148
 20
4.296250598232883
 30
0.0
 70
     8
  0
VERTEX
  5
1F46
330
1E59
100
AcDbEntity
  8
image
  6
Continuous
100
AcDbVertex
100
AcDb2dVertex
 10
17.52954446431937
 20
4.296364056242556
 30
0.0
 70
     8
  0
VERTEX
  5
1F47
330
1E59
100
AcDbEntity
  8
image
  6
Continuous
100
AcDbVertex
100
AcDb2dVertex
 10
17.5459339100887
 20
4.296704430196384
 30
0.0
 70
     8
  0
VERTEX
  5
1F48
330
1E59
100
AcDbEntity
  8
image
  6
Continuous
100
AcDbVertex
100
AcDb2dVertex
 10
17.56045027591627
 20
4.29727171998158
 30
0.0
 70
     8
  0
VERTEX
  5
1F49
330
1E59
100
AcDbEntity
  8
image
  6
Continuous
100
AcDbVertex
100
AcDb2dVertex
 10
17.57351926178881
 20
4.298065925485357
 30
0.0
 70
     8
  0
VERTEX
  5
1F4A
330
1E59
100
AcDbEntity
  8
image
  6
Continuous
100
AcDbVertex
100
AcDb2dVertex
 10
17.58556656769311
 20
4.299087046594932
 30
0.0
 70
     8
  0
VERTEX
  5
1F4B
330
1E59
100
AcDbEntity
  8
image
  6
Continuous
100
AcDbVertex
100
AcDb2dVertex
 10
17.59701789361594
 20
4.300335083197516
 30
0.0
 70
     8
  0
VERTEX
  5
1F4C
330
1E59
100
AcDbEntity
  8
image
  6
Continuous
100
AcDbVertex
100
AcDb2dVertex
 10
17.60829893954406
 20
4.301810035180323
 30
0.0
 70
     8
  0
VERTEX
  5
1F4D
330
1E59
100
AcDbEntity
  8
image
  6
Continuous
100
AcDbVertex
100
AcDb2dVertex
 10
17.61983540546423
 20
4.303511902430567
 30
0.0
 70
     8
  0
VERTEX
  5
1F4E
330
1E59
100
AcDbEntity
  8
image
  6
Continuous
100
AcDbVertex
100
AcDb2dVertex
 10
17.63192528138175
 20
4.305450139680568
 30
0.0
 70
     8
  0
VERTEX
  5
1F4F
330
1E59
100
AcDbEntity
  8
image
  6
Continuous
100
AcDbVertex
100
AcDb2dVertex
 10
17.6443557173759
 20
4.30767202104306
 30
0.0
 70
     8
  0
VERTEX
  5
1F50
330
1E59
100
AcDbEntity
  8
image
  6
Continuous
100
AcDbVertex
100
AcDb2dVertex
 10
17.65678615354447
 20
4.310234275475888
 30
0.0
 70
     8
  0
VERTEX
  5
1F51
330
1E59
100
AcDbEntity
  8
image
  6
Continuous
100
AcDbVertex
100
AcDb2dVertex
 10
17.66887602998529
 20
4.313193631936893
 30
0.0
 70
     8
  0
VERTEX
  5
1F52
330
1E59
100
AcDbEntity
  8
image
  6
Continuous
100
AcDbVertex
100
AcDb2dVertex
 10
17.68028478679614
 20
4.316606819383918
 30
0.0
 70
     8
  0
VERTEX
  5
1F53
330
1E59
100
AcDbEntity
  8
image
  6
Continuous
100
AcDbVertex
100
AcDb2dVertex
 10
17.69067186407483
 20
4.320530566774803
 30
0.0
 70
     8
  0
VERTEX
  5
1F54
330
1E59
100
AcDbEntity
  8
image
  6
Continuous
100
AcDbVertex
100
AcDb2dVertex
 10
17.69969670191916
 20
4.325021603067392
 30
0.0
 70
     8
  0
VERTEX
  5
1F55
330
1E59
100
AcDbEntity
  8
image
  6
Continuous
100
AcDbVertex
100
AcDb2dVertex
 10
17.70701874042694
 20
4.330136657219527
 30
0.0
 70
     8
  0
VERTEX
  5
1F56
330
1E59
100
AcDbEntity
  8
image
  6
Continuous
100
AcDbVertex
100
AcDb2dVertex
 10
17.71238019466674
 20
4.335885184104509
 30
0.0
 70
     8
  0
VERTEX
  5
1F57
330
1E59
100
AcDbEntity
  8
image
  6
Continuous
100
AcDbVertex
100
AcDb2dVertex
 10
17.71585437959025
 20
4.342087542257476
 30
0.0
 70
     8
  0
VERTEX
  5
1F58
330
1E59
100
AcDbEntity
  8
image
  6
Continuous
100
AcDbVertex
100
AcDb2dVertex
 10
17.71759738511994
 20
4.348516816129025
 30
0.0
 70
     8
  0
VERTEX
  5
1F59
330
1E59
100
AcDbEntity
  8
image
  6
Continuous
100
AcDbVertex
100
AcDb2dVertex
 10
17.71776530117828
 20
4.354946090169753
 30
0.0
 70
     8
  0
VERTEX
  5
1F5A
330
1E59
100
AcDbEntity
  8
image
  6
Continuous
100
AcDbVertex
100
AcDb2dVertex
 10
17.71651421768774
 20
4.361148448830259
 30
0.0
 70
     8
  0
VERTEX
  5
1F5B
330
1E59
100
AcDbEntity
  8
image
  6
Continuous
100
AcDbVertex
100
AcDb2dVertex
 10
17.71400022457078
 20
4.366896976561137
 30
0.0
 70
     8
  0
VERTEX
  5
1F5C
330
1E59
100
AcDbEntity
  8
image
  6
Continuous
100
AcDbVertex
100
AcDb2dVertex
 10
17.71037941174987
 20
4.371964757812987
 30
0.0
 70
     8
  0
VERTEX
  5
1F5D
330
1E59
100
AcDbEntity
  8
image
  6
Continuous
100
AcDbVertex
100
AcDb2dVertex
 10
17.70580786914749
 20
4.376124877036406
 30
0.0
 70
     8
  0
VERTEX
  5
1F5E
330
1E59
100
AcDbEntity
  8
image
  6
Continuous
100
AcDbVertex
100
AcDb2dVertex
 10
17.70041803669651
 20
4.379209511264169
 30
0.0
 70
     8
  0
VERTEX
  5
1F5F
330
1E59
100
AcDbEntity
  8
image
  6
Continuous
100
AcDbVertex
100
AcDb2dVertex
 10
17.69424775437155
 20
4.381287207857767
 30
0.0
 70
     8
  0
VERTEX
  5
1F60
330
1E59
100
AcDbEntity
  8
image
  6
Continuous
100
AcDbVertex
100
AcDb2dVertex
 10
17.68731121215762
 20
4.382485606760872
 30
0.0
 70
     8
  0
VERTEX
  5
1F61
330
1E59
100
AcDbEntity
  8
image
  6
Continuous
100
AcDbVertex
100
AcDb2dVertex
 10
17.67962260003975
 20
4.382932347917154
 30
0.0
 70
     8
  0
VERTEX
  5
1F62
330
1E59
100
AcDbEntity
  8
image
  6
Continuous
100
AcDbVertex
100
AcDb2dVertex
 10
17.67119610800296
 20
4.382755071270284
 30
0.0
 70
     8
  0
VERTEX
  5
1F63
330
1E59
100
AcDbEntity
  8
image
  6
Continuous
100
AcDbVertex
100
AcDb2dVertex
 10
17.66204592603226
 20
4.382081416763932
 30
0.0
 70
     8
  0
VERTEX
  5
1F64
330
1E59
100
AcDbEntity
  8
image
  6
Continuous
100
AcDbVertex
100
AcDb2dVertex
 10
17.65218624411269
 20
4.381039024341768
 30
0.0
 70
     8
  0
VERTEX
  5
1F65
330
1E59
100
AcDbEntity
  8
image
  6
Continuous
100
AcDbVertex
100
AcDb2dVertex
 10
17.64163125222928
 20
4.379755533947462
 30
0.0
 70
     8
  0
VERTEX
  5
1F66
330
1E59
100
AcDbEntity
  8
image
  6
Continuous
100
AcDbVertex
100
AcDb2dVertex
 10
17.63037858536996
 20
4.378339675909669
 30
0.0
 70
     8
  0
VERTEX
  5
1F67
330
1E59
100
AcDbEntity
  8
image
  6
Continuous
100
AcDbVertex
100
AcDb2dVertex
 10
17.61835965853447
 20
4.376824542096962
 30
0.0
 70
     8
  0
VERTEX
  5
1F68
330
1E59
100
AcDbEntity
  8
image
  6
Continuous
100
AcDbVertex
100
AcDb2dVertex
 10
17.60548933172543
 20
4.375224314762903
 30
0.0
 70
     8
  0
VERTEX
  5
1F69
330
1E59
100
AcDbEntity
  8
image
  6
Continuous
100
AcDbVertex
100
AcDb2dVertex
 10
17.59168246494551
 20
4.373553176161051
 30
0.0
 70
     8
  0
VERTEX
  5
1F6A
330
1E59
100
AcDbEntity
  8
image
  6
Continuous
100
AcDbVertex
100
AcDb2dVertex
 10
17.57685391819735
 20
4.371825308544963
 30
0.0
 70
     8
  0
VERTEX
  5
1F6B
330
1E59
100
AcDbEntity
  8
image
  6
Continuous
100
AcDbVertex
100
AcDb2dVertex
 10
17.56091855148358
 20
4.370054894168198
 30
0.0
 70
     8
  0
VERTEX
  5
1F6C
330
1E59
100
AcDbEntity
  8
image
  6
Continuous
100
AcDbVertex
100
AcDb2dVertex
 10
17.54379122480686
 20
4.368256115284316
 30
0.0
 70
     8
  0
VERTEX
  5
1F6D
330
1E59
100
AcDbEntity
  8
image
  6
Continuous
100
AcDbVertex
100
AcDb2dVertex
 10
17.52538679816984
 20
4.366443154146875
 30
0.0
 70
     8
  0
VERTEX
  5
1F6E
330
1E59
100
AcDbEntity
  8
image
  6
Continuous
100
AcDbVertex
100
AcDb2dVertex
 10
17.50568398656591
 20
4.364632556708961
 30
0.0
 70
     8
  0
VERTEX
  5
1F6F
330
1E59
100
AcDbEntity
  8
image
  6
Continuous
100
AcDbVertex
100
AcDb2dVertex
 10
17.48491692495144
 20
4.362850323721772
 30
0.0
 70
     8
  0
VERTEX
  5
1F70
330
1E59
100
AcDbEntity
  8
image
  6
Continuous
100
AcDbVertex
100
AcDb2dVertex
 10
17.46338360327358
 20
4.361124819636033
 30
0.0
 70
     8
  0
VERTEX
  5
1F71
330
1E59
100
AcDbEntity
  8
image
  6
Continuous
100
AcDbVertex
100
AcDb2dVertex
 10
17.44138201147945
 20
4.359484408902466
 30
0.0
 70
     8
  0
VERTEX
  5
1F72
330
1E59
100
AcDbEntity
  8
image
  6
Continuous
100
AcDbVertex
100
AcDb2dVertex
 10
17.41921013951617
 20
4.357957455971797
 30
0.0
 70
     8
  0
VERTEX
  5
1F73
330
1E59
100
AcDbEntity
  8
image
  6
Continuous
100
AcDbVertex
100
AcDb2dVertex
 10
17.39716597733088
 20
4.356572325294752
 30
0.0
 70
     8
  0
VERTEX
  5
1F74
330
1E59
100
AcDbEntity
  8
image
  6
Continuous
100
AcDbVertex
100
AcDb2dVertex
 10
17.37554751487072
 20
4.355357381322053
 30
0.0
 70
     8
  0
VERTEX
  5
1F75
330
1E59
100
AcDbEntity
  8
image
  6
Continuous
100
AcDbVertex
100
AcDb2dVertex
 10
17.35465274208279
 20
4.354340988504426
 30
0.0
 70
     8
  0
VERTEX
  5
1F76
330
1E59
100
AcDbEntity
  8
image
  6
Continuous
100
AcDbVertex
100
AcDb2dVertex
 10
17.33469450894597
 20
4.35353969276676
 30
0.0
 70
     8
  0
VERTEX
  5
1F77
330
1E59
100
AcDbEntity
  8
image
  6
Continuous
100
AcDbVertex
100
AcDb2dVertex
 10
17.31554510556597
 20
4.352922765930606
 30
0.0
 70
     8
  0
VERTEX
  5
1F78
330
1E59
100
AcDbEntity
  8
image
  6
Continuous
100
AcDbVertex
100
AcDb2dVertex
 10
17.29699168208022
 20
4.352447661291681
 30
0.0
 70
     8
  0
VERTEX
  5
1F79
330
1E59
100
AcDbEntity
  8
image
  6
Continuous
100
AcDbVertex
100
AcDb2dVertex
 10
17.27882138862617
 20
4.352071832145703
 30
0.0
 70
     8
  0
VERTEX
  5
1F7A
330
1E59
100
AcDbEntity
  8
image
  6
Continuous
100
AcDbVertex
100
AcDb2dVertex
 10
17.26082137534127
 20
4.351752731788387
 30
0.0
 70
     8
  0
VERTEX
  5
1F7B
330
1E59
100
AcDbEntity
  8
image
  6
Continuous
100
AcDbVertex
100
AcDb2dVertex
 10
17.24277879236294
 20
4.351447813515451
 30
0.0
 70
     8
  0
VERTEX
  5
1F7C
330
1E59
100
AcDbEntity
  8
image
  6
Continuous
100
AcDbVertex
100
AcDb2dVertex
 10
17.22448078982864
 20
4.351114530622611
 30
0.0
 70
     8
  0
VERTEX
  5
1F7D
330
1E59
100
AcDbEntity
  8
image
  6
Continuous
100
AcDbVertex
100
AcDb2dVertex
 10
17.2057145178758
 20
4.350710336405584
 30
0.0
 70
     8
  0
VERTEX
  5
1F7E
330
1E59
100
AcDbEntity
  8
image
  6
Continuous
100
AcDbVertex
100
AcDb2dVertex
 10
17.18629550661191
 20
4.350209230103773
 30
0.0
 70
     8
  0
VERTEX
  5
1F7F
330
1E59
100
AcDbEntity
  8
image
  6
Continuous
100
AcDbVertex
100
AcDb2dVertex
 10
17.16615280602465
 20
4.349651394731335
 30
0.0
 70
     8
  0
VERTEX
  5
1F80
330
1E59
100
AcDbEntity
  8
image
  6
Continuous
100
AcDbVertex
100
AcDb2dVertex
 10
17.14524384607171
 20
4.34909355924611
 30
0.0
 70
     8
  0
VERTEX
  5
1F81
330
1E59
100
AcDbEntity
  8
image
  6
Continuous
100
AcDbVertex
100
AcDb2dVertex
 10
17.12352605671082
 20
4.348592452605941
 30
0.0
 70
     8
  0
VERTEX
  5
1F82
330
1E59
100
AcDbEntity
  8
image
  6
Continuous
100
AcDbVertex
100
AcDb2dVertex
 10
17.1009568678997
 20
4.34820480376867
 30
0.0
 70
     8
  0
VERTEX
  5
1F83
330
1E59
100
AcDbEntity
  8
image
  6
Continuous
100
AcDbVertex
100
AcDb2dVertex
 10
17.07749370959605
 20
4.347987341692139
 30
0.0
 70
     8
  0
VERTEX
  5
1F84
330
1E59
100
AcDbEntity
  8
image
  6
Continuous
100
AcDbVertex
100
AcDb2dVertex
 10
17.0530940117576
 20
4.34799679533419
 30
0.0
 70
     8
  0
VERTEX
  5
1F85
330
1E59
100
AcDbEntity
  8
image
  6
Continuous
100
AcDbVertex
100
AcDb2dVertex
 10
17.02771520434206
 20
4.348289893652665
 30
0.0
 70
     8
  0
VERTEX
  5
1F86
330
1E59
100
AcDbEntity
  8
image
  6
Continuous
100
AcDbVertex
100
AcDb2dVertex
 10
17.00138093728085
 20
4.3489139107791
 30
0.0
 70
     8
  0
VERTEX
  5
1F87
330
1E59
100
AcDbEntity
  8
image
  6
Continuous
100
AcDbVertex
100
AcDb2dVertex
 10
16.97437974040027
 20
4.349878301539802
 30
0.0
 70
     8
  0
VERTEX
  5
1F88
330
1E59
100
AcDbEntity
  8
image
  6
Continuous
100
AcDbVertex
100
AcDb2dVertex
 10
16.94706636350032
 20
4.35118306593477
 30
0.0
 70
     8
  0
VERTEX
  5
1F89
330
1E59
100
AcDbEntity
  8
image
  6
Continuous
100
AcDbVertex
100
AcDb2dVertex
 10
16.919795556381
 20
4.352828203964004
 30
0.0
 70
     8
  0
VERTEX
  5
1F8A
330
1E59
100
AcDbEntity
  8
image
  6
Continuous
100
AcDbVertex
100
AcDb2dVertex
 10
16.89292206884233
 20
4.354813715627504
 30
0.0
 70
     8
  0
VERTEX
  5
1F8B
330
1E59
100
AcDbEntity
  8
image
  6
Continuous
100
AcDbVertex
100
AcDb2dVertex
 10
16.86680065068429
 20
4.357139600925271
 30
0.0
 70
     8
  0
VERTEX
  5
1F8C
330
1E59
100
AcDbEntity
  8
image
  6
Continuous
100
AcDbVertex
100
AcDb2dVertex
 10
16.84178605170691
 20
4.359805859857305
 30
0.0
 70
     8
  0
VERTEX
  5
1F8D
330
1E59
100
AcDbEntity
  8
image
  6
Continuous
100
AcDbVertex
100
AcDb2dVertex
 10
16.81823302171018
 20
4.362812492423604
 30
0.0
 70
     8
  0
VERTEX
  5
1F8E
330
1E59
100
AcDbEntity
  8
image
  6
Continuous
100
AcDbVertex
100
AcDb2dVertex
 10
16.79644191555151
 20
4.366154771196919
 30
0.0
 70
     8
  0
VERTEX
  5
1F8F
330
1E59
100
AcDbEntity
  8
image
  6
Continuous
100
AcDbVertex
100
AcDb2dVertex
 10
16.77649550831798
 20
4.369809059040989
 30
0.0
 70
     8
  0
VERTEX
  5
1F90
330
1E59
100
AcDbEntity
  8
image
  6
Continuous
100
AcDbVertex
100
AcDb2dVertex
 10
16.75842218015407
 20
4.373746991392304
 30
0.0
 70
     8
  0
VERTEX
  5
1F91
330
1E59
100
AcDbEntity
  8
image
  6
Continuous
100
AcDbVertex
100
AcDb2dVertex
 10
16.74225031120425
 20
4.377940203687354
 30
0.0
 70
     8
  0
VERTEX
  5
1F92
330
1E59
100
AcDbEntity
  8
image
  6
Continuous
100
AcDbVertex
100
AcDb2dVertex
 10
16.728008281613
 20
4.382360331362627
 30
0.0
 70
     8
  0
VERTEX
  5
1F93
330
1E59
100
AcDbEntity
  8
image
  6
Continuous
100
AcDbVertex
100
AcDb2dVertex
 10
16.7157244715248
 20
4.386979009854612
 30
0.0
 70
     8
  0
VERTEX
  5
1F94
330
1E59
100
AcDbEntity
  8
image
  6
Continuous
100
AcDbVertex
100
AcDb2dVertex
 10
16.70542726108413
 20
4.391767874599799
 30
0.0
 70
     8
  0
VERTEX
  5
1F95
330
1E59
100
AcDbEntity
  8
image
  6
Continuous
100
AcDbVertex
100
AcDb2dVertex
 10
16.69714503043547
 20
4.396698561034677
 30
0.0
 70
     8
  0
VERTEX
  5
1F96
330
1E59
100
AcDbEntity
  8
image
  6
Continuous
100
AcDbVertex
100
AcDb2dVertex
 10
16.69089196969467
 20
4.401747432041784
 30
0.0
 70
     8
  0
VERTEX
  5
1F97
330
1E59
100
AcDbEntity
  8
image
  6
Continuous
100
AcDbVertex
100
AcDb2dVertex
 10
16.68662550886305
 20
4.406909760287859
 30
0.0
 70
     8
  0
VERTEX
  5
1F98
330
1E59
100
AcDbEntity
  8
image
  6
Continuous
100
AcDbVertex
100
AcDb2dVertex
 10
16.6842888879133
 20
4.412185545885686
 30
0.0
 70
     8
  0
VERTEX
  5
1F99
330
1E59
100
AcDbEntity
  8
image
  6
Continuous
100
AcDbVertex
100
AcDb2dVertex
 10
16.68382534681812
 20
4.417574788948053
 30
0.0
 70
     8
  0
VERTEX
  5
1F9A
330
1E59
100
AcDbEntity
  8
image
  6
Continuous
100
AcDbVertex
100
AcDb2dVertex
 10
16.68517812555019
 20
4.423077489587745
 30
0.0
 70
     8
  0
VERTEX
  5
1F9B
330
1E59
100
AcDbEntity
  8
image
  6
Continuous
100
AcDbVertex
100
AcDb2dVertex
 10
16.68829046408222
 20
4.428693647917549
 30
0.0
 70
     8
  0
VERTEX
  5
1F9C
330
1E59
100
AcDbEntity
  8
image
  6
Continuous
100
AcDbVertex
100
AcDb2dVertex
 10
16.69310560238688
 20
4.43442326405025
 30
0.0
 70
     8
  0
VERTEX
  5
1F9D
330
1E59
100
AcDbEntity
  8
image
  6
Continuous
100
AcDbVertex
100
AcDb2dVertex
 10
16.69956678043688
 20
4.440266338098637
 30
0.0
 70
     8
  0
VERTEX
  5
1F9E
330
1E59
100
AcDbEntity
  8
image
  6
Continuous
100
AcDbVertex
100
AcDb2dVertex
 10
16.70761487322193
 20
4.446201596823351
 30
0.0
 70
     8
  0
VERTEX
  5
1F9F
330
1E59
100
AcDbEntity
  8
image
  6
Continuous
100
AcDbVertex
100
AcDb2dVertex
 10
16.71718129579989
 20
4.452122673576473
 30
0.0
 70
     8
  0
VERTEX
  5
1FA0
330
1E59
100
AcDbEntity
  8
image
  6
Continuous
100
AcDbVertex
100
AcDb2dVertex
 10
16.72819509824565
 20
4.457901928357938
 30
0.0
 70
     8
  0
VERTEX
  5
1FA1
330
1E59
100
AcDbEntity
  8
image
  6
Continuous
100
AcDbVertex
100
AcDb2dVertex
 10
16.74058533063409
 20
4.463411721167682
 30
0.0
 70
     8
  0
VERTEX
  5
1FA2
330
1E59
100
AcDbEntity
  8
image
  6
Continuous
100
AcDbVertex
100
AcDb2dVertex
 10
16.7542810430401
 20
4.468524412005643
 30
0.0
 70
     8
  0
VERTEX
  5
1FA3
330
1E59
100
AcDbEntity
  8
image
  6
Continuous
100
AcDbVertex
100
AcDb2dVertex
 10
16.76921128553856
 20
4.473112360871756
 30
0.0
 70
     8
  0
VERTEX
  5
1FA4
330
1E59
100
AcDbEntity
  8
image
  6
Continuous
100
AcDbVertex
100
AcDb2dVertex
 10
16.78530510820436
 20
4.477047927765957
 30
0.0
 70
     8
  0
VERTEX
  5
1FA5
330
1E59
100
AcDbEntity
  8
image
  6
Continuous
100
AcDbVertex
100
AcDb2dVertex
 10
16.80249156111238
 20
4.480203472688184
 30
0.0
 70
     8
  0
VERTEX
  5
1FA6
330
1E59
100
AcDbEntity
  8
image
  6
Continuous
100
AcDbVertex
100
AcDb2dVertex
 10
16.82068313931139
 20
4.482489174887206
 30
0.0
 70
     8
  0
VERTEX
  5
1FA7
330
1E59
100
AcDbEntity
  8
image
  6
Continuous
100
AcDbVertex
100
AcDb2dVertex
 10
16.83972611774558
 20
4.483966490607136
 30
0.0
 70
     8
  0
VERTEX
  5
1FA8
330
1E59
100
AcDbEntity
  8
image
  6
Continuous
100
AcDbVertex
100
AcDb2dVertex
 10
16.85945021633303
 20
4.48473469534092
 30
0.0
 70
     8
  0
VERTEX
  5
1FA9
330
1E59
100
AcDbEntity
  8
image
  6
Continuous
100
AcDbVertex
100
AcDb2dVertex
 10
16.87968515499182
 20
4.484893064581503
 30
0.0
 70
     8
  0
VERTEX
  5
1FAA
330
1E59
100
AcDbEntity
  8
image
  6
Continuous
100
AcDbVertex
100
AcDb2dVertex
 10
16.90026065364003
 20
4.484540873821831
 30
0.0
 70
     8
  0
VERTEX
  5
1FAB
330
1E59
100
AcDbEntity
  8
image
  6
Continuous
100
AcDbVertex
100
AcDb2dVertex
 10
16.92100643219573
 20
4.483777398554852
 30
0.0
 70
     8
  0
VERTEX
  5
1FAC
330
1E59
100
AcDbEntity
  8
image
  6
Continuous
100
AcDbVertex
100
AcDb2dVertex
 10
16.94175221057699
 20
4.482701914273509
 30
0.0
 70
     8
  0
VERTEX
  5
1FAD
330
1E59
100
AcDbEntity
  8
image
  6
Continuous
100
AcDbVertex
100
AcDb2dVertex
 10
16.9623277087019
 20
4.48141369647075
 30
0.0
 70
     8
  0
VERTEX
  5
1FAE
330
1E59
100
AcDbEntity
  8
image
  6
Continuous
100
AcDbVertex
100
AcDb2dVertex
 10
16.98260758149924
 20
4.479997838432956
 30
0.0
 70
     8
  0
VERTEX
  5
1FAF
330
1E59
100
AcDbEntity
  8
image
  6
Continuous
100
AcDbVertex
100
AcDb2dVertex
 10
17.00264622394067
 20
4.47848270462025
 30
0.0
 70
     8
  0
VERTEX
  5
1FB0
330
1E59
100
AcDbEntity
  8
image
  6
Continuous
100
AcDbVertex
100
AcDb2dVertex
 10
17.02254296600858
 20
4.476882477286191
 30
0.0
 70
     8
  0
VERTEX
  5
1FB1
330
1E59
100
AcDbEntity
  8
image
  6
Continuous
100
AcDbVertex
100
AcDb2dVertex
 10
17.04239713768534
 20
4.475211338684339
 30
0.0
 70
     8
  0
VERTEX
  5
1FB2
330
1E59
100
AcDbEntity
  8
image
  6
Continuous
100
AcDbVertex
100
AcDb2dVertex
 10
17.06230806895332
 20
4.47348347106825
 30
0.0
 70
     8
  0
VERTEX
  5
1FB3
330
1E59
100
AcDbEntity
  8
image
  6
Continuous
100
AcDbVertex
100
AcDb2dVertex
 10
17.0823750897949
 20
4.471713056691486
 30
0.0
 70
     8
  0
VERTEX
  5
1FB4
330
1E59
100
AcDbEntity
  8
image
  6
Continuous
100
AcDbVertex
100
AcDb2dVertex
 10
17.10269753019246
 20
4.469914277807604
 30
0.0
 70
     8
  0
VERTEX
  5
1FB5
330
1E59
100
AcDbEntity
  8
image
  6
Continuous
100
AcDbVertex
100
AcDb2dVertex
 10
17.12337472012837
 20
4.468101316670163
 30
0.0
 70
     8
  0
VERTEX
  5
1FB6
330
1E59
100
AcDbEntity
  8
image
  6
Continuous
100
AcDbVertex
100
AcDb2dVertex
 10
17.14446105460337
 20
4.466288355532722
 30
0.0
 70
     8
  0
VERTEX
  5
1FB7
330
1E59
100
AcDbEntity
  8
image
  6
Continuous
100
AcDbVertex
100
AcDb2dVertex
 10
17.16583118869161
 20
4.46448957664884
 30
0.0
 70
     8
  0
VERTEX
  5
1FB8
330
1E59
100
AcDbEntity
  8
image
  6
Continuous
100
AcDbVertex
100
AcDb2dVertex
 10
17.1873148424856
 20
4.462719162272075
 30
0.0
 70
     8
  0
VERTEX
  5
1FB9
330
1E59
100
AcDbEntity
  8
image
  6
Continuous
100
AcDbVertex
100
AcDb2dVertex
 10
17.20874173607784
 20
4.460991294655987
 30
0.0
 70
     8
  0
VERTEX
  5
1FBA
330
1E59
100
AcDbEntity
  8
image
  6
Continuous
100
AcDbVertex
100
AcDb2dVertex
 10
17.22994158956086
 20
4.459320156054134
 30
0.0
 70
     8
  0
VERTEX
  5
1FBB
330
1E59
100
AcDbEntity
  8
image
  6
Continuous
100
AcDbVertex
100
AcDb2dVertex
 10
17.25074412302715
 20
4.457719928720075
 30
0.0
 70
     8
  0
VERTEX
  5
1FBC
330
1E59
100
AcDbEntity
  8
image
  6
Continuous
100
AcDbVertex
100
AcDb2dVertex
 10
17.27097905656923
 20
4.456204794907369
 30
0.0
 70
     8
  0
VERTEX
  5
1FBD
330
1E59
100
AcDbEntity
  8
image
  6
Continuous
100
AcDbVertex
100
AcDb2dVertex
 10
17.2904761102796
 20
4.454788936869576
 30
0.0
 70
     8
  0
VERTEX
  5
1FBE
330
1E59
100
AcDbEntity
  8
image
  6
Continuous
100
AcDbVertex
100
AcDb2dVertex
 10
17.30911230424447
 20
4.453493627949436
 30
0.0
 70
     8
  0
VERTEX
  5
1FBF
330
1E59
100
AcDbEntity
  8
image
  6
Continuous
100
AcDbVertex
100
AcDb2dVertex
 10
17.32695385852475
 20
4.45236850584643
 30
0.0
 70
     8
  0
VERTEX
  5
1FC0
330
1E59
100
AcDbEntity
  8
image
  6
Continuous
100
AcDbVertex
100
AcDb2dVertex
 10
17.34411429317507
 20
4.451470299349219
 30
0.0
 70
     8
  0
VERTEX
  5
1FC1
330
1E59
100
AcDbEntity
  8
image
  6
Continuous
100
AcDbVertex
100
AcDb2dVertex
 10
17.36070712825005
 20
4.450855737246468
 30
0.0
 70
     8
  0
VERTEX
  5
1FC2
330
1E59
100
AcDbEntity
  8
image
  6
Continuous
100
AcDbVertex
100
AcDb2dVertex
 10
17.37684588380429
 20
4.450581548326837
 30
0.0
 70
     8
  0
VERTEX
  5
1FC3
330
1E59
100
AcDbEntity
  8
image
  6
Continuous
100
AcDbVertex
100
AcDb2dVertex
 10
17.39264407989242
 20
4.450704461378991
 30
0.0
 70
     8
  0
VERTEX
  5
1FC4
330
1E59
100
AcDbEntity
  8
image
  6
Continuous
100
AcDbVertex
100
AcDb2dVertex
 10
17.40821523656906
 20
4.451281205191591
 30
0.0
 70
     8
  0
VERTEX
  5
1FC5
330
1E59
100
AcDbEntity
  8
image
  6
Continuous
100
AcDbVertex
100
AcDb2dVertex
 10
17.4236728738888
 20
4.4523685085533
 30
0.0
 70
     8
  0
VERTEX
  5
1FC6
330
1E59
100
AcDbEntity
  8
image
  6
Continuous
100
AcDbVertex
100
AcDb2dVertex
 10
17.4390730508601
 20
4.454001261803815
 30
0.0
 70
     8
  0
VERTEX
  5
1FC7
330
1E59
100
AcDbEntity
  8
image
  6
Continuous
100
AcDbVertex
100
AcDb2dVertex
 10
17.45424198230662
 20
4.456127001486963
 30
0.0
 70
     8
  0
VERTEX
  5
1FC8
330
1E59
100
AcDbEntity
  8
image
  6
Continuous
100
AcDbVertex
100
AcDb2dVertex
 10
17.46894842200586
 20
4.458671425697605
 30
0.0
 70
     8
  0
VERTEX
  5
1FC9
330
1E59
100
AcDbEntity
  8
image
  6
Continuous
100
AcDbVertex
100
AcDb2dVertex
 10
17.48296112373531
 20
4.461560232530604
 30
0.0
 70
     8
  0
VERTEX
  5
1FCA
330
1E59
100
AcDbEntity
  8
image
  6
Continuous
100
AcDbVertex
100
AcDb2dVertex
 10
17.49604884127246
 20
4.464719120080818
 30
0.0
 70
     8
  0
VERTEX
  5
1FCB
330
1E59
100
AcDbEntity
  8
image
  6
Continuous
100
AcDbVertex
100
AcDb2dVertex
 10
17.50798032839481
 20
4.46807378644311
 30
0.0
 70
     8
  0
VERTEX
  5
1FCC
330
1E59
100
AcDbEntity
  8
image
  6
Continuous
100
AcDbVertex
100
AcDb2dVertex
 10
17.51852433887984
 20
4.47154992971234
 30
0.0
 70
     8
  0
VERTEX
  5
1FCD
330
1E59
100
AcDbEntity
  8
image
  6
Continuous
100
AcDbVertex
100
AcDb2dVertex
 10
17.52744962650506
 20
4.47507324798337
 30
0.0
 70
     8
  0
VERTEX
  5
1FCE
330
1E59
100
AcDbEntity
  8
image
  6
Continuous
100
AcDbVertex
100
AcDb2dVertex
 10
17.5345876915724
 20
4.478579343677662
 30
0.0
 70
     8
  0
VERTEX
  5
1FCF
330
1E59
100
AcDbEntity
  8
image
  6
Continuous
100
AcDbVertex
100
AcDb2dVertex
 10
17.5400210204816
 20
4.48204343652308
 30
0.0
 70
     8
  0
VERTEX
  5
1FD0
330
1E59
100
AcDbEntity
  8
image
  6
Continuous
100
AcDbVertex
100
AcDb2dVertex
 10
17.54389484615686
 20
4.485450650574093
 30
0.0
 70
     8
  0
VERTEX
  5
1FD1
330
1E59
100
AcDbEntity
  8
image
  6
Continuous
100
AcDbVertex
100
AcDb2dVertex
 10
17.54635440152236
 20
4.488786109885166
 30
0.0
 70
     8
  0
VERTEX
  5
1FD2
330
1E59
100
AcDbEntity
  8
image
  6
Continuous
100
AcDbVertex
100
AcDb2dVertex
 10
17.5475449195023
 20
4.492034938510764
 30
0.0
 70
     8
  0
VERTEX
  5
1FD3
330
1E59
100
AcDbEntity
  8
image
  6
Continuous
100
AcDbVertex
100
AcDb2dVertex
 10
17.54761163302086
 20
4.495182260505356
 30
0.0
 70
     8
  0
VERTEX
  5
1FD4
330
1E59
100
AcDbEntity
  8
image
  6
Continuous
100
AcDbVertex
100
AcDb2dVertex
 10
17.54669977500225
 20
4.498213199923408
 30
0.0
 70
     8
  0
VERTEX
  5
1FD5
330
1E59
100
AcDbEntity
  8
image
  6
Continuous
100
AcDbVertex
100
AcDb2dVertex
 10
17.54495457837064
 20
4.501112880819385
 30
0.0
 70
     8
  0
VERTEX
  5
1FD6
330
1E59
100
AcDbEntity
  8
image
  6
Continuous
100
AcDbVertex
100
AcDb2dVertex
 10
17.54241490738828
 20
4.503871951049485
 30
0.0
 70
     8
  0
VERTEX
  5
1FD7
330
1E59
100
AcDbEntity
  8
image
  6
Continuous
100
AcDbVertex
100
AcDb2dVertex
 10
17.53869415166954
 20
4.506503153676821
 30
0.0
 70
     8
  0
VERTEX
  5
1FD8
330
1E59
100
AcDbEntity
  8
image
  6
Continuous
100
AcDbVertex
100
AcDb2dVertex
 10
17.53329933216682
 20
4.509024755566239
 30
0.0
 70
     8
  0
VERTEX
  5
1FD9
330
1E59
100
AcDbEntity
  8
image
  6
Continuous
100
AcDbVertex
100
AcDb2dVertex
 10
17.52573746983256
 20
4.51145502358258
 30
0.0
 70
     8
  0
VERTEX
  5
1FDA
330
1E59
100
AcDbEntity
  8
image
  6
Continuous
100
AcDbVertex
100
AcDb2dVertex
 10
17.51551558561917
 20
4.513812224590691
 30
0.0
 70
     8
  0
VERTEX
  5
1FDB
330
1E59
100
AcDbEntity
  8
image
  6
Continuous
100
AcDbVertex
100
AcDb2dVertex
 10
17.50214070047905
 20
4.516114625455414
 30
0.0
 70
     8
  0
VERTEX
  5
1FDC
330
1E59
100
AcDbEntity
  8
image
  6
Continuous
100
AcDbVertex
100
AcDb2dVertex
 10
17.48511983536464
 20
4.518380493041594
 30
0.0
 70
     8
  0
VERTEX
  5
1FDD
330
1E59
100
AcDbEntity
  8
image
  6
Continuous
100
AcDbVertex
100
AcDb2dVertex
 10
17.46396001122833
 20
4.520628094214075
 30
0.0
 70
     8
  0
VERTEX
  5
1FDE
330
1E59
100
AcDbEntity
  8
image
  6
Continuous
100
AcDbVertex
100
AcDb2dVertex
 10
17.43835373403041
 20
4.52286583194498
 30
0.0
 70
     8
  0
VERTEX
  5
1FDF
330
1E59
100
AcDbEntity
  8
image
  6
Continuous
100
AcDbVertex
100
AcDb2dVertex
 10
17.40873544976256
 20
4.525062653635543
 30
0.0
 70
     8
  0
VERTEX
  5
1FE0
330
1E59
100
AcDbEntity
  8
image
  6
Continuous
100
AcDbVertex
100
AcDb2dVertex
 10
17.37572508942431
 20
4.527177642794276
 30
0.0
 70
     8
  0
VERTEX
  5
1FE1
330
1E59
100
AcDbEntity
  8
image
  6
Continuous
100
AcDbVertex
100
AcDb2dVertex
 10
17.33994258401522
 20
4.529169882929693
 30
0.0
 70
     8
  0
VERTEX
  5
1FE2
330
1E59
100
AcDbEntity
  8
image
  6
Continuous
100
AcDbVertex
100
AcDb2dVertex
 10
17.30200786453482
 20
4.530998457550306
 30
0.0
 70
     8
  0
VERTEX
  5
1FE3
330
1E59
100
AcDbEntity
  8
image
  6
Continuous
100
AcDbVertex
100
AcDb2dVertex
 10
17.26254086198264
 20
4.532622450164628
 30
0.0
 70
     8
  0
VERTEX
  5
1FE4
330
1E59
100
AcDbEntity
  8
image
  6
Continuous
100
AcDbVertex
100
AcDb2dVertex
 10
17.22216150735824
 20
4.534000944281172
 30
0.0
 70
     8
  0
VERTEX
  5
1FE5
330
1E59
100
AcDbEntity
  8
image
  6
Continuous
100
AcDbVertex
100
AcDb2dVertex
 10
17.18148973166115
 20
4.53509302340845
 30
0.0
 70
     8
  0
VERTEX
  5
1FE6
330
1E59
100
AcDbEntity
  8
image
  6
Continuous
100
AcDbVertex
100
AcDb2dVertex
 10
17.14104116935272
 20
4.535860693676281
 30
0.0
 70
     8
  0
VERTEX
  5
1FE7
330
1E59
100
AcDbEntity
  8
image
  6
Continuous
100
AcDbVertex
100
AcDb2dVertex
 10
17.10091426874157
 20
4.536277651699698
 30
0.0
 70
     8
  0
VERTEX
  5
1FE8
330
1E59
100
AcDbEntity
  8
image
  6
Continuous
100
AcDbVertex
100
AcDb2dVertex
 10
17.06110318159811
 20
4.536320516715042
 30
0.0
 70
     8
  0
VERTEX
  5
1FE9
330
1E59
100
AcDbEntity
  8
image
  6
Continuous
100
AcDbVertex
100
AcDb2dVertex
 10
17.02160205969277
 20
4.535965907958651
 30
0.0
 70
     8
  0
VERTEX
  5
1FEA
330
1E59
100
AcDbEntity
  8
image
  6
Continuous
100
AcDbVertex
100
AcDb2dVertex
 10
16.98240505479598
 20
4.535190444666865
 30
0.0
 70
     8
  0
VERTEX
  5
1FEB
330
1E59
100
AcDbEntity
  8
image
  6
Continuous
100
AcDbVertex
100
AcDb2dVertex
 10
16.94350631867816
 20
4.533970746076023
 30
0.0
 70
     8
  0
VERTEX
  5
1FEC
330
1E59
100
AcDbEntity
  8
image
  6
Continuous
100
AcDbVertex
100
AcDb2dVertex
 10
16.90490000310971
 20
4.532283431422465
 30
0.0
 70
     8
  0
VERTEX
  5
1FED
330
1E59
100
AcDbEntity
  8
image
  6
Continuous
100
AcDbVertex
100
AcDb2dVertex
 10
16.86658025986109
 20
4.530105119942531
 30
0.0
 70
     8
  0
VERTEX
  5
1FEE
330
1E59
100
AcDbEntity
  8
image
  6
Continuous
100
AcDbVertex
100
AcDb2dVertex
 10
16.82858120478223
 20
4.527385153239764
 30
0.0
 70
     8
  0
VERTEX
  5
1FEF
330
1E59
100
AcDbEntity
  8
image
  6
Continuous
100
AcDbVertex
100
AcDb2dVertex
 10
16.79109681004124
 20
4.52396376238653
 30
0.0
 70
     8
  0
VERTEX
  5
1FF0
330
1E59
100
AcDbEntity
  8
image
  6
Continuous
100
AcDbVertex
100
AcDb2dVertex
 10
16.75436101188576
 20
4.519653900822397
 30
0.0
 70
     8
  0
VERTEX
  5
1FF1
330
1E59
100
AcDbEntity
  8
image
  6
Continuous
100
AcDbVertex
100
AcDb2dVertex
 10
16.71860774656342
 20
4.514268521986937
 30
0.0
 70
     8
  0
VERTEX
  5
1FF2
330
1E59
100
AcDbEntity
  8
image
  6
Continuous
100
AcDbVertex
100
AcDb2dVertex
 10
16.68407095032184
 20
4.50762057931972
 30
0.0
 70
     8
  0
VERTEX
  5
1FF3
330
1E59
100
AcDbEntity
  8
image
  6
Continuous
100
AcDbVertex
100
AcDb2dVertex
 10
16.65098455940868
 20
4.499523026260315
 30
0.0
 70
     8
  0
VERTEX
  5
1FF4
330
1E59
100
AcDbEntity
  8
image
  6
Continuous
100
AcDbVertex
100
AcDb2dVertex
 10
16.61958251007155
 20
4.489788816248293
 30
0.0
 70
     8
  0
VERTEX
  5
1FF5
330
1E59
100
AcDbEntity
  8
image
  6
Continuous
100
AcDbVertex
100
AcDb2dVertex
 10
16.59009873855811
 20
4.478230902723223
 30
0.0
 70
     8
  0
VERTEX
  5
1FF6
330
1E59
100
AcDbEntity
  8
image
  6
Continuous
100
AcDbVertex
100
AcDb2dVertex
 10
16.56272136860335
 20
4.464737252570216
 30
0.0
 70
     8
  0
VERTEX
  5
1FF7
330
1E59
100
AcDbEntity
  8
image
  6
Continuous
100
AcDbVertex
100
AcDb2dVertex
 10
16.53745527389183
 20
4.44949588645655
 30
0.0
 70
     8
  0
VERTEX
  5
1FF8
330
1E59
100
AcDbEntity
  8
image
  6
Continuous
100
AcDbVertex
100
AcDb2dVertex
 10
16.51425951559547
 20
4.432769838495044
 30
0.0
 70
     8
  0
VERTEX
  5
1FF9
330
1E59
100
AcDbEntity
  8
image
  6
Continuous
100
AcDbVertex
100
AcDb2dVertex
 10
16.49309315488621
 20
4.414822142798515
 30
0.0
 70
     8
  0
VERTEX
  5
1FFA
330
1E59
100
AcDbEntity
  8
image
  6
Continuous
100
AcDbVertex
100
AcDb2dVertex
 10
16.47391525293597
 20
4.395915833479782
 30
0.0
 70
     8
  0
VERTEX
  5
1FFB
330
1E59
100
AcDbEntity
  8
image
  6
Continuous
100
AcDbVertex
100
AcDb2dVertex
 10
16.45668487091666
 20
4.376313944651665
 30
0.0
 70
     8
  0
VERTEX
  5
1FFC
330
1E59
100
AcDbEntity
  8
image
  6
Continuous
100
AcDbVertex
100
AcDb2dVertex
 10
16.44136107000023
 20
4.356279510426979
 30
0.0
 70
     8
  0
VERTEX
  5
1FFD
330
1E59
100
AcDbEntity
  8
image
  6
Continuous
100
AcDbVertex
100
AcDb2dVertex
 10
16.4279029113586
 20
4.336075564918545
 30
0.0
 70
     8
  0
VERTEX
  5
1FFE
330
1E59
100
AcDbEntity
  8
image
  6
Continuous
100
AcDbVertex
100
AcDb2dVertex
 10
16.41625678459259
 20
4.315886232018494
 30
0.0
 70
     8
  0
VERTEX
  5
1FFF
330
1E59
100
AcDbEntity
  8
image
  6
Continuous
100
AcDbVertex
100
AcDb2dVertex
 10
16.40631839301868
 20
4.295579994736209
 30
0.0
 70
     8
  0
VERTEX
  5
2000
330
1E59
100
AcDbEntity
  8
image
  6
Continuous
100
AcDbVertex
100
AcDb2dVertex
 10
16.3979707683822
 20
4.274946425860385
 30
0.0
 70
     8
  0
VERTEX
  5
2001
330
1E59
100
AcDbEntity
  8
image
  6
Continuous
100
AcDbVertex
100
AcDb2dVertex
 10
16.39109694242852
 20
4.253775098179718
 30
0.0
 70
     8
  0
VERTEX
  5
2002
330
1E59
100
AcDbEntity
  8
image
  6
Continuous
100
AcDbVertex
100
AcDb2dVertex
 10
16.385579946903
 20
4.231855584482904
 30
0.0
 70
     8
  0
VERTEX
  5
2003
330
1E59
100
AcDbEntity
  8
image
  6
Continuous
100
AcDbVertex
100
AcDb2dVertex
 10
16.38130281355099
 20
4.208977457558637
 30
0.0
 70
     8
  0
VERTEX
  5
2004
330
1E59
100
AcDbEntity
  8
image
  6
Continuous
100
AcDbVertex
100
AcDb2dVertex
 10
16.37814857411785
 20
4.184930290195613
 30
0.0
 70
     8
  0
VERTEX
  5
2005
330
1E59
100
AcDbEntity
  8
image
  6
Continuous
100
AcDbVertex
100
AcDb2dVertex
 10
16.37600026034894
 20
4.15950365518253
 30
0.0
 70
     8
  0
VERTEX
  5
2006
330
1E59
100
AcDbEntity
  8
image
  6
Continuous
100
AcDbVertex
100
AcDb2dVertex
 10
16.37475416833598
 20
4.132560799101188
 30
0.0
 70
     8
  0
VERTEX
  5
2007
330
1E59
100
AcDbEntity
  8
image
  6
Continuous
100
AcDbVertex
100
AcDb2dVertex
 10
16.3743596515561
 20
4.104259663705814
 30
0.0
 70
     8
  0
VERTEX
  5
2008
330
1E59
100
AcDbEntity
  8
image
  6
Continuous
100
AcDbVertex
100
AcDb2dVertex
 10
16.37477932783282
 20
4.074831864543744
 30
0.0
 70
     8
  0
VERTEX
  5
2009
330
1E59
100
AcDbEntity
  8
image
  6
Continuous
100
AcDbVertex
100
AcDb2dVertex
 10
16.37597581498962
 20
4.04450901716231
 30
0.0
 70
     8
  0
VERTEX
  5
200A
330
1E59
100
AcDbEntity
  8
image
  6
Continuous
100
AcDbVertex
100
AcDb2dVertex
 10
16.37791173085001
 20
4.013522737108847
 30
0.0
 70
     8
  0
VERTEX
  5
200B
330
1E59
100
AcDbEntity
  8
image
  6
Continuous
100
AcDbVertex
100
AcDb2dVertex
 10
16.3805496932375
 20
3.982104639930689
 30
0.0
 70
     8
  0
VERTEX
  5
200C
330
1E59
100
AcDbEntity
  8
image
  6
Continuous
100
AcDbVertex
100
AcDb2dVertex
 10
16.38385231997558
 20
3.95048634117517
 30
0.0
 70
     8
  0
VERTEX
  5
200D
330
1E59
100
AcDbEntity
  8
image
  6
Continuous
100
AcDbVertex
100
AcDb2dVertex
 10
16.38778222888775
 20
3.918899456389623
 30
0.0
 70
     8
  0
VERTEX
  5
200E
330
1E59
100
AcDbEntity
  8
image
  6
Continuous
100
AcDbVertex
100
AcDb2dVertex
 10
16.39230624111257
 20
3.887523152436307
 30
0.0
 70
     8
  0
VERTEX
  5
200F
330
1E59
100
AcDbEntity
  8
image
  6
Continuous
100
AcDbVertex
100
AcDb2dVertex
 10
16.39740799104881
 20
3.856326801437182
 30
0.0
 70
     8
  0
VERTEX
  5
2010
330
1E59
100
AcDbEntity
  8
image
  6
Continuous
100
AcDbVertex
100
AcDb2dVertex
 10
16.40307531641028
 20
3.825227326829129
 30
0.0
 70
     8
  0
VERTEX
  5
2011
330
1E59
100
AcDbEntity
  8
image
  6
Continuous
100
AcDbVertex
100
AcDb2dVertex
 10
16.4092960549108
 20
3.794141652049032
 30
0.0
 70
     8
  0
VERTEX
  5
2012
330
1E59
100
AcDbEntity
  8
image
  6
Continuous
100
AcDbVertex
100
AcDb2dVertex
 10
16.41605804426421
 20
3.762986700533774
 30
0.0
 70
     8
  0
VERTEX
  5
2013
330
1E59
100
AcDbEntity
  8
image
  6
Continuous
100
AcDbVertex
100
AcDb2dVertex
 10
16.4233491221843
 20
3.731679395720238
 30
0.0
 70
     8
  0
VERTEX
  5
2014
330
1E59
100
AcDbEntity
  8
image
  6
Continuous
100
AcDbVertex
100
AcDb2dVertex
 10
16.43115712638492
 20
3.700136661045307
 30
0.0
 70
     8
  0
VERTEX
  5
2015
330
1E59
100
AcDbEntity
  8
image
  6
Continuous
100
AcDbVertex
100
AcDb2dVertex
 10
16.43946989457988
 20
3.668275419945865
 30
0.0
 70
     8
  0
VERTEX
  5
2016
330
1E59
100
AcDbEntity
  8
image
  6
Continuous
100
AcDbVertex
100
AcDb2dVertex
 10
16.44828984872979
 20
3.636014958303983
 30
0.0
 70
     8
  0
VERTEX
  5
2017
330
1E59
100
AcDbEntity
  8
image
  6
Continuous
100
AcDbVertex
100
AcDb2dVertex
 10
16.45767774778248
 20
3.60328401178249
 30
0.0
 70
     8
  0
VERTEX
  5
2018
330
1E59
100
AcDbEntity
  8
image
  6
Continuous
100
AcDbVertex
100
AcDb2dVertex
 10
16.46770893493256
 20
3.570013678489404
 30
0.0
 70
     8
  0
VERTEX
  5
2019
330
1E59
100
AcDbEntity
  8
image
  6
Continuous
100
AcDbVertex
100
AcDb2dVertex
 10
16.47845875337466
 20
3.536135056532743
 30
0.0
 70
     8
  0
VERTEX
  5
201A
330
1E59
100
AcDbEntity
  8
image
  6
Continuous
100
AcDbVertex
100
AcDb2dVertex
 10
16.49000254630337
 20
3.501579244020524
 30
0.0
 70
     8
  0
VERTEX
  5
201B
330
1E59
100
AcDbEntity
  8
image
  6
Continuous
100
AcDbVertex
100
AcDb2dVertex
 10
16.50241565691333
 20
3.466277339060767
 30
0.0
 70
     8
  0
VERTEX
  5
201C
330
1E59
100
AcDbEntity
  8
image
  6
Continuous
100
AcDbVertex
100
AcDb2dVertex
 10
16.51577342839914
 20
3.430160439761488
 30
0.0
 70
     8
  0
VERTEX
  5
201D
330
1E59
100
AcDbEntity
  8
image
  6
Continuous
100
AcDbVertex
100
AcDb2dVertex
 10
16.53015120395544
 20
3.393159644230706
 30
0.0
 70
     8
  0
VERTEX
  5
201E
330
1E59
100
AcDbEntity
  8
image
  6
Continuous
100
AcDbVertex
100
AcDb2dVertex
 10
16.54559852041607
 20
3.355253682253017
 30
0.0
 70
     8
  0
VERTEX
  5
201F
330
1E59
100
AcDbEntity
  8
image
  6
Continuous
100
AcDbVertex
100
AcDb2dVertex
 10
16.56206168917184
 20
3.316611810319336
 30
0.0
 70
     8
  0
VERTEX
  5
2020
330
1E59
100
AcDbEntity
  8
image
  6
Continuous
100
AcDbVertex
100
AcDb2dVertex
 10
16.57946121525283
 20
3.277450916597156
 30
0.0
 70
     8
  0
VERTEX
  5
2021
330
1E59
100
AcDbEntity
  8
image
  6
Continuous
100
AcDbVertex
100
AcDb2dVertex
 10
16.59771760368908
 20
3.23798788925397
 30
0.0
 70
     8
  0
VERTEX
  5
2022
330
1E59
100
AcDbEntity
  8
image
  6
Continuous
100
AcDbVertex
100
AcDb2dVertex
 10
16.61675135951066
 20
3.198439616457271
 30
0.0
 70
     8
  0
VERTEX
  5
2023
330
1E59
100
AcDbEntity
  8
image
  6
Continuous
100
AcDbVertex
100
AcDb2dVertex
 10
16.63648298774762
 20
3.159022986374552
 30
0.0
 70
     8
  0
VERTEX
  5
2024
330
1E59
100
AcDbEntity
  8
image
  6
Continuous
100
AcDbVertex
100
AcDb2dVertex
 10
16.65683299343003
 20
3.119954887173307
 30
0.0
 70
     8
  0
VERTEX
  5
2025
330
1E59
100
AcDbEntity
  8
image
  6
Continuous
100
AcDbVertex
100
AcDb2dVertex
 10
16.67772188158794
 20
3.081452207021027
 30
0.0
 70
     8
  0
VERTEX
  5
2026
330
1E59
100
AcDbEntity
  8
image
  6
Continuous
100
AcDbVertex
100
AcDb2dVertex
 10
16.69910131078146
 20
3.043689634176233
 30
0.0
 70
     8
  0
VERTEX
  5
2027
330
1E59
100
AcDbEntity
  8
image
  6
Continuous
100
AcDbVertex
100
AcDb2dVertex
 10
16.72104755369094
 20
3.006673057261542
 30
0.0
 70
     8
  0
VERTEX
  5
2028
330
1E59
100
AcDbEntity
  8
image
  6
Continuous
100
AcDbVertex
100
AcDb2dVertex
 10
16.74366803652679
 20
2.970366164990598
 30
0.0
 70
     8
  0
VERTEX
  5
2029
330
1E59
100
AcDbEntity
  8
image
  6
Continuous
100
AcDbVertex
100
AcDb2dVertex
 10
16.76707018549941
 20
2.934732646077045
 30
0.0
 70
     8
  0
VERTEX
  5
202A
330
1E59
100
AcDbEntity
  8
image
  6
Continuous
100
AcDbVertex
100
AcDb2dVertex
 10
16.79136142681922
 20
2.899736189234526
 30
0.0
 70
     8
  0
VERTEX
  5
202B
330
1E59
100
AcDbEntity
  8
image
  6
Continuous
100
AcDbVertex
100
AcDb2dVertex
 10
16.8166491866966
 20
2.865340483176686
 30
0.0
 70
     8
  0
VERTEX
  5
202C
330
1E59
100
AcDbEntity
  8
image
  6
Continuous
100
AcDbVertex
100
AcDb2dVertex
 10
16.84304089134198
 20
2.831509216617168
 30
0.0
 70
     8
  0
VERTEX
  5
202D
330
1E59
100
AcDbEntity
  8
image
  6
Continuous
100
AcDbVertex
100
AcDb2dVertex
 10
16.87064396696575
 20
2.798206078269616
 30
0.0
 70
     8
  0
VERTEX
  5
202E
330
1E59
100
AcDbEntity
  8
image
  6
Continuous
100
AcDbVertex
100
AcDb2dVertex
 10
16.89950710778392
 20
2.765425995828961
 30
0.0
 70
     8
  0
VERTEX
  5
202F
330
1E59
100
AcDbEntity
  8
image
  6
Continuous
100
AcDbVertex
100
AcDb2dVertex
 10
16.92944408003494
 20
2.733288852915278
 30
0.0
 70
     8
  0
VERTEX
  5
2030
330
1E59
100
AcDbEntity
  8
image
  6
Continuous
100
AcDbVertex
100
AcDb2dVertex
 10
16.96020991796283
 20
2.70194577212993
 30
0.0
 70
     8
  0
VERTEX
  5
2031
330
1E59
100
AcDbEntity
  8
image
  6
Continuous
100
AcDbVertex
100
AcDb2dVertex
 10
16.99155965581165
 20
2.671547876074281
 30
0.0
 70
     8
  0
VERTEX
  5
2032
330
1E59
100
AcDbEntity
  8
image
  6
Continuous
100
AcDbVertex
100
AcDb2dVertex
 10
17.02324832782543
 20
2.642246287349694
 30
0.0
 70
     8
  0
VERTEX
  5
2033
330
1E59
100
AcDbEntity
  8
image
  6
Continuous
100
AcDbVertex
100
AcDb2dVertex
 10
17.05503096824822
 20
2.614192128557531
 30
0.0
 70
     8
  0
VERTEX
  5
2034
330
1E59
100
AcDbEntity
  8
image
  6
Continuous
100
AcDbVertex
100
AcDb2dVertex
 10
17.08666261132405
 20
2.587536522299155
 30
0.0
 70
     8
  0
VERTEX
  5
2035
330
1E59
100
AcDbEntity
  8
image
  6
Continuous
100
AcDbVertex
100
AcDb2dVertex
 10
17.11789829129696
 20
2.56243059117593
 30
0.0
 70
     8
  0
VERTEX
  5
2036
330
1E59
100
AcDbEntity
  8
image
  6
Continuous
100
AcDbVertex
100
AcDb2dVertex
 10
17.14858898173803
 20
2.538961299529557
 30
0.0
 70
     8
  0
VERTEX
  5
2037
330
1E59
100
AcDbEntity
  8
image
  6
Continuous
100
AcDbVertex
100
AcDb2dVertex
 10
17.17896941352645
 20
2.516958978663096
 30
0.0
 70
     8
  0
VERTEX
  5
2038
330
1E59
100
AcDbEntity
  8
image
  6
Continuous
100
AcDbVertex
100
AcDb2dVertex
 10
17.20937025686845
 20
2.496189801619943
 30
0.0
 70
     8
  0
VERTEX
  5
2039
330
1E59
100
AcDbEntity
  8
image
  6
Continuous
100
AcDbVertex
100
AcDb2dVertex
 10
17.24012218197022
 20
2.476419941443497
 30
0.0
 70
     8
  0
VERTEX
  5
203A
330
1E59
100
AcDbEntity
  8
image
  6
Continuous
100
AcDbVertex
100
AcDb2dVertex
 10
17.27155585903802
 20
2.457415571177156
 30
0.0
 70
     8
  0
VERTEX
  5
203B
330
1E59
100
AcDbEntity
  8
image
  6
Continuous
100
AcDbVertex
100
AcDb2dVertex
 10
17.30400195827805
 20
2.438942863864318
 30
0.0
 70
     8
  0
VERTEX
  5
203C
330
1E59
100
AcDbEntity
  8
image
  6
Continuous
100
AcDbVertex
100
AcDb2dVertex
 10
17.33779114989653
 20
2.42076799254838
 30
0.0
 70
     8
  0
VERTEX
  5
203D
330
1E59
100
AcDbEntity
  8
image
  6
Continuous
100
AcDbVertex
100
AcDb2dVertex
 10
17.3732541040997
 20
2.402657130272741
 30
0.0
 70
     8
  0
VERTEX
  5
203E
330
1E59
100
AcDbEntity
  8
image
  6
Continuous
100
AcDbVertex
100
AcDb2dVertex
 10
17.41086578362585
 20
2.384449125358362
 30
0.0
 70
     8
  0
VERTEX
  5
203F
330
1E59
100
AcDbEntity
  8
image
  6
Continuous
100
AcDbVertex
100
AcDb2dVertex
 10
17.45167832134166
 20
2.366273527236463
 30
0.0
 70
     8
  0
VERTEX
  5
2040
330
1E59
100
AcDbEntity
  8
image
  6
Continuous
100
AcDbVertex
100
AcDb2dVertex
 10
17.49688814264588
 20
2.348332560615824
 30
0.0
 70
     8
  0
VERTEX
  5
2041
330
1E59
100
AcDbEntity
  8
image
  6
Continuous
100
AcDbVertex
100
AcDb2dVertex
 10
17.54769167293728
 20
2.330828450205228
 30
0.0
 70
     8
  0
VERTEX
  5
2042
330
1E59
100
AcDbEntity
  8
image
  6
Continuous
100
AcDbVertex
100
AcDb2dVertex
 10
17.60528533761461
 20
2.313963420713459
 30
0.0
 70
     8
  0
VERTEX
  5
2043
330
1E59
100
AcDbEntity
  8
image
  6
Continuous
100
AcDbVertex
100
AcDb2dVertex
 10
17.67086556207662
 20
2.297939696849299
 30
0.0
 70
     8
  0
VERTEX
  5
2044
330
1E59
100
AcDbEntity
  8
image
  6
Continuous
100
AcDbVertex
100
AcDb2dVertex
 10
17.74562877172208
 20
2.282959503321528
 30
0.0
 70
     8
  0
VERTEX
  5
2045
330
1E59
100
AcDbEntity
  8
image
  6
Continuous
100
AcDbVertex
100
AcDb2dVertex
 10
17.83077139194974
 20
2.269225064838932
 30
0.0
 70
     8
  0
VERTEX
  5
1E5C
330
1E59
100
AcDbEntity
  8
image
  6
Continuous
100
AcDbVertex
100
AcDb2dVertex
 10
16.14943860398482
 20
5.078547753445793
 30
0.0
 70
    16
  0
VERTEX
  5
1E5D
330
1E59
100
AcDbEntity
  8
image
  6
Continuous
100
AcDbVertex
100
AcDb2dVertex
 10
16.20088472514778
 20
4.623099951388262
 30
0.0
 70
    16
  0
VERTEX
  5
1E5E
330
1E59
100
AcDbEntity
  8
image
  6
Continuous
100
AcDbVertex
100
AcDb2dVertex
 10
16.30481998961208
 20
4.337397956604997
 30
0.0
 70
    16
  0
VERTEX
  5
1E5F
330
1E59
100
AcDbEntity
  8
image
  6
Continuous
100
AcDbVertex
100
AcDb2dVertex
 10
16.41379916389733
 20
4.213955910361943
 30
0.0
 70
    16
  0
VERTEX
  5
1E60
330
1E59
100
AcDbEntity
  8
image
  6
Continuous
100
AcDbVertex
100
AcDb2dVertex
 10
16.63175751246783
 20
4.177649398997952
 30
0.0
 70
    16
  0
VERTEX
  5
1E61
330
1E59
100
AcDbEntity
  8
image
  6
Continuous
100
AcDbVertex
100
AcDb2dVertex
 10
16.98049089697361
 20
4.199433311591004
 30
0.0
 70
    16
  0
VERTEX
  5
1E62
330
1E59
100
AcDbEntity
  8
image
  6
Continuous
100
AcDbVertex
100
AcDb2dVertex
 10
17.42367286644631
 20
4.184910712820065
 30
0.0
 70
    16
  0
VERTEX
  5
1E63
330
1E59
100
AcDbEntity
  8
image
  6
Continuous
100
AcDbVertex
100
AcDb2dVertex
 10
17.67795762133021
 20
4.177649398997952
 30
0.0
 70
    16
  0
VERTEX
  5
1E64
330
1E59
100
AcDbEntity
  8
image
  6
Continuous
100
AcDbVertex
100
AcDb2dVertex
 10
17.77240625095209
 20
4.22121719531077
 30
0.0
 70
    16
  0
VERTEX
  5
1E65
330
1E59
100
AcDbEntity
  8
image
  6
Continuous
100
AcDbVertex
100
AcDb2dVertex
 10
17.71997990148179
 20
4.245295667942007
 30
0.0
 70
    16
  0
VERTEX
  5
1E66
330
1E59
100
AcDbEntity
  8
image
  6
Continuous
100
AcDbVertex
100
AcDb2dVertex
 10
17.5471826300499
 20
4.235739794081709
 30
0.0
 70
    16
  0
VERTEX
  5
1E67
330
1E59
100
AcDbEntity
  8
image
  6
Continuous
100
AcDbVertex
100
AcDb2dVertex
 10
17.37281591546953
 20
4.228478480259596
 30
0.0
 70
    16
  0
VERTEX
  5
1E68
330
1E59
100
AcDbEntity
  8
image
  6
Continuous
100
AcDbVertex
100
AcDb2dVertex
 10
17.09673534359055
 20
4.22121719531077
 30
0.0
 70
    16
  0
VERTEX
  5
1E69
330
1E59
100
AcDbEntity
  8
image
  6
Continuous
100
AcDbVertex
100
AcDb2dVertex
 10
16.69714505276295
 20
4.22121719531077
 30
0.0
 70
    16
  0
VERTEX
  5
1E6A
330
1E59
100
AcDbEntity
  8
image
  6
Continuous
100
AcDbVertex
100
AcDb2dVertex
 10
16.4719213872058
 20
4.250262392852648
 30
0.0
 70
    16
  0
VERTEX
  5
1E6B
330
1E59
100
AcDbEntity
  8
image
  6
Continuous
100
AcDbVertex
100
AcDb2dVertex
 10
16.45012557021074
 20
4.301091474114292
 30
0.0
 70
    16
  0
VERTEX
  5
1E6C
330
1E59
100
AcDbEntity
  8
image
  6
Continuous
100
AcDbVertex
100
AcDb2dVertex
 10
16.50824779351921
 20
4.359181840324763
 30
0.0
 70
    16
  0
VERTEX
  5
1E6D
330
1E59
100
AcDbEntity
  8
image
  6
Continuous
100
AcDbVertex
100
AcDb2dVertex
 10
16.54457419983261
 20
4.344659241553824
 30
0.0
 70
    16
  0
VERTEX
  5
1E6E
330
1E59
100
AcDbEntity
  8
image
  6
Continuous
100
AcDbVertex
100
AcDb2dVertex
 10
16.59543115080939
 20
4.315614072885231
 30
0.0
 70
    16
  0
VERTEX
  5
1E6F
330
1E59
100
AcDbEntity
  8
image
  6
Continuous
100
AcDbVertex
100
AcDb2dVertex
 10
16.74800200373973
 20
4.293830160292179
 30
0.0
 70
    16
  0
VERTEX
  5
1E70
330
1E59
100
AcDbEntity
  8
image
  6
Continuous
100
AcDbVertex
100
AcDb2dVertex
 10
17.07493952659549
 20
4.301091474114292
 30
0.0
 70
    16
  0
VERTEX
  5
1E71
330
1E59
100
AcDbEntity
  8
image
  6
Continuous
100
AcDbVertex
100
AcDb2dVertex
 10
17.29289787516599
 20
4.301091474114292
 30
0.0
 70
    16
  0
VERTEX
  5
1E72
330
1E59
100
AcDbEntity
  8
image
  6
Continuous
100
AcDbVertex
100
AcDb2dVertex
 10
17.5399173577182
 20
4.293830160292179
 30
0.0
 70
    16
  0
VERTEX
  5
1E73
330
1E59
100
AcDbEntity
  8
image
  6
Continuous
100
AcDbVertex
100
AcDb2dVertex
 10
17.61257012569005
 20
4.301091474114292
 30
0.0
 70
    16
  0
VERTEX
  5
1E74
330
1E59
100
AcDbEntity
  8
image
  6
Continuous
100
AcDbVertex
100
AcDb2dVertex
 10
17.72881457230699
 20
4.322875357834058
 30
0.0
 70
    16
  0
VERTEX
  5
1E75
330
1E59
100
AcDbEntity
  8
image
  6
Continuous
100
AcDbVertex
100
AcDb2dVertex
 10
17.71428402764362
 20
4.388227037866641
 30
0.0
 70
    16
  0
VERTEX
  5
1E76
330
1E59
100
AcDbEntity
  8
image
  6
Continuous
100
AcDbVertex
100
AcDb2dVertex
 10
17.64889653200346
 20
4.380965752917814
 30
0.0
 70
    16
  0
VERTEX
  5
1E77
330
1E59
100
AcDbEntity
  8
image
  6
Continuous
100
AcDbVertex
100
AcDb2dVertex
 10
17.5399173577182
 20
4.366443154146875
 30
0.0
 70
    16
  0
VERTEX
  5
1E78
330
1E59
100
AcDbEntity
  8
image
  6
Continuous
100
AcDbVertex
100
AcDb2dVertex
 10
17.34375482614277
 20
4.351920555375936
 30
0.0
 70
    16
  0
VERTEX
  5
1E79
330
1E59
100
AcDbEntity
  8
image
  6
Continuous
100
AcDbVertex
100
AcDb2dVertex
 10
17.21297979020749
 20
4.351920555375936
 30
0.0
 70
    16
  0
VERTEX
  5
1E7A
330
1E59
100
AcDbEntity
  8
image
  6
Continuous
100
AcDbVertex
100
AcDb2dVertex
 10
17.03861312028208
 20
4.344659241553824
 30
0.0
 70
    16
  0
VERTEX
  5
1E7B
330
1E59
100
AcDbEntity
  8
image
  6
Continuous
100
AcDbVertex
100
AcDb2dVertex
 10
16.79885895471651
 20
4.359181840324763
 30
0.0
 70
    16
  0
VERTEX
  5
1E7C
330
1E59
100
AcDbEntity
  8
image
  6
Continuous
100
AcDbVertex
100
AcDb2dVertex
 10
16.67534919111293
 20
4.395488351688753
 30
0.0
 70
    16
  0
VERTEX
  5
1E7D
330
1E59
100
AcDbEntity
  8
image
  6
Continuous
100
AcDbVertex
100
AcDb2dVertex
 10
16.68261446344461
 20
4.439056119128284
 30
0.0
 70
    16
  0
VERTEX
  5
1E7E
330
1E59
100
AcDbEntity
  8
image
  6
Continuous
100
AcDbVertex
100
AcDb2dVertex
 10
16.79159363772987
 20
4.489885200389928
 30
0.0
 70
    16
  0
VERTEX
  5
1E7F
330
1E59
100
AcDbEntity
  8
image
  6
Continuous
100
AcDbVertex
100
AcDb2dVertex
 10
16.96596035231024
 20
4.482623915441102
 30
0.0
 70
    16
  0
VERTEX
  5
1E80
330
1E59
100
AcDbEntity
  8
image
  6
Continuous
100
AcDbVertex
100
AcDb2dVertex
 10
17.11853120524058
 20
4.468101316670163
 30
0.0
 70
    16
  0
VERTEX
  5
1E81
330
1E59
100
AcDbEntity
  8
image
  6
Continuous
100
AcDbVertex
100
AcDb2dVertex
 10
17.30016314749768
 20
4.453578717899223
 30
0.0
 70
    16
  0
VERTEX
  5
1E82
330
1E59
100
AcDbEntity
  8
image
  6
Continuous
100
AcDbVertex
100
AcDb2dVertex
 10
17.42367286644631
 20
4.446317432950397
 30
0.0
 70
    16
  0
VERTEX
  5
1E83
330
1E59
100
AcDbEntity
  8
image
  6
Continuous
100
AcDbVertex
100
AcDb2dVertex
 10
17.5471826300499
 20
4.475362601618989
 30
0.0
 70
    16
  0
VERTEX
  5
1E84
330
1E59
100
AcDbEntity
  8
image
  6
Continuous
100
AcDbVertex
100
AcDb2dVertex
 10
17.55229437238449
 20
4.502671648473866
 30
0.0
 70
    16
  0
VERTEX
  5
1E85
330
1E59
100
AcDbEntity
  8
image
  6
Continuous
100
AcDbVertex
100
AcDb2dVertex
 10
17.51336735063603
 20
4.520628089401862
 30
0.0
 70
    16
  0
VERTEX
  5
1E86
330
1E59
100
AcDbEntity
  8
image
  6
Continuous
100
AcDbVertex
100
AcDb2dVertex
 10
17.1779962924414
 20
4.538584559203144
 30
0.0
 70
    16
  0
VERTEX
  5
1E87
330
1E59
100
AcDbEntity
  8
image
  6
Continuous
100
AcDbVertex
100
AcDb2dVertex
 10
16.86358586956525
 20
4.535591814236264
 30
0.0
 70
    16
  0
VERTEX
  5
1E88
330
1E59
100
AcDbEntity
  8
image
  6
Continuous
100
AcDbVertex
100
AcDb2dVertex
 10
16.56714178846413
 20
4.499678903506985
 30
0.0
 70
    16
  0
VERTEX
  5
1E89
330
1E59
100
AcDbEntity
  8
image
  6
Continuous
100
AcDbVertex
100
AcDb2dVertex
 10
16.40843940792686
 20
4.335077988075133
 30
0.0
 70
    16
  0
VERTEX
  5
1E8A
330
1E59
100
AcDbEntity
  8
image
  6
Continuous
100
AcDbVertex
100
AcDb2dVertex
 10
16.36651804798001
 20
4.176462533703757
 30
0.0
 70
    16
  0
VERTEX
  5
1E8B
330
1E59
100
AcDbEntity
  8
image
  6
Continuous
100
AcDbVertex
100
AcDb2dVertex
 10
16.38148996224674
 20
3.916093808205019
 30
0.0
 70
    16
  0
VERTEX
  5
1E8C
330
1E59
100
AcDbEntity
  8
image
  6
Continuous
100
AcDbVertex
100
AcDb2dVertex
 10
16.43421547635952
 20
3.672558971813904
 30
0.0
 70
    16
  0
VERTEX
  5
1E8D
330
1E59
100
AcDbEntity
  8
image
  6
Continuous
100
AcDbVertex
100
AcDb2dVertex
 10
16.51846749979445
 20
3.403322824214551
 30
0.0
 70
    16
  0
VERTEX
  5
1E8E
330
1E59
100
AcDbEntity
  8
image
  6
Continuous
100
AcDbVertex
100
AcDb2dVertex
 10
16.67282174819532
 20
3.073107596712125
 30
0.0
 70
    16
  0
VERTEX
  5
1E8F
330
1E59
100
AcDbEntity
  8
image
  6
Continuous
100
AcDbVertex
100
AcDb2dVertex
 10
16.85657679695189
 20
2.792960031063113
 30
0.0
 70
    16
  0
VERTEX
  5
1E90
330
1E59
100
AcDbEntity
  8
image
  6
Continuous
100
AcDbVertex
100
AcDb2dVertex
 10
17.12473486579161
 20
2.544288748653122
 30
0.0
 70
    16
  0
VERTEX
  5
1E91
330
1E59
100
AcDbEntity
  8
image
  6
Continuous
100
AcDbVertex
100
AcDb2dVertex
 10
17.35187348766343
 20
2.404468521379981
 30
0.0
 70
    16
  0
VERTEX
  5
1E92
330
1E59
100
AcDbEntity
  8
image
  6
Continuous
100
AcDbVertex
100
AcDb2dVertex
 10
17.58882170132304
 20
2.304009472102263
 30
0.0
 70
    16
  0
VERTEX
  5
1E93
330
1E59
100
AcDbEntity
  8
image
  6
Continuous
100
AcDbVertex
100
AcDb2dVertex
 10
17.83077139194974
 20
2.269225064838932
 30
0.0
 70
    16
  0
SEQEND
  5
1E94
330
1E59
100
AcDbEntity
  8
image
  6
Continuous
  0
POLYLINE
  5
2047
330
18
100
AcDbEntity
  8
image
  6
Continuous
100
AcDb2dPolyline
 66
     1
 10
0.0
 20
0.0
 30
0.0
 70
     4
 75
     6
  0
VERTEX
  5
2048
330
2047
100
AcDbEntity
  8
image
  6
Continuous
100
AcDbVertex
100
AcDb2dVertex
 10
16.05385517216939
 20
5.543360879479211
 30
0.0
 70
    16
  0
VERTEX
  5
2049
330
2047
100
AcDbEntity
  8
image
  6
Continuous
100
AcDbVertex
100
AcDb2dVertex
 10
16.05385517216939
 20
5.543360879479211
 30
0.0
 70
     8
  0
VERTEX
  5
204A
330
2047
100
AcDbEntity
  8
image
  6
Continuous
100
AcDbVertex
100
AcDb2dVertex
 10
16.04700256236904
 20
5.379835834416857
 30
0.0
 70
     8
  0
VERTEX
  5
204B
330
2047
100
AcDbEntity
  8
image
  6
Continuous
100
AcDbVertex
100
AcDb2dVertex
 10
16.03940125769603
 20
5.236535822867195
 30
0.0
 70
     8
  0
VERTEX
  5
204C
330
2047
100
AcDbEntity
  8
image
  6
Continuous
100
AcDbVertex
100
AcDb2dVertex
 10
16.03109846884039
 20
5.111458763498731
 30
0.0
 70
     8
  0
VERTEX
  5
204D
330
2047
100
AcDbEntity
  8
image
  6
Continuous
100
AcDbVertex
100
AcDb2dVertex
 10
16.02214140649214
 20
5.002602574979972
 30
0.0
 70
     8
  0
VERTEX
  5
204E
330
2047
100
AcDbEntity
  8
image
  6
Continuous
100
AcDbVertex
100
AcDb2dVertex
 10
16.01257728134131
 20
4.907965175979423
 30
0.0
 70
     8
  0
VERTEX
  5
204F
330
2047
100
AcDbEntity
  8
image
  6
Continuous
100
AcDbVertex
100
AcDb2dVertex
 10
16.00245330407791
 20
4.825544485165591
 30
0.0
 70
     8
  0
VERTEX
  5
2050
330
2047
100
AcDbEntity
  8
image
  6
Continuous
100
AcDbVertex
100
AcDb2dVertex
 10
15.99181668539197
 20
4.753338421206982
 30
0.0
 70
     8
  0
VERTEX
  5
2051
330
2047
100
AcDbEntity
  8
image
  6
Continuous
100
AcDbVertex
100
AcDb2dVertex
 10
15.98071463597351
 20
4.6893449027721
 30
0.0
 70
     8
  0
VERTEX
  5
2052
330
2047
100
AcDbEntity
  8
image
  6
Continuous
100
AcDbVertex
100
AcDb2dVertex
 10
15.96919356908404
 20
4.631818963074364
 30
0.0
 70
     8
  0
VERTEX
  5
2053
330
2047
100
AcDbEntity
  8
image
  6
Continuous
100
AcDbVertex
100
AcDb2dVertex
 10
15.95729670827101
 20
4.580044093506826
 30
0.0
 70
     8
  0
VERTEX
  5
2054
330
2047
100
AcDbEntity
  8
image
  6
Continuous
100
AcDbVertex
100
AcDb2dVertex
 10
15.94506647965337
 20
4.533560900007449
 30
0.0
 70
     8
  0
VERTEX
  5
2055
330
2047
100
AcDbEntity
  8
image
  6
Continuous
100
AcDbVertex
100
AcDb2dVertex
 10
15.93254530935007
 20
4.491909988514197
 30
0.0
 70
     8
  0
VERTEX
  5
2056
330
2047
100
AcDbEntity
  8
image
  6
Continuous
100
AcDbVertex
100
AcDb2dVertex
 10
15.91977562348003
 20
4.454631964965033
 30
0.0
 70
     8
  0
VERTEX
  5
2057
330
2047
100
AcDbEntity
  8
image
  6
Continuous
100
AcDbVertex
100
AcDb2dVertex
 10
15.90679984816222
 20
4.421267435297919
 30
0.0
 70
     8
  0
VERTEX
  5
2058
330
2047
100
AcDbEntity
  8
image
  6
Continuous
100
AcDbVertex
100
AcDb2dVertex
 10
15.89366040951557
 20
4.39135700545082
 30
0.0
 70
     8
  0
VERTEX
  5
2059
330
2047
100
AcDbEntity
  8
image
  6
Continuous
100
AcDbVertex
100
AcDb2dVertex
 10
15.88039973365902
 20
4.364441281361698
 30
0.0
 70
     8
  0
VERTEX
  5
205A
330
2047
100
AcDbEntity
  8
image
  6
Continuous
100
AcDbVertex
100
AcDb2dVertex
 10
15.8670193425978
 20
4.340112980083786
 30
0.0
 70
     8
  0
VERTEX
  5
205B
330
2047
100
AcDbEntity
  8
image
  6
Continuous
100
AcDbVertex
100
AcDb2dVertex
 10
15.85335714188222
 20
4.318173263131381
 30
0.0
 70
     8
  0
VERTEX
  5
205C
330
2047
100
AcDbEntity
  8
image
  6
Continuous
100
AcDbVertex
100
AcDb2dVertex
 10
15.83921013294887
 20
4.298475403134053
 30
0.0
 70
     8
  0
VERTEX
  5
205D
330
2047
100
AcDbEntity
  8
image
  6
Continuous
100
AcDbVertex
100
AcDb2dVertex
 10
15.82437531723434
 20
4.280872672721371
 30
0.0
 70
     8
  0
VERTEX
  5
205E
330
2047
100
AcDbEntity
  8
image
  6
Continuous
100
AcDbVertex
100
AcDb2dVertex
 10
15.80864969617524
 20
4.265218344522902
 30
0.0
 70
     8
  0
VERTEX
  5
205F
330
2047
100
AcDbEntity
  8
image
  6
Continuous
100
AcDbVertex
100
AcDb2dVertex
 10
15.79183027120815
 20
4.251365691168214
 30
0.0
 70
     8
  0
VERTEX
  5
2060
330
2047
100
AcDbEntity
  8
image
  6
Continuous
100
AcDbVertex
100
AcDb2dVertex
 10
15.77371404376967
 20
4.239167985286875
 30
0.0
 70
     8
  0
VERTEX
  5
2061
330
2047
100
AcDbEntity
  8
image
  6
Continuous
100
AcDbVertex
100
AcDb2dVertex
 10
15.75409801529639
 20
4.228478499508454
 30
0.0
 70
     8
  0
VERTEX
  5
2062
330
2047
100
AcDbEntity
  8
image
  6
Continuous
100
AcDbVertex
100
AcDb2dVertex
 10
15.73280592531175
 20
4.219165506235544
 30
0.0
 70
     8
  0
VERTEX
  5
2063
330
2047
100
AcDbEntity
  8
image
  6
Continuous
100
AcDbVertex
100
AcDb2dVertex
 10
15.70976846568662
 20
4.21115727696285
 30
0.0
 70
     8
  0
VERTEX
  5
2064
330
2047
100
AcDbEntity
  8
image
  6
Continuous
100
AcDbVertex
100
AcDb2dVertex
 10
15.68494306637872
 20
4.204397082958103
 30
0.0
 70
     8
  0
VERTEX
  5
2065
330
2047
100
AcDbEntity
  8
image
  6
Continuous
100
AcDbVertex
100
AcDb2dVertex
 10
15.65828715734575
 20
4.198828195489033
 30
0.0
 70
     8
  0
VERTEX
  5
2066
330
2047
100
AcDbEntity
  8
image
  6
Continuous
100
AcDbVertex
100
AcDb2dVertex
 10
15.62975816854544
 20
4.19439388582337
 30
0.0
 70
     8
  0
VERTEX
  5
2067
330
2047
100
AcDbEntity
  8
image
  6
Continuous
100
AcDbVertex
100
AcDb2dVertex
 10
15.59931352993549
 20
4.191037425228843
 30
0.0
 70
     8
  0
VERTEX
  5
2068
330
2047
100
AcDbEntity
  8
image
  6
Continuous
100
AcDbVertex
100
AcDb2dVertex
 10
15.56691067147362
 20
4.188702084973185
 30
0.0
 70
     8
  0
VERTEX
  5
2069
330
2047
100
AcDbEntity
  8
image
  6
Continuous
100
AcDbVertex
100
AcDb2dVertex
 10
15.53250702311755
 20
4.187331136324126
 30
0.0
 70
     8
  0
VERTEX
  5
206A
330
2047
100
AcDbEntity
  8
image
  6
Continuous
100
AcDbVertex
100
AcDb2dVertex
 10
15.49607893484863
 20
4.186846577169057
 30
0.0
 70
     8
  0
VERTEX
  5
206B
330
2047
100
AcDbEntity
  8
image
  6
Continuous
100
AcDbVertex
100
AcDb2dVertex
 10
15.45767843674276
 20
4.187085311874017
 30
0.0
 70
     8
  0
VERTEX
  5
206C
330
2047
100
AcDbEntity
  8
image
  6
Continuous
100
AcDbVertex
100
AcDb2dVertex
 10
15.41737647889951
 20
4.187862971424709
 30
0.0
 70
     8
  0
VERTEX
  5
206D
330
2047
100
AcDbEntity
  8
image
  6
Continuous
100
AcDbVertex
100
AcDb2dVertex
 10
15.37524401141841
 20
4.188995186806833
 30
0.0
 70
     8
  0
VERTEX
  5
206E
330
2047
100
AcDbEntity
  8
image
  6
Continuous
100
AcDbVertex
100
AcDb2dVertex
 10
15.33135198439901
 20
4.190297589006091
 30
0.0
 70
     8
  0
VERTEX
  5
206F
330
2047
100
AcDbEntity
  8
image
  6
Continuous
100
AcDbVertex
100
AcDb2dVertex
 10
15.28577134794086
 20
4.191585809008182
 30
0.0
 70
     8
  0
VERTEX
  5
2070
330
2047
100
AcDbEntity
  8
image
  6
Continuous
100
AcDbVertex
100
AcDb2dVertex
 10
15.23857305214351
 20
4.192675477798808
 30
0.0
 70
     8
  0
VERTEX
  5
2071
330
2047
100
AcDbEntity
  8
image
  6
Continuous
100
AcDbVertex
100
AcDb2dVertex
 10
15.1898280471065
 20
4.193382226363673
 30
0.0
 70
     8
  0
VERTEX
  5
2072
330
2047
100
AcDbEntity
  8
image
  6
Continuous
100
AcDbVertex
100
AcDb2dVertex
 10
15.13968769287358
 20
4.193566596082885
 30
0.0
 70
     8
  0
VERTEX
  5
2073
330
2047
100
AcDbEntity
  8
image
  6
Continuous
100
AcDbVertex
100
AcDb2dVertex
 10
15.08862498926532
 20
4.19326876991421
 30
0.0
 70
     8
  0
VERTEX
  5
2074
330
2047
100
AcDbEntity
  8
image
  6
Continuous
100
AcDbVertex
100
AcDb2dVertex
 10
15.03719334604646
 20
4.192573841209819
 30
0.0
 70
     8
  0
VERTEX
  5
2075
330
2047
100
AcDbEntity
  8
image
  6
Continuous
100
AcDbVertex
100
AcDb2dVertex
 10
14.98594617298176
 20
4.191566903321885
 30
0.0
 70
     8
  0
VERTEX
  5
2076
330
2047
100
AcDbEntity
  8
image
  6
Continuous
100
AcDbVertex
100
AcDb2dVertex
 10
14.93543687983598
 20
4.190333049602584
 30
0.0
 70
     8
  0
VERTEX
  5
2077
330
2047
100
AcDbEntity
  8
image
  6
Continuous
100
AcDbVertex
100
AcDb2dVertex
 10
14.88621887637389
 20
4.188957373404087
 30
0.0
 70
     8
  0
VERTEX
  5
2078
330
2047
100
AcDbEntity
  8
image
  6
Continuous
100
AcDbVertex
100
AcDb2dVertex
 10
14.83884557236022
 20
4.187524968078569
 30
0.0
 70
     8
  0
VERTEX
  5
2079
330
2047
100
AcDbEntity
  8
image
  6
Continuous
100
AcDbVertex
100
AcDb2dVertex
 10
14.79387037755975
 20
4.186120926978203
 30
0.0
 70
     8
  0
VERTEX
  5
207A
330
2047
100
AcDbEntity
  8
image
  6
Continuous
100
AcDbVertex
100
AcDb2dVertex
 10
14.75174500678642
 20
4.184830343464561
 30
0.0
 70
     8
  0
VERTEX
  5
207B
330
2047
100
AcDbEntity
  8
image
  6
Continuous
100
AcDbVertex
100
AcDb2dVertex
 10
14.71251439505095
 20
4.183738310936811
 30
0.0
 70
     8
  0
VERTEX
  5
207C
330
2047
100
AcDbEntity
  8
image
  6
Continuous
100
AcDbVertex
100
AcDb2dVertex
 10
14.67612178241325
 20
4.18292992280352
 30
0.0
 70
     8
  0
VERTEX
  5
207D
330
2047
100
AcDbEntity
  8
image
  6
Continuous
100
AcDbVertex
100
AcDb2dVertex
 10
14.64251040893322
 20
4.182490272473254
 30
0.0
 70
     8
  0
VERTEX
  5
207E
330
2047
100
AcDbEntity
  8
image
  6
Continuous
100
AcDbVertex
100
AcDb2dVertex
 10
14.61162351467078
 20
4.18250445335458
 30
0.0
 70
     8
  0
VERTEX
  5
207F
330
2047
100
AcDbEntity
  8
image
  6
Continuous
100
AcDbVertex
100
AcDb2dVertex
 10
14.58340433968584
 20
4.183057558856064
 30
0.0
 70
     8
  0
VERTEX
  5
2080
330
2047
100
AcDbEntity
  8
image
  6
Continuous
100
AcDbVertex
100
AcDb2dVertex
 10
14.55779612403829
 20
4.184234682386273
 30
0.0
 70
     8
  0
VERTEX
  5
2081
330
2047
100
AcDbEntity
  8
image
  6
Continuous
100
AcDbVertex
100
AcDb2dVertex
 10
14.53474210778805
 20
4.186120917353775
 30
0.0
 70
     8
  0
VERTEX
  5
2082
330
2047
100
AcDbEntity
  8
image
  6
Continuous
100
AcDbVertex
100
AcDb2dVertex
 10
14.51419077186195
 20
4.188764284817198
 30
0.0
 70
     8
  0
VERTEX
  5
2083
330
2047
100
AcDbEntity
  8
image
  6
Continuous
100
AcDbVertex
100
AcDb2dVertex
 10
14.49611156065445
 20
4.192064516435432
 30
0.0
 70
     8
  0
VERTEX
  5
2084
330
2047
100
AcDbEntity
  8
image
  6
Continuous
100
AcDbVertex
100
AcDb2dVertex
 10
14.48047915942695
 20
4.195884271517428
 30
0.0
 70
     8
  0
VERTEX
  5
2085
330
2047
100
AcDbEntity
  8
image
  6
Continuous
100
AcDbVertex
100
AcDb2dVertex
 10
14.46726825344082
 20
4.200086209372139
 30
0.0
 70
     8
  0
VERTEX
  5
2086
330
2047
100
AcDbEntity
  8
image
  6
Continuous
100
AcDbVertex
100
AcDb2dVertex
 10
14.45645352795747
 20
4.204532989308518
 30
0.0
 70
     8
  0
VERTEX
  5
2087
330
2047
100
AcDbEntity
  8
image
  6
Continuous
100
AcDbVertex
100
AcDb2dVertex
 10
14.44800966823827
 20
4.209087270635515
 30
0.0
 70
     8
  0
VERTEX
  5
2088
330
2047
100
AcDbEntity
  8
image
  6
Continuous
100
AcDbVertex
100
AcDb2dVertex
 10
14.4419113595446
 20
4.213611712662082
 30
0.0
 70
     8
  0
VERTEX
  5
2089
330
2047
100
AcDbEntity
  8
image
  6
Continuous
100
AcDbVertex
100
AcDb2dVertex
 10
14.43813328713787
 20
4.217968974697173
 30
0.0
 70
     8
  0
VERTEX
  5
208A
330
2047
100
AcDbEntity
  8
image
  6
Continuous
100
AcDbVertex
100
AcDb2dVertex
 10
14.43664572777979
 20
4.222040001665302
 30
0.0
 70
     8
  0
VERTEX
  5
208B
330
2047
100
AcDbEntity
  8
image
  6
Continuous
100
AcDbVertex
100
AcDb2dVertex
 10
14.43740132423344
 20
4.22577888095323
 30
0.0
 70
     8
  0
VERTEX
  5
208C
330
2047
100
AcDbEntity
  8
image
  6
Continuous
100
AcDbVertex
100
AcDb2dVertex
 10
14.44034831076224
 20
4.229157985563282
 30
0.0
 70
     8
  0
VERTEX
  5
208D
330
2047
100
AcDbEntity
  8
image
  6
Continuous
100
AcDbVertex
100
AcDb2dVertex
 10
14.44543492162961
 20
4.232149688497782
 30
0.0
 70
     8
  0
VERTEX
  5
208E
330
2047
100
AcDbEntity
  8
image
  6
Continuous
100
AcDbVertex
100
AcDb2dVertex
 10
14.45260939109896
 20
4.234726362759055
 30
0.0
 70
     8
  0
VERTEX
  5
208F
330
2047
100
AcDbEntity
  8
image
  6
Continuous
100
AcDbVertex
100
AcDb2dVertex
 10
14.4618199534337
 20
4.236860381349424
 30
0.0
 70
     8
  0
VERTEX
  5
2090
330
2047
100
AcDbEntity
  8
image
  6
Continuous
100
AcDbVertex
100
AcDb2dVertex
 10
14.47301484289727
 20
4.238524117271214
 30
0.0
 70
     8
  0
VERTEX
  5
2091
330
2047
100
AcDbEntity
  8
image
  6
Continuous
100
AcDbVertex
100
AcDb2dVertex
 10
14.48614229375307
 20
4.239689943526751
 30
0.0
 70
     8
  0
VERTEX
  5
2092
330
2047
100
AcDbEntity
  8
image
  6
Continuous
100
AcDbVertex
100
AcDb2dVertex
 10
14.5011204955309
 20
4.240346533225564
 30
0.0
 70
     8
  0
VERTEX
  5
2093
330
2047
100
AcDbEntity
  8
image
  6
Continuous
100
AcDbVertex
100
AcDb2dVertex
 10
14.51774745882607
 20
4.240547759906013
 30
0.0
 70
     8
  0
VERTEX
  5
2094
330
2047
100
AcDbEntity
  8
image
  6
Continuous
100
AcDbVertex
100
AcDb2dVertex
 10
14.53579114950027
 20
4.240363797213662
 30
0.0
 70
     8
  0
VERTEX
  5
2095
330
2047
100
AcDbEntity
  8
image
  6
Continuous
100
AcDbVertex
100
AcDb2dVertex
 10
14.55501953341521
 20
4.23986481879408
 30
0.0
 70
     8
  0
VERTEX
  5
2096
330
2047
100
AcDbEntity
  8
image
  6
Continuous
100
AcDbVertex
100
AcDb2dVertex
 10
14.57520057643257
 20
4.239120998292831
 30
0.0
 70
     8
  0
VERTEX
  5
2097
330
2047
100
AcDbEntity
  8
image
  6
Continuous
100
AcDbVertex
100
AcDb2dVertex
 10
14.59610224441404
 20
4.23820250935548
 30
0.0
 70
     8
  0
VERTEX
  5
2098
330
2047
100
AcDbEntity
  8
image
  6
Continuous
100
AcDbVertex
100
AcDb2dVertex
 10
14.61749250322133
 20
4.237179525627595
 30
0.0
 70
     8
  0
VERTEX
  5
2099
330
2047
100
AcDbEntity
  8
image
  6
Continuous
100
AcDbVertex
100
AcDb2dVertex
 10
14.63913931871611
 20
4.236122220754739
 30
0.0
 70
     8
  0
VERTEX
  5
209A
330
2047
100
AcDbEntity
  8
image
  6
Continuous
100
AcDbVertex
100
AcDb2dVertex
 10
14.66088192820963
 20
4.235088325857191
 30
0.0
 70
     8
  0
VERTEX
  5
209B
330
2047
100
AcDbEntity
  8
image
  6
Continuous
100
AcDbVertex
100
AcDb2dVertex
 10
14.68284465481122
 20
4.234085801954056
 30
0.0
 70
     8
  0
VERTEX
  5
209C
330
2047
100
AcDbEntity
  8
image
  6
Continuous
100
AcDbVertex
100
AcDb2dVertex
 10
14.70522309307978
 20
4.233110167539156
 30
0.0
 70
     8
  0
VERTEX
  5
209D
330
2047
100
AcDbEntity
  8
image
  6
Continuous
100
AcDbVertex
100
AcDb2dVertex
 10
14.7282128375742
 20
4.232156941106308
 30
0.0
 70
     8
  0
VERTEX
  5
209E
330
2047
100
AcDbEntity
  8
image
  6
Continuous
100
AcDbVertex
100
AcDb2dVertex
 10
14.75200948285336
 20
4.231221641149331
 30
0.0
 70
     8
  0
VERTEX
  5
209F
330
2047
100
AcDbEntity
  8
image
  6
Continuous
100
AcDbVertex
100
AcDb2dVertex
 10
14.77680862347615
 20
4.230299786162043
 30
0.0
 70
     8
  0
VERTEX
  5
20A0
330
2047
100
AcDbEntity
  8
image
  6
Continuous
100
AcDbVertex
100
AcDb2dVertex
 10
14.80280585400146
 20
4.229386894638263
 30
0.0
 70
     8
  0
VERTEX
  5
20A1
330
2047
100
AcDbEntity
  8
image
  6
Continuous
100
AcDbVertex
100
AcDb2dVertex
 10
14.83019676898817
 20
4.228478485071811
 30
0.0
 70
     8
  0
VERTEX
  5
20A2
330
2047
100
AcDbEntity
  8
image
  6
Continuous
100
AcDbVertex
100
AcDb2dVertex
 10
14.85915145890907
 20
4.227573186564328
 30
0.0
 70
     8
  0
VERTEX
  5
20A3
330
2047
100
AcDbEntity
  8
image
  6
Continuous
100
AcDbVertex
100
AcDb2dVertex
 10
14.88973799789255
 20
4.226682070648764
 30
0.0
 70
     8
  0
VERTEX
  5
20A4
330
2047
100
AcDbEntity
  8
image
  6
Continuous
100
AcDbVertex
100
AcDb2dVertex
 10
14.92199895598089
 20
4.225819319465889
 30
0.0
 70
     8
  0
VERTEX
  5
20A5
330
2047
100
AcDbEntity
  8
image
  6
Continuous
100
AcDbVertex
100
AcDb2dVertex
 10
14.95597690321637
 20
4.224999115156477
 30
0.0
 70
     8
  0
VERTEX
  5
20A6
330
2047
100
AcDbEntity
  8
image
  6
Continuous
100
AcDbVertex
100
AcDb2dVertex
 10
14.99171440964129
 20
4.224235639861301
 30
0.0
 70
     8
  0
VERTEX
  5
20A7
330
2047
100
AcDbEntity
  8
image
  6
Continuous
100
AcDbVertex
100
AcDb2dVertex
 10
15.02925404529792
 20
4.223543075721131
 30
0.0
 70
     8
  0
VERTEX
  5
20A8
330
2047
100
AcDbEntity
  8
image
  6
Continuous
100
AcDbVertex
100
AcDb2dVertex
 10
15.06863838022856
 20
4.222935604876743
 30
0.0
 70
     8
  0
VERTEX
  5
20A9
330
2047
100
AcDbEntity
  8
image
  6
Continuous
100
AcDbVertex
100
AcDb2dVertex
 10
15.10990998447548
 20
4.222427409468908
 30
0.0
 70
     8
  0
VERTEX
  5
20AA
330
2047
100
AcDbEntity
  8
image
  6
Continuous
100
AcDbVertex
100
AcDb2dVertex
 10
15.15300736811813
 20
4.22203739906565
 30
0.0
 70
     8
  0
VERTEX
  5
20AB
330
2047
100
AcDbEntity
  8
image
  6
Continuous
100
AcDbVertex
100
AcDb2dVertex
 10
15.19745280138454
 20
4.221803392944
 30
0.0
 70
     8
  0
VERTEX
  5
20AC
330
2047
100
AcDbEntity
  8
image
  6
Continuous
100
AcDbVertex
100
AcDb2dVertex
 10
15.24266449453993
 20
4.221767937808242
 30
0.0
 70
     8
  0
VERTEX
  5
20AD
330
2047
100
AcDbEntity
  8
image
  6
Continuous
100
AcDbVertex
100
AcDb2dVertex
 10
15.28806065784947
 20
4.22197358036266
 30
0.0
 70
     8
  0
VERTEX
  5
20AE
330
2047
100
AcDbEntity
  8
image
  6
Continuous
100
AcDbVertex
100
AcDb2dVertex
 10
15.33305950157838
 20
4.222462867311536
 30
0.0
 70
     8
  0
VERTEX
  5
20AF
330
2047
100
AcDbEntity
  8
image
  6
Continuous
100
AcDbVertex
100
AcDb2dVertex
 10
15.37707923599185
 20
4.223278345359155
 30
0.0
 70
     8
  0
VERTEX
  5
20B0
330
2047
100
AcDbEntity
  8
image
  6
Continuous
100
AcDbVertex
100
AcDb2dVertex
 10
15.41953807135506
 20
4.224462561209798
 30
0.0
 70
     8
  0
VERTEX
  5
20B1
330
2047
100
AcDbEntity
  8
image
  6
Continuous
100
AcDbVertex
100
AcDb2dVertex
 10
15.45985421793323
 20
4.22605806156775
 30
0.0
 70
     8
  0
VERTEX
  5
20B2
330
2047
100
AcDbEntity
  8
image
  6
Continuous
100
AcDbVertex
100
AcDb2dVertex
 10
15.49753339091373
 20
4.228097938310987
 30
0.0
 70
     8
  0
VERTEX
  5
20B3
330
2047
100
AcDbEntity
  8
image
  6
Continuous
100
AcDbVertex
100
AcDb2dVertex
 10
15.53243132517264
 20
4.230577464012256
 30
0.0
 70
     8
  0
VERTEX
  5
20B4
330
2047
100
AcDbEntity
  8
image
  6
Continuous
100
AcDbVertex
100
AcDb2dVertex
 10
15.56449126050821
 20
4.233482456418
 30
0.0
 70
     8
  0
VERTEX
  5
20B5
330
2047
100
AcDbEntity
  8
image
  6
Continuous
100
AcDbVertex
100
AcDb2dVertex
 10
15.59365643671871
 20
4.236798733274659
 30
0.0
 70
     8
  0
VERTEX
  5
20B6
330
2047
100
AcDbEntity
  8
image
  6
Continuous
100
AcDbVertex
100
AcDb2dVertex
 10
15.61987009360239
 20
4.240512112328675
 30
0.0
 70
     8
  0
VERTEX
  5
20B7
330
2047
100
AcDbEntity
  8
image
  6
Continuous
100
AcDbVertex
100
AcDb2dVertex
 10
15.64307547095751
 20
4.24460841132649
 30
0.0
 70
     8
  0
VERTEX
  5
20B8
330
2047
100
AcDbEntity
  8
image
  6
Continuous
100
AcDbVertex
100
AcDb2dVertex
 10
15.66321580858233
 20
4.249073448014542
 30
0.0
 70
     8
  0
VERTEX
  5
20B9
330
2047
100
AcDbEntity
  8
image
  6
Continuous
100
AcDbVertex
100
AcDb2dVertex
 10
15.68023434627511
 20
4.253893040139275
 30
0.0
 70
     8
  0
VERTEX
  5
20BA
330
2047
100
AcDbEntity
  8
image
  6
Continuous
100
AcDbVertex
100
AcDb2dVertex
 10
15.69412398888344
 20
4.259050641747602
 30
0.0
 70
     8
  0
VERTEX
  5
20BB
330
2047
100
AcDbEntity
  8
image
  6
Continuous
100
AcDbVertex
100
AcDb2dVertex
 10
15.70507630145225
 20
4.264520252088326
 30
0.0
 70
     8
  0
VERTEX
  5
20BC
330
2047
100
AcDbEntity
  8
image
  6
Continuous
100
AcDbVertex
100
AcDb2dVertex
 10
15.71333251407578
 20
4.270273506710721
 30
0.0
 70
     8
  0
VERTEX
  5
20BD
330
2047
100
AcDbEntity
  8
image
  6
Continuous
100
AcDbVertex
100
AcDb2dVertex
 10
15.71913385684829
 20
4.276282041164066
 30
0.0
 70
     8
  0
VERTEX
  5
20BE
330
2047
100
AcDbEntity
  8
image
  6
Continuous
100
AcDbVertex
100
AcDb2dVertex
 10
15.72272155986404
 20
4.282517490997633
 30
0.0
 70
     8
  0
VERTEX
  5
20BF
330
2047
100
AcDbEntity
  8
image
  6
Continuous
100
AcDbVertex
100
AcDb2dVertex
 10
15.72433685321729
 20
4.288951491760698
 30
0.0
 70
     8
  0
VERTEX
  5
20C0
330
2047
100
AcDbEntity
  8
image
  6
Continuous
100
AcDbVertex
100
AcDb2dVertex
 10
15.72422096700228
 20
4.295555679002539
 30
0.0
 70
     8
  0
VERTEX
  5
20C1
330
2047
100
AcDbEntity
  8
image
  6
Continuous
100
AcDbVertex
100
AcDb2dVertex
 10
15.72261513131327
 20
4.30230168827243
 30
0.0
 70
     8
  0
VERTEX
  5
20C2
330
2047
100
AcDbEntity
  8
image
  6
Continuous
100
AcDbVertex
100
AcDb2dVertex
 10
15.7197534812084
 20
4.309139881795701
 30
0.0
 70
     8
  0
VERTEX
  5
20C3
330
2047
100
AcDbEntity
  8
image
  6
Continuous
100
AcDbVertex
100
AcDb2dVertex
 10
15.71584177160132
 20
4.315935528501902
 30
0.0
 70
     8
  0
VERTEX
  5
20C4
330
2047
100
AcDbEntity
  8
image
  6
Continuous
100
AcDbVertex
100
AcDb2dVertex
 10
15.71107866236958
 20
4.322532623996639
 30
0.0
 70
     8
  0
VERTEX
  5
20C5
330
2047
100
AcDbEntity
  8
image
  6
Continuous
100
AcDbVertex
100
AcDb2dVertex
 10
15.7056628133907
 20
4.328775163885516
 30
0.0
 70
     8
  0
VERTEX
  5
20C6
330
2047
100
AcDbEntity
  8
image
  6
Continuous
100
AcDbVertex
100
AcDb2dVertex
 10
15.69979288454222
 20
4.334507143774138
 30
0.0
 70
     8
  0
VERTEX
  5
20C7
330
2047
100
AcDbEntity
  8
image
  6
Continuous
100
AcDbVertex
100
AcDb2dVertex
 10
15.69366753570168
 20
4.339572559268111
 30
0.0
 70
     8
  0
VERTEX
  5
20C8
330
2047
100
AcDbEntity
  8
image
  6
Continuous
100
AcDbVertex
100
AcDb2dVertex
 10
15.68748542674662
 20
4.343815405973039
 30
0.0
 70
     8
  0
VERTEX
  5
20C9
330
2047
100
AcDbEntity
  8
image
  6
Continuous
100
AcDbVertex
100
AcDb2dVertex
 10
15.68144521755457
 20
4.347079679494528
 30
0.0
 70
     8
  0
VERTEX
  5
20CA
330
2047
100
AcDbEntity
  8
image
  6
Continuous
100
AcDbVertex
100
AcDb2dVertex
 10
15.67570063303596
 20
4.349254285804398
 30
0.0
 70
     8
  0
VERTEX
  5
20CB
330
2047
100
AcDbEntity
  8
image
  6
Continuous
100
AcDbVertex
100
AcDb2dVertex
 10
15.67022565823278
 20
4.350407772339331
 30
0.0
 70
     8
  0
VERTEX
  5
20CC
330
2047
100
AcDbEntity
  8
image
  6
Continuous
100
AcDbVertex
100
AcDb2dVertex
 10
15.66494934321992
 20
4.350653596902225
 30
0.0
 70
     8
  0
VERTEX
  5
20CD
330
2047
100
AcDbEntity
  8
image
  6
Continuous
100
AcDbVertex
100
AcDb2dVertex
 10
15.65980073807226
 20
4.35010521729598
 30
0.0
 70
     8
  0
VERTEX
  5
20CE
330
2047
100
AcDbEntity
  8
image
  6
Continuous
100
AcDbVertex
100
AcDb2dVertex
 10
15.65470889286471
 20
4.348876091323491
 30
0.0
 70
     8
  0
VERTEX
  5
20CF
330
2047
100
AcDbEntity
  8
image
  6
Continuous
100
AcDbVertex
100
AcDb2dVertex
 10
15.64960285767212
 20
4.347079676787657
 30
0.0
 70
     8
  0
VERTEX
  5
20D0
330
2047
100
AcDbEntity
  8
image
  6
Continuous
100
AcDbVertex
100
AcDb2dVertex
 10
15.6444116825694
 20
4.344829431491377
 30
0.0
 70
     8
  0
VERTEX
  5
20D1
330
2047
100
AcDbEntity
  8
image
  6
Continuous
100
AcDbVertex
100
AcDb2dVertex
 10
15.63906441763142
 20
4.342238813237548
 30
0.0
 70
     8
  0
VERTEX
  5
20D2
330
2047
100
AcDbEntity
  8
image
  6
Continuous
100
AcDbVertex
100
AcDb2dVertex
 10
15.63347355792149
 20
4.339409461284436
 30
0.0
 70
     8
  0
VERTEX
  5
20D3
330
2047
100
AcDbEntity
  8
image
  6
Continuous
100
AcDbVertex
100
AcDb2dVertex
 10
15.62748537845648
 20
4.336395740711776
 30
0.0
 70
     8
  0
VERTEX
  5
20D4
330
2047
100
AcDbEntity
  8
image
  6
Continuous
100
AcDbVertex
100
AcDb2dVertex
 10
15.62092959924169
 20
4.333240198054674
 30
0.0
 70
     8
  0
VERTEX
  5
20D5
330
2047
100
AcDbEntity
  8
image
  6
Continuous
100
AcDbVertex
100
AcDb2dVertex
 10
15.61363594028241
 20
4.329985379848233
 30
0.0
 70
     8
  0
VERTEX
  5
20D6
330
2047
100
AcDbEntity
  8
image
  6
Continuous
100
AcDbVertex
100
AcDb2dVertex
 10
15.60543412158394
 20
4.326673832627556
 30
0.0
 70
     8
  0
VERTEX
  5
20D7
330
2047
100
AcDbEntity
  8
image
  6
Continuous
100
AcDbVertex
100
AcDb2dVertex
 10
15.59615386315156
 20
4.323348102927749
 30
0.0
 70
     8
  0
VERTEX
  5
20D8
330
2047
100
AcDbEntity
  8
image
  6
Continuous
100
AcDbVertex
100
AcDb2dVertex
 10
15.58562488499058
 20
4.320050737283914
 30
0.0
 70
     8
  0
VERTEX
  5
20D9
330
2047
100
AcDbEntity
  8
image
  6
Continuous
100
AcDbVertex
100
AcDb2dVertex
 10
15.57367690710628
 20
4.316824282231155
 30
0.0
 70
     8
  0
VERTEX
  5
20DA
330
2047
100
AcDbEntity
  8
image
  6
Continuous
100
AcDbVertex
100
AcDb2dVertex
 10
15.5601443795135
 20
4.31371128435157
 30
0.0
 70
     8
  0
VERTEX
  5
20DB
330
2047
100
AcDbEntity
  8
image
  6
Continuous
100
AcDbVertex
100
AcDb2dVertex
 10
15.54488067226525
 20
4.310754290415236
 30
0.0
 70
     8
  0
VERTEX
  5
20DC
330
2047
100
AcDbEntity
  8
image
  6
Continuous
100
AcDbVertex
100
AcDb2dVertex
 10
15.52774388542408
 20
4.307995847239221
 30
0.0
 70
     8
  0
VERTEX
  5
20DD
330
2047
100
AcDbEntity
  8
image
  6
Continuous
100
AcDbVertex
100
AcDb2dVertex
 10
15.50859211905256
 20
4.305478501640595
 30
0.0
 70
     8
  0
VERTEX
  5
20DE
330
2047
100
AcDbEntity
  8
image
  6
Continuous
100
AcDbVertex
100
AcDb2dVertex
 10
15.48728347321323
 20
4.303244800436427
 30
0.0
 70
     8
  0
VERTEX
  5
20DF
330
2047
100
AcDbEntity
  8
image
  6
Continuous
100
AcDbVertex
100
AcDb2dVertex
 10
15.46367604796865
 20
4.301337290443789
 30
0.0
 70
     8
  0
VERTEX
  5
20E0
330
2047
100
AcDbEntity
  8
image
  6
Continuous
100
AcDbVertex
100
AcDb2dVertex
 10
15.43762794338137
 20
4.299798518479748
 30
0.0
 70
     8
  0
VERTEX
  5
20E1
330
2047
100
AcDbEntity
  8
image
  6
Continuous
100
AcDbVertex
100
AcDb2dVertex
 10
15.40899725951396
 20
4.298671031361373
 30
0.0
 70
     8
  0
VERTEX
  5
20E2
330
2047
100
AcDbEntity
  8
image
  6
Continuous
100
AcDbVertex
100
AcDb2dVertex
 10
15.37775798139386
 20
4.297978466234324
 30
0.0
 70
     8
  0
VERTEX
  5
20E3
330
2047
100
AcDbEntity
  8
image
  6
Continuous
100
AcDbVertex
100
AcDb2dVertex
 10
15.34434763390816
 20
4.297668821558612
 30
0.0
 70
     8
  0
VERTEX
  5
20E4
330
2047
100
AcDbEntity
  8
image
  6
Continuous
100
AcDbVertex
100
AcDb2dVertex
 10
15.30931962690882
 20
4.297671186122834
 30
0.0
 70
     8
  0
VERTEX
  5
20E5
330
2047
100
AcDbEntity
  8
image
  6
Continuous
100
AcDbVertex
100
AcDb2dVertex
 10
15.27322737024781
 20
4.297914648715591
 30
0.0
 70
     8
  0
VERTEX
  5
20E6
330
2047
100
AcDbEntity
  8
image
  6
Continuous
100
AcDbVertex
100
AcDb2dVertex
 10
15.23662427377712
 20
4.29832829812548
 30
0.0
 70
     8
  0
VERTEX
  5
20E7
330
2047
100
AcDbEntity
  8
image
  6
Continuous
100
AcDbVertex
100
AcDb2dVertex
 10
15.20006374734871
 20
4.298841223141102
 30
0.0
 70
     8
  0
VERTEX
  5
20E8
330
2047
100
AcDbEntity
  8
image
  6
Continuous
100
AcDbVertex
100
AcDb2dVertex
 10
15.16409920081457
 20
4.299382512551056
 30
0.0
 70
     8
  0
VERTEX
  5
20E9
330
2047
100
AcDbEntity
  8
image
  6
Continuous
100
AcDbVertex
100
AcDb2dVertex
 10
15.12928404402665
 20
4.299881255143939
 30
0.0
 70
     8
  0
VERTEX
  5
20EA
330
2047
100
AcDbEntity
  8
image
  6
Continuous
100
AcDbVertex
100
AcDb2dVertex
 10
15.09603451686543
 20
4.300278358243587
 30
0.0
 70
     8
  0
VERTEX
  5
20EB
330
2047
100
AcDbEntity
  8
image
  6
Continuous
100
AcDbVertex
100
AcDb2dVertex
 10
15.06421817932533
 20
4.300562003314762
 30
0.0
 70
     8
  0
VERTEX
  5
20EC
330
2047
100
AcDbEntity
  8
image
  6
Continuous
100
AcDbVertex
100
AcDb2dVertex
 10
15.03356542142928
 20
4.300732190357469
 30
0.0
 70
     8
  0
VERTEX
  5
20ED
330
2047
100
AcDbEntity
  8
image
  6
Continuous
100
AcDbVertex
100
AcDb2dVertex
 10
15.00380663320018
 20
4.300788919371703
 30
0.0
 70
     8
  0
VERTEX
  5
20EE
330
2047
100
AcDbEntity
  8
image
  6
Continuous
100
AcDbVertex
100
AcDb2dVertex
 10
14.97467220466095
 20
4.300732190357469
 30
0.0
 70
     8
  0
VERTEX
  5
20EF
330
2047
100
AcDbEntity
  8
image
  6
Continuous
100
AcDbVertex
100
AcDb2dVertex
 10
14.94589252583451
 20
4.300562003314762
 30
0.0
 70
     8
  0
VERTEX
  5
20F0
330
2047
100
AcDbEntity
  8
image
  6
Continuous
100
AcDbVertex
100
AcDb2dVertex
 10
14.91719798674377
 20
4.300278358243587
 30
0.0
 70
     8
  0
VERTEX
  5
20F1
330
2047
100
AcDbEntity
  8
image
  6
Continuous
100
AcDbVertex
100
AcDb2dVertex
 10
14.88831897741165
 20
4.299881255143939
 30
0.0
 70
     8
  0
VERTEX
  5
20F2
330
2047
100
AcDbEntity
  8
image
  6
Continuous
100
AcDbVertex
100
AcDb2dVertex
 10
14.85909704286004
 20
4.299377785142602
 30
0.0
 70
     8
  0
VERTEX
  5
20F3
330
2047
100
AcDbEntity
  8
image
  6
Continuous
100
AcDbVertex
100
AcDb2dVertex
 10
14.82981834810668
 20
4.29880340387347
 30
0.0
 70
     8
  0
VERTEX
  5
20F4
330
2047
100
AcDbEntity
  8
image
  6
Continuous
100
AcDbVertex
100
AcDb2dVertex
 10
14.80088021316831
 20
4.29820065809722
 30
0.0
 70
     8
  0
VERTEX
  5
20F5
330
2047
100
AcDbEntity
  8
image
  6
Continuous
100
AcDbVertex
100
AcDb2dVertex
 10
14.77267995806164
 20
4.297612094574529
 30
0.0
 70
     8
  0
VERTEX
  5
20F6
330
2047
100
AcDbEntity
  8
image
  6
Continuous
100
AcDbVertex
100
AcDb2dVertex
 10
14.74561490280339
 20
4.297080260066074
 30
0.0
 70
     8
  0
VERTEX
  5
20F7
330
2047
100
AcDbEntity
  8
image
  6
Continuous
100
AcDbVertex
100
AcDb2dVertex
 10
14.7200823674103
 20
4.29664770133253
 30
0.0
 70
     8
  0
VERTEX
  5
20F8
330
2047
100
AcDbEntity
  8
image
  6
Continuous
100
AcDbVertex
100
AcDb2dVertex
 10
14.69647967189908
 20
4.296356965134574
 30
0.0
 70
     8
  0
VERTEX
  5
20F9
330
2047
100
AcDbEntity
  8
image
  6
Continuous
100
AcDbVertex
100
AcDb2dVertex
 10
14.67520413628645
 20
4.296250598232883
 30
0.0
 70
     8
  0
VERTEX
  5
20FA
330
2047
100
AcDbEntity
  8
image
  6
Continuous
100
AcDbVertex
100
AcDb2dVertex
 10
14.65651591058856
 20
4.296364056242556
 30
0.0
 70
     8
  0
VERTEX
  5
20FB
330
2047
100
AcDbEntity
  8
image
  6
Continuous
100
AcDbVertex
100
AcDb2dVertex
 10
14.64012646481922
 20
4.296704430196384
 30
0.0
 70
     8
  0
VERTEX
  5
20FC
330
2047
100
AcDbEntity
  8
image
  6
Continuous
100
AcDbVertex
100
AcDb2dVertex
 10
14.62561009899166
 20
4.29727171998158
 30
0.0
 70
     8
  0
VERTEX
  5
20FD
330
2047
100
AcDbEntity
  8
image
  6
Continuous
100
AcDbVertex
100
AcDb2dVertex
 10
14.61254111311912
 20
4.298065925485357
 30
0.0
 70
     8
  0
VERTEX
  5
20FE
330
2047
100
AcDbEntity
  8
image
  6
Continuous
100
AcDbVertex
100
AcDb2dVertex
 10
14.60049380721482
 20
4.299087046594932
 30
0.0
 70
     8
  0
VERTEX
  5
20FF
330
2047
100
AcDbEntity
  8
image
  6
Continuous
100
AcDbVertex
100
AcDb2dVertex
 10
14.58904248129199
 20
4.300335083197516
 30
0.0
 70
     8
  0
VERTEX
  5
2100
330
2047
100
AcDbEntity
  8
image
  6
Continuous
100
AcDbVertex
100
AcDb2dVertex
 10
14.57776143536387
 20
4.301810035180323
 30
0.0
 70
     8
  0
VERTEX
  5
2101
330
2047
100
AcDbEntity
  8
image
  6
Continuous
100
AcDbVertex
100
AcDb2dVertex
 10
14.56622496944369
 20
4.303511902430567
 30
0.0
 70
     8
  0
VERTEX
  5
2102
330
2047
100
AcDbEntity
  8
image
  6
Continuous
100
AcDbVertex
100
AcDb2dVertex
 10
14.55413509352618
 20
4.305450139680568
 30
0.0
 70
     8
  0
VERTEX
  5
2103
330
2047
100
AcDbEntity
  8
image
  6
Continuous
100
AcDbVertex
100
AcDb2dVertex
 10
14.54170465753203
 20
4.30767202104306
 30
0.0
 70
     8
  0
VERTEX
  5
2104
330
2047
100
AcDbEntity
  8
image
  6
Continuous
100
AcDbVertex
100
AcDb2dVertex
 10
14.52927422136345
 20
4.310234275475888
 30
0.0
 70
     8
  0
VERTEX
  5
2105
330
2047
100
AcDbEntity
  8
image
  6
Continuous
100
AcDbVertex
100
AcDb2dVertex
 10
14.51718434492264
 20
4.313193631936893
 30
0.0
 70
     8
  0
VERTEX
  5
2106
330
2047
100
AcDbEntity
  8
image
  6
Continuous
100
AcDbVertex
100
AcDb2dVertex
 10
14.50577558811179
 20
4.316606819383918
 30
0.0
 70
     8
  0
VERTEX
  5
2107
330
2047
100
AcDbEntity
  8
image
  6
Continuous
100
AcDbVertex
100
AcDb2dVertex
 10
14.4953885108331
 20
4.320530566774803
 30
0.0
 70
     8
  0
VERTEX
  5
2108
330
2047
100
AcDbEntity
  8
image
  6
Continuous
100
AcDbVertex
100
AcDb2dVertex
 10
14.48636367298876
 20
4.325021603067392
 30
0.0
 70
     8
  0
VERTEX
  5
2109
330
2047
100
AcDbEntity
  8
image
  6
Continuous
100
AcDbVertex
100
AcDb2dVertex
 10
14.47904163448099
 20
4.330136657219527
 30
0.0
 70
     8
  0
VERTEX
  5
210A
330
2047
100
AcDbEntity
  8
image
  6
Continuous
100
AcDbVertex
100
AcDb2dVertex
 10
14.47368018024119
 20
4.335885184104509
 30
0.0
 70
     8
  0
VERTEX
  5
210B
330
2047
100
AcDbEntity
  8
image
  6
Continuous
100
AcDbVertex
100
AcDb2dVertex
 10
14.47020599531768
 20
4.342087542257476
 30
0.0
 70
     8
  0
VERTEX
  5
210C
330
2047
100
AcDbEntity
  8
image
  6
Continuous
100
AcDbVertex
100
AcDb2dVertex
 10
14.46846298978799
 20
4.348516816129025
 30
0.0
 70
     8
  0
VERTEX
  5
210D
330
2047
100
AcDbEntity
  8
image
  6
Continuous
100
AcDbVertex
100
AcDb2dVertex
 10
14.46829507372965
 20
4.354946090169753
 30
0.0
 70
     8
  0
VERTEX
  5
210E
330
2047
100
AcDbEntity
  8
image
  6
Continuous
100
AcDbVertex
100
AcDb2dVertex
 10
14.46954615722019
 20
4.361148448830259
 30
0.0
 70
     8
  0
VERTEX
  5
210F
330
2047
100
AcDbEntity
  8
image
  6
Continuous
100
AcDbVertex
100
AcDb2dVertex
 10
14.47206015033715
 20
4.366896976561137
 30
0.0
 70
     8
  0
VERTEX
  5
2110
330
2047
100
AcDbEntity
  8
image
  6
Continuous
100
AcDbVertex
100
AcDb2dVertex
 10
14.47568096315806
 20
4.371964757812987
 30
0.0
 70
     8
  0
VERTEX
  5
2111
330
2047
100
AcDbEntity
  8
image
  6
Continuous
100
AcDbVertex
100
AcDb2dVertex
 10
14.48025250576044
 20
4.376124877036406
 30
0.0
 70
     8
  0
VERTEX
  5
2112
330
2047
100
AcDbEntity
  8
image
  6
Continuous
100
AcDbVertex
100
AcDb2dVertex
 10
14.48564233821141
 20
4.379209511264169
 30
0.0
 70
     8
  0
VERTEX
  5
2113
330
2047
100
AcDbEntity
  8
image
  6
Continuous
100
AcDbVertex
100
AcDb2dVertex
 10
14.49181262053638
 20
4.381287207857767
 30
0.0
 70
     8
  0
VERTEX
  5
2114
330
2047
100
AcDbEntity
  8
image
  6
Continuous
100
AcDbVertex
100
AcDb2dVertex
 10
14.49874916275031
 20
4.382485606760872
 30
0.0
 70
     8
  0
VERTEX
  5
2115
330
2047
100
AcDbEntity
  8
image
  6
Continuous
100
AcDbVertex
100
AcDb2dVertex
 10
14.50643777486818
 20
4.382932347917154
 30
0.0
 70
     8
  0
VERTEX
  5
2116
330
2047
100
AcDbEntity
  8
image
  6
Continuous
100
AcDbVertex
100
AcDb2dVertex
 10
14.51486426690497
 20
4.382755071270284
 30
0.0
 70
     8
  0
VERTEX
  5
2117
330
2047
100
AcDbEntity
  8
image
  6
Continuous
100
AcDbVertex
100
AcDb2dVertex
 10
14.52401444887567
 20
4.382081416763932
 30
0.0
 70
     8
  0
VERTEX
  5
2118
330
2047
100
AcDbEntity
  8
image
  6
Continuous
100
AcDbVertex
100
AcDb2dVertex
 10
14.53387413079523
 20
4.381039024341768
 30
0.0
 70
     8
  0
VERTEX
  5
2119
330
2047
100
AcDbEntity
  8
image
  6
Continuous
100
AcDbVertex
100
AcDb2dVertex
 10
14.54442912267865
 20
4.379755533947462
 30
0.0
 70
     8
  0
VERTEX
  5
211A
330
2047
100
AcDbEntity
  8
image
  6
Continuous
100
AcDbVertex
100
AcDb2dVertex
 10
14.55568178953797
 20
4.378339675909669
 30
0.0
 70
     8
  0
VERTEX
  5
211B
330
2047
100
AcDbEntity
  8
image
  6
Continuous
100
AcDbVertex
100
AcDb2dVertex
 10
14.56770071637346
 20
4.376824542096962
 30
0.0
 70
     8
  0
VERTEX
  5
211C
330
2047
100
AcDbEntity
  8
image
  6
Continuous
100
AcDbVertex
100
AcDb2dVertex
 10
14.58057104318249
 20
4.375224314762903
 30
0.0
 70
     8
  0
VERTEX
  5
211D
330
2047
100
AcDbEntity
  8
image
  6
Continuous
100
AcDbVertex
100
AcDb2dVertex
 10
14.59437790996242
 20
4.373553176161051
 30
0.0
 70
     8
  0
VERTEX
  5
211E
330
2047
100
AcDbEntity
  8
image
  6
Continuous
100
AcDbVertex
100
AcDb2dVertex
 10
14.60920645671058
 20
4.371825308544963
 30
0.0
 70
     8
  0
VERTEX
  5
211F
330
2047
100
AcDbEntity
  8
image
  6
Continuous
100
AcDbVertex
100
AcDb2dVertex
 10
14.62514182342435
 20
4.370054894168198
 30
0.0
 70
     8
  0
VERTEX
  5
2120
330
2047
100
AcDbEntity
  8
image
  6
Continuous
100
AcDbVertex
100
AcDb2dVertex
 10
14.64226915010107
 20
4.368256115284316
 30
0.0
 70
     8
  0
VERTEX
  5
2121
330
2047
100
AcDbEntity
  8
image
  6
Continuous
100
AcDbVertex
100
AcDb2dVertex
 10
14.66067357673809
 20
4.366443154146875
 30
0.0
 70
     8
  0
VERTEX
  5
2122
330
2047
100
AcDbEntity
  8
image
  6
Continuous
100
AcDbVertex
100
AcDb2dVertex
 10
14.68037638834202
 20
4.364632556708961
 30
0.0
 70
     8
  0
VERTEX
  5
2123
330
2047
100
AcDbEntity
  8
image
  6
Continuous
100
AcDbVertex
100
AcDb2dVertex
 10
14.70114344995648
 20
4.362850323721772
 30
0.0
 70
     8
  0
VERTEX
  5
2124
330
2047
100
AcDbEntity
  8
image
  6
Continuous
100
AcDbVertex
100
AcDb2dVertex
 10
14.72267677163435
 20
4.361124819636033
 30
0.0
 70
     8
  0
VERTEX
  5
2125
330
2047
100
AcDbEntity
  8
image
  6
Continuous
100
AcDbVertex
100
AcDb2dVertex
 10
14.74467836342848
 20
4.359484408902466
 30
0.0
 70
     8
  0
VERTEX
  5
2126
330
2047
100
AcDbEntity
  8
image
  6
Continuous
100
AcDbVertex
100
AcDb2dVertex
 10
14.76685023539176
 20
4.357957455971797
 30
0.0
 70
     8
  0
VERTEX
  5
2127
330
2047
100
AcDbEntity
  8
image
  6
Continuous
100
AcDbVertex
100
AcDb2dVertex
 10
14.78889439757704
 20
4.356572325294752
 30
0.0
 70
     8
  0
VERTEX
  5
2128
330
2047
100
AcDbEntity
  8
image
  6
Continuous
100
AcDbVertex
100
AcDb2dVertex
 10
14.81051286003721
 20
4.355357381322053
 30
0.0
 70
     8
  0
VERTEX
  5
2129
330
2047
100
AcDbEntity
  8
image
  6
Continuous
100
AcDbVertex
100
AcDb2dVertex
 10
14.83140763282513
 20
4.354340988504426
 30
0.0
 70
     8
  0
VERTEX
  5
212A
330
2047
100
AcDbEntity
  8
image
  6
Continuous
100
AcDbVertex
100
AcDb2dVertex
 10
14.85136586596196
 20
4.35353969276676
 30
0.0
 70
     8
  0
VERTEX
  5
212B
330
2047
100
AcDbEntity
  8
image
  6
Continuous
100
AcDbVertex
100
AcDb2dVertex
 10
14.87051526934196
 20
4.352922765930606
 30
0.0
 70
     8
  0
VERTEX
  5
212C
330
2047
100
AcDbEntity
  8
image
  6
Continuous
100
AcDbVertex
100
AcDb2dVertex
 10
14.88906869282771
 20
4.352447661291681
 30
0.0
 70
     8
  0
VERTEX
  5
212D
330
2047
100
AcDbEntity
  8
image
  6
Continuous
100
AcDbVertex
100
AcDb2dVertex
 10
14.90723898628176
 20
4.352071832145703
 30
0.0
 70
     8
  0
VERTEX
  5
212E
330
2047
100
AcDbEntity
  8
image
  6
Continuous
100
AcDbVertex
100
AcDb2dVertex
 10
14.92523899956666
 20
4.351752731788387
 30
0.0
 70
     8
  0
VERTEX
  5
212F
330
2047
100
AcDbEntity
  8
image
  6
Continuous
100
AcDbVertex
100
AcDb2dVertex
 10
14.94328158254498
 20
4.351447813515451
 30
0.0
 70
     8
  0
VERTEX
  5
2130
330
2047
100
AcDbEntity
  8
image
  6
Continuous
100
AcDbVertex
100
AcDb2dVertex
 10
14.96157958507929
 20
4.351114530622611
 30
0.0
 70
     8
  0
VERTEX
  5
2131
330
2047
100
AcDbEntity
  8
image
  6
Continuous
100
AcDbVertex
100
AcDb2dVertex
 10
14.98034585703212
 20
4.350710336405584
 30
0.0
 70
     8
  0
VERTEX
  5
2132
330
2047
100
AcDbEntity
  8
image
  6
Continuous
100
AcDbVertex
100
AcDb2dVertex
 10
14.99976486829601
 20
4.350209230103773
 30
0.0
 70
     8
  0
VERTEX
  5
2133
330
2047
100
AcDbEntity
  8
image
  6
Continuous
100
AcDbVertex
100
AcDb2dVertex
 10
15.01990756888328
 20
4.349651394731335
 30
0.0
 70
     8
  0
VERTEX
  5
2134
330
2047
100
AcDbEntity
  8
image
  6
Continuous
100
AcDbVertex
100
AcDb2dVertex
 10
15.04081652883622
 20
4.34909355924611
 30
0.0
 70
     8
  0
VERTEX
  5
2135
330
2047
100
AcDbEntity
  8
image
  6
Continuous
100
AcDbVertex
100
AcDb2dVertex
 10
15.0625343181971
 20
4.348592452605941
 30
0.0
 70
     8
  0
VERTEX
  5
2136
330
2047
100
AcDbEntity
  8
image
  6
Continuous
100
AcDbVertex
100
AcDb2dVertex
 10
15.08510350700823
 20
4.34820480376867
 30
0.0
 70
     8
  0
VERTEX
  5
2137
330
2047
100
AcDbEntity
  8
image
  6
Continuous
100
AcDbVertex
100
AcDb2dVertex
 10
15.10856666531187
 20
4.347987341692139
 30
0.0
 70
     8
  0
VERTEX
  5
2138
330
2047
100
AcDbEntity
  8
image
  6
Continuous
100
AcDbVertex
100
AcDb2dVertex
 10
15.13296636315033
 20
4.34799679533419
 30
0.0
 70
     8
  0
VERTEX
  5
2139
330
2047
100
AcDbEntity
  8
image
  6
Continuous
100
AcDbVertex
100
AcDb2dVertex
 10
15.15834517056587
 20
4.348289893652665
 30
0.0
 70
     8
  0
VERTEX
  5
213A
330
2047
100
AcDbEntity
  8
image
  6
Continuous
100
AcDbVertex
100
AcDb2dVertex
 10
15.18467943762708
 20
4.3489139107791
 30
0.0
 70
     8
  0
VERTEX
  5
213B
330
2047
100
AcDbEntity
  8
image
  6
Continuous
100
AcDbVertex
100
AcDb2dVertex
 10
15.21168063450766
 20
4.349878301539802
 30
0.0
 70
     8
  0
VERTEX
  5
213C
330
2047
100
AcDbEntity
  8
image
  6
Continuous
100
AcDbVertex
100
AcDb2dVertex
 10
15.23899401140761
 20
4.35118306593477
 30
0.0
 70
     8
  0
VERTEX
  5
213D
330
2047
100
AcDbEntity
  8
image
  6
Continuous
100
AcDbVertex
100
AcDb2dVertex
 10
15.26626481852693
 20
4.352828203964004
 30
0.0
 70
     8
  0
VERTEX
  5
213E
330
2047
100
AcDbEntity
  8
image
  6
Continuous
100
AcDbVertex
100
AcDb2dVertex
 10
15.2931383060656
 20
4.354813715627504
 30
0.0
 70
     8
  0
VERTEX
  5
213F
330
2047
100
AcDbEntity
  8
image
  6
Continuous
100
AcDbVertex
100
AcDb2dVertex
 10
15.31925972422363
 20
4.357139600925271
 30
0.0
 70
     8
  0
VERTEX
  5
2140
330
2047
100
AcDbEntity
  8
image
  6
Continuous
100
AcDbVertex
100
AcDb2dVertex
 10
15.34427432320102
 20
4.359805859857305
 30
0.0
 70
     8
  0
VERTEX
  5
2141
330
2047
100
AcDbEntity
  8
image
  6
Continuous
100
AcDbVertex
100
AcDb2dVertex
 10
15.36782735319775
 20
4.362812492423604
 30
0.0
 70
     8
  0
VERTEX
  5
2142
330
2047
100
AcDbEntity
  8
image
  6
Continuous
100
AcDbVertex
100
AcDb2dVertex
 10
15.38961845935642
 20
4.366154771196919
 30
0.0
 70
     8
  0
VERTEX
  5
2143
330
2047
100
AcDbEntity
  8
image
  6
Continuous
100
AcDbVertex
100
AcDb2dVertex
 10
15.40956486658994
 20
4.369809059040989
 30
0.0
 70
     8
  0
VERTEX
  5
2144
330
2047
100
AcDbEntity
  8
image
  6
Continuous
100
AcDbVertex
100
AcDb2dVertex
 10
15.42763819475386
 20
4.373746991392304
 30
0.0
 70
     8
  0
VERTEX
  5
2145
330
2047
100
AcDbEntity
  8
image
  6
Continuous
100
AcDbVertex
100
AcDb2dVertex
 10
15.44381006370368
 20
4.377940203687354
 30
0.0
 70
     8
  0
VERTEX
  5
2146
330
2047
100
AcDbEntity
  8
image
  6
Continuous
100
AcDbVertex
100
AcDb2dVertex
 10
15.45805209329493
 20
4.382360331362627
 30
0.0
 70
     8
  0
VERTEX
  5
2147
330
2047
100
AcDbEntity
  8
image
  6
Continuous
100
AcDbVertex
100
AcDb2dVertex
 10
15.47033590338313
 20
4.386979009854612
 30
0.0
 70
     8
  0
VERTEX
  5
2148
330
2047
100
AcDbEntity
  8
image
  6
Continuous
100
AcDbVertex
100
AcDb2dVertex
 10
15.4806331138238
 20
4.391767874599799
 30
0.0
 70
     8
  0
VERTEX
  5
2149
330
2047
100
AcDbEntity
  8
image
  6
Continuous
100
AcDbVertex
100
AcDb2dVertex
 10
15.48891534447246
 20
4.396698561034677
 30
0.0
 70
     8
  0
VERTEX
  5
214A
330
2047
100
AcDbEntity
  8
image
  6
Continuous
100
AcDbVertex
100
AcDb2dVertex
 10
15.49516840521326
 20
4.401747432041784
 30
0.0
 70
     8
  0
VERTEX
  5
214B
330
2047
100
AcDbEntity
  8
image
  6
Continuous
100
AcDbVertex
100
AcDb2dVertex
 10
15.49943486604488
 20
4.406909760287859
 30
0.0
 70
     8
  0
VERTEX
  5
214C
330
2047
100
AcDbEntity
  8
image
  6
Continuous
100
AcDbVertex
100
AcDb2dVertex
 10
15.50177148699463
 20
4.412185545885686
 30
0.0
 70
     8
  0
VERTEX
  5
214D
330
2047
100
AcDbEntity
  8
image
  6
Continuous
100
AcDbVertex
100
AcDb2dVertex
 10
15.50223502808981
 20
4.417574788948053
 30
0.0
 70
     8
  0
VERTEX
  5
214E
330
2047
100
AcDbEntity
  8
image
  6
Continuous
100
AcDbVertex
100
AcDb2dVertex
 10
15.50088224935773
 20
4.423077489587745
 30
0.0
 70
     8
  0
VERTEX
  5
214F
330
2047
100
AcDbEntity
  8
image
  6
Continuous
100
AcDbVertex
100
AcDb2dVertex
 10
15.49776991082571
 20
4.428693647917549
 30
0.0
 70
     8
  0
VERTEX
  5
2150
330
2047
100
AcDbEntity
  8
image
  6
Continuous
100
AcDbVertex
100
AcDb2dVertex
 10
15.49295477252105
 20
4.43442326405025
 30
0.0
 70
     8
  0
VERTEX
  5
2151
330
2047
100
AcDbEntity
  8
image
  6
Continuous
100
AcDbVertex
100
AcDb2dVertex
 10
15.48649359447105
 20
4.440266338098637
 30
0.0
 70
     8
  0
VERTEX
  5
2152
330
2047
100
AcDbEntity
  8
image
  6
Continuous
100
AcDbVertex
100
AcDb2dVertex
 10
15.478445501686
 20
4.446201596823351
 30
0.0
 70
     8
  0
VERTEX
  5
2153
330
2047
100
AcDbEntity
  8
image
  6
Continuous
100
AcDbVertex
100
AcDb2dVertex
 10
15.46887907910804
 20
4.452122673576473
 30
0.0
 70
     8
  0
VERTEX
  5
2154
330
2047
100
AcDbEntity
  8
image
  6
Continuous
100
AcDbVertex
100
AcDb2dVertex
 10
15.45786527666228
 20
4.457901928357938
 30
0.0
 70
     8
  0
VERTEX
  5
2155
330
2047
100
AcDbEntity
  8
image
  6
Continuous
100
AcDbVertex
100
AcDb2dVertex
 10
15.44547504427384
 20
4.463411721167682
 30
0.0
 70
     8
  0
VERTEX
  5
2156
330
2047
100
AcDbEntity
  8
image
  6
Continuous
100
AcDbVertex
100
AcDb2dVertex
 10
15.43177933186783
 20
4.468524412005643
 30
0.0
 70
     8
  0
VERTEX
  5
2157
330
2047
100
AcDbEntity
  8
image
  6
Continuous
100
AcDbVertex
100
AcDb2dVertex
 10
15.41684908936937
 20
4.473112360871756
 30
0.0
 70
     8
  0
VERTEX
  5
2158
330
2047
100
AcDbEntity
  8
image
  6
Continuous
100
AcDbVertex
100
AcDb2dVertex
 10
15.40075526670357
 20
4.477047927765957
 30
0.0
 70
     8
  0
VERTEX
  5
2159
330
2047
100
AcDbEntity
  8
image
  6
Continuous
100
AcDbVertex
100
AcDb2dVertex
 10
15.38356881379554
 20
4.480203472688184
 30
0.0
 70
     8
  0
VERTEX
  5
215A
330
2047
100
AcDbEntity
  8
image
  6
Continuous
100
AcDbVertex
100
AcDb2dVertex
 10
15.36537723559654
 20
4.482489174887206
 30
0.0
 70
     8
  0
VERTEX
  5
215B
330
2047
100
AcDbEntity
  8
image
  6
Continuous
100
AcDbVertex
100
AcDb2dVertex
 10
15.34633425716235
 20
4.483966490607136
 30
0.0
 70
     8
  0
VERTEX
  5
215C
330
2047
100
AcDbEntity
  8
image
  6
Continuous
100
AcDbVertex
100
AcDb2dVertex
 10
15.3266101585749
 20
4.48473469534092
 30
0.0
 70
     8
  0
VERTEX
  5
215D
330
2047
100
AcDbEntity
  8
image
  6
Continuous
100
AcDbVertex
100
AcDb2dVertex
 10
15.3063752199161
 20
4.484893064581503
 30
0.0
 70
     8
  0
VERTEX
  5
215E
330
2047
100
AcDbEntity
  8
image
  6
Continuous
100
AcDbVertex
100
AcDb2dVertex
 10
15.2857997212679
 20
4.484540873821831
 30
0.0
 70
     8
  0
VERTEX
  5
215F
330
2047
100
AcDbEntity
  8
image
  6
Continuous
100
AcDbVertex
100
AcDb2dVertex
 10
15.2650539427122
 20
4.483777398554852
 30
0.0
 70
     8
  0
VERTEX
  5
2160
330
2047
100
AcDbEntity
  8
image
  6
Continuous
100
AcDbVertex
100
AcDb2dVertex
 10
15.24430816433094
 20
4.482701914273509
 30
0.0
 70
     8
  0
VERTEX
  5
2161
330
2047
100
AcDbEntity
  8
image
  6
Continuous
100
AcDbVertex
100
AcDb2dVertex
 10
15.22373266620603
 20
4.48141369647075
 30
0.0
 70
     8
  0
VERTEX
  5
2162
330
2047
100
AcDbEntity
  8
image
  6
Continuous
100
AcDbVertex
100
AcDb2dVertex
 10
15.20345279340869
 20
4.479997838432956
 30
0.0
 70
     8
  0
VERTEX
  5
2163
330
2047
100
AcDbEntity
  8
image
  6
Continuous
100
AcDbVertex
100
AcDb2dVertex
 10
15.18341415096725
 20
4.47848270462025
 30
0.0
 70
     8
  0
VERTEX
  5
2164
330
2047
100
AcDbEntity
  8
image
  6
Continuous
100
AcDbVertex
100
AcDb2dVertex
 10
15.16351740889935
 20
4.476882477286191
 30
0.0
 70
     8
  0
VERTEX
  5
2165
330
2047
100
AcDbEntity
  8
image
  6
Continuous
100
AcDbVertex
100
AcDb2dVertex
 10
15.14366323722259
 20
4.475211338684339
 30
0.0
 70
     8
  0
VERTEX
  5
2166
330
2047
100
AcDbEntity
  8
image
  6
Continuous
100
AcDbVertex
100
AcDb2dVertex
 10
15.12375230595461
 20
4.47348347106825
 30
0.0
 70
     8
  0
VERTEX
  5
2167
330
2047
100
AcDbEntity
  8
image
  6
Continuous
100
AcDbVertex
100
AcDb2dVertex
 10
15.10368528511303
 20
4.471713056691486
 30
0.0
 70
     8
  0
VERTEX
  5
2168
330
2047
100
AcDbEntity
  8
image
  6
Continuous
100
AcDbVertex
100
AcDb2dVertex
 10
15.08336284471547
 20
4.469914277807604
 30
0.0
 70
     8
  0
VERTEX
  5
2169
330
2047
100
AcDbEntity
  8
image
  6
Continuous
100
AcDbVertex
100
AcDb2dVertex
 10
15.06268565477956
 20
4.468101316670163
 30
0.0
 70
     8
  0
VERTEX
  5
216A
330
2047
100
AcDbEntity
  8
image
  6
Continuous
100
AcDbVertex
100
AcDb2dVertex
 10
15.04159932030456
 20
4.466288355532722
 30
0.0
 70
     8
  0
VERTEX
  5
216B
330
2047
100
AcDbEntity
  8
image
  6
Continuous
100
AcDbVertex
100
AcDb2dVertex
 10
15.02022918621632
 20
4.46448957664884
 30
0.0
 70
     8
  0
VERTEX
  5
216C
330
2047
100
AcDbEntity
  8
image
  6
Continuous
100
AcDbVertex
100
AcDb2dVertex
 10
14.99874553242233
 20
4.462719162272075
 30
0.0
 70
     8
  0
VERTEX
  5
216D
330
2047
100
AcDbEntity
  8
image
  6
Continuous
100
AcDbVertex
100
AcDb2dVertex
 10
14.97731863883009
 20
4.460991294655987
 30
0.0
 70
     8
  0
VERTEX
  5
216E
330
2047
100
AcDbEntity
  8
image
  6
Continuous
100
AcDbVertex
100
AcDb2dVertex
 10
14.95611878534707
 20
4.459320156054134
 30
0.0
 70
     8
  0
VERTEX
  5
216F
330
2047
100
AcDbEntity
  8
image
  6
Continuous
100
AcDbVertex
100
AcDb2dVertex
 10
14.93531625188078
 20
4.457719928720075
 30
0.0
 70
     8
  0
VERTEX
  5
2170
330
2047
100
AcDbEntity
  8
image
  6
Continuous
100
AcDbVertex
100
AcDb2dVertex
 10
14.9150813183387
 20
4.456204794907369
 30
0.0
 70
     8
  0
VERTEX
  5
2171
330
2047
100
AcDbEntity
  8
image
  6
Continuous
100
AcDbVertex
100
AcDb2dVertex
 10
14.89558426462833
 20
4.454788936869576
 30
0.0
 70
     8
  0
VERTEX
  5
2172
330
2047
100
AcDbEntity
  8
image
  6
Continuous
100
AcDbVertex
100
AcDb2dVertex
 10
14.87694807066346
 20
4.453493627949436
 30
0.0
 70
     8
  0
VERTEX
  5
2173
330
2047
100
AcDbEntity
  8
image
  6
Continuous
100
AcDbVertex
100
AcDb2dVertex
 10
14.85910651638318
 20
4.45236850584643
 30
0.0
 70
     8
  0
VERTEX
  5
2174
330
2047
100
AcDbEntity
  8
image
  6
Continuous
100
AcDbVertex
100
AcDb2dVertex
 10
14.84194608173285
 20
4.451470299349219
 30
0.0
 70
     8
  0
VERTEX
  5
2175
330
2047
100
AcDbEntity
  8
image
  6
Continuous
100
AcDbVertex
100
AcDb2dVertex
 10
14.82535324665788
 20
4.450855737246468
 30
0.0
 70
     8
  0
VERTEX
  5
2176
330
2047
100
AcDbEntity
  8
image
  6
Continuous
100
AcDbVertex
100
AcDb2dVertex
 10
14.80921449110364
 20
4.450581548326837
 30
0.0
 70
     8
  0
VERTEX
  5
2177
330
2047
100
AcDbEntity
  8
image
  6
Continuous
100
AcDbVertex
100
AcDb2dVertex
 10
14.79341629501551
 20
4.450704461378991
 30
0.0
 70
     8
  0
VERTEX
  5
2178
330
2047
100
AcDbEntity
  8
image
  6
Continuous
100
AcDbVertex
100
AcDb2dVertex
 10
14.77784513833887
 20
4.451281205191591
 30
0.0
 70
     8
  0
VERTEX
  5
2179
330
2047
100
AcDbEntity
  8
image
  6
Continuous
100
AcDbVertex
100
AcDb2dVertex
 10
14.76238750101913
 20
4.4523685085533
 30
0.0
 70
     8
  0
VERTEX
  5
217A
330
2047
100
AcDbEntity
  8
image
  6
Continuous
100
AcDbVertex
100
AcDb2dVertex
 10
14.74698732404783
 20
4.454001261803815
 30
0.0
 70
     8
  0
VERTEX
  5
217B
330
2047
100
AcDbEntity
  8
image
  6
Continuous
100
AcDbVertex
100
AcDb2dVertex
 10
14.73181839260131
 20
4.456127001486963
 30
0.0
 70
     8
  0
VERTEX
  5
217C
330
2047
100
AcDbEntity
  8
image
  6
Continuous
100
AcDbVertex
100
AcDb2dVertex
 10
14.71711195290207
 20
4.458671425697605
 30
0.0
 70
     8
  0
VERTEX
  5
217D
330
2047
100
AcDbEntity
  8
image
  6
Continuous
100
AcDbVertex
100
AcDb2dVertex
 10
14.70309925117262
 20
4.461560232530604
 30
0.0
 70
     8
  0
VERTEX
  5
217E
330
2047
100
AcDbEntity
  8
image
  6
Continuous
100
AcDbVertex
100
AcDb2dVertex
 10
14.69001153363546
 20
4.464719120080818
 30
0.0
 70
     8
  0
VERTEX
  5
217F
330
2047
100
AcDbEntity
  8
image
  6
Continuous
100
AcDbVertex
100
AcDb2dVertex
 10
14.67808004651312
 20
4.46807378644311
 30
0.0
 70
     8
  0
VERTEX
  5
2180
330
2047
100
AcDbEntity
  8
image
  6
Continuous
100
AcDbVertex
100
AcDb2dVertex
 10
14.66753603602808
 20
4.47154992971234
 30
0.0
 70
     8
  0
VERTEX
  5
2181
330
2047
100
AcDbEntity
  8
image
  6
Continuous
100
AcDbVertex
100
AcDb2dVertex
 10
14.65861074840287
 20
4.47507324798337
 30
0.0
 70
     8
  0
VERTEX
  5
2182
330
2047
100
AcDbEntity
  8
image
  6
Continuous
100
AcDbVertex
100
AcDb2dVertex
 10
14.65147268333553
 20
4.478579343677662
 30
0.0
 70
     8
  0
VERTEX
  5
2183
330
2047
100
AcDbEntity
  8
image
  6
Continuous
100
AcDbVertex
100
AcDb2dVertex
 10
14.64603935442633
 20
4.48204343652308
 30
0.0
 70
     8
  0
VERTEX
  5
2184
330
2047
100
AcDbEntity
  8
image
  6
Continuous
100
AcDbVertex
100
AcDb2dVertex
 10
14.64216552875107
 20
4.485450650574093
 30
0.0
 70
     8
  0
VERTEX
  5
2185
330
2047
100
AcDbEntity
  8
image
  6
Continuous
100
AcDbVertex
100
AcDb2dVertex
 10
14.63970597338557
 20
4.488786109885166
 30
0.0
 70
     8
  0
VERTEX
  5
2186
330
2047
100
AcDbEntity
  8
image
  6
Continuous
100
AcDbVertex
100
AcDb2dVertex
 10
14.63851545540563
 20
4.492034938510764
 30
0.0
 70
     8
  0
VERTEX
  5
2187
330
2047
100
AcDbEntity
  8
image
  6
Continuous
100
AcDbVertex
100
AcDb2dVertex
 10
14.63844874188707
 20
4.495182260505356
 30
0.0
 70
     8
  0
VERTEX
  5
2188
330
2047
100
AcDbEntity
  8
image
  6
Continuous
100
AcDbVertex
100
AcDb2dVertex
 10
14.63936059990568
 20
4.498213199923408
 30
0.0
 70
     8
  0
VERTEX
  5
2189
330
2047
100
AcDbEntity
  8
image
  6
Continuous
100
AcDbVertex
100
AcDb2dVertex
 10
14.64110579653728
 20
4.501112880819385
 30
0.0
 70
     8
  0
VERTEX
  5
218A
330
2047
100
AcDbEntity
  8
image
  6
Continuous
100
AcDbVertex
100
AcDb2dVertex
 10
14.64364546751965
 20
4.503871951049485
 30
0.0
 70
     8
  0
VERTEX
  5
218B
330
2047
100
AcDbEntity
  8
image
  6
Continuous
100
AcDbVertex
100
AcDb2dVertex
 10
14.64736622323839
 20
4.506503153676821
 30
0.0
 70
     8
  0
VERTEX
  5
218C
330
2047
100
AcDbEntity
  8
image
  6
Continuous
100
AcDbVertex
100
AcDb2dVertex
 10
14.6527610427411
 20
4.509024755566239
 30
0.0
 70
     8
  0
VERTEX
  5
218D
330
2047
100
AcDbEntity
  8
image
  6
Continuous
100
AcDbVertex
100
AcDb2dVertex
 10
14.66032290507537
 20
4.51145502358258
 30
0.0
 70
     8
  0
VERTEX
  5
218E
330
2047
100
AcDbEntity
  8
image
  6
Continuous
100
AcDbVertex
100
AcDb2dVertex
 10
14.67054478928876
 20
4.513812224590691
 30
0.0
 70
     8
  0
VERTEX
  5
218F
330
2047
100
AcDbEntity
  8
image
  6
Continuous
100
AcDbVertex
100
AcDb2dVertex
 10
14.68391967442888
 20
4.516114625455414
 30
0.0
 70
     8
  0
VERTEX
  5
2190
330
2047
100
AcDbEntity
  8
image
  6
Continuous
100
AcDbVertex
100
AcDb2dVertex
 10
14.70094053954329
 20
4.518380493041594
 30
0.0
 70
     8
  0
VERTEX
  5
2191
330
2047
100
AcDbEntity
  8
image
  6
Continuous
100
AcDbVertex
100
AcDb2dVertex
 10
14.72210036367959
 20
4.520628094214075
 30
0.0
 70
     8
  0
VERTEX
  5
2192
330
2047
100
AcDbEntity
  8
image
  6
Continuous
100
AcDbVertex
100
AcDb2dVertex
 10
14.74770664087752
 20
4.52286583194498
 30
0.0
 70
     8
  0
VERTEX
  5
2193
330
2047
100
AcDbEntity
  8
image
  6
Continuous
100
AcDbVertex
100
AcDb2dVertex
 10
14.77732492514537
 20
4.525062653635543
 30
0.0
 70
     8
  0
VERTEX
  5
2194
330
2047
100
AcDbEntity
  8
image
  6
Continuous
100
AcDbVertex
100
AcDb2dVertex
 10
14.81033528548362
 20
4.527177642794276
 30
0.0
 70
     8
  0
VERTEX
  5
2195
330
2047
100
AcDbEntity
  8
image
  6
Continuous
100
AcDbVertex
100
AcDb2dVertex
 10
14.84611779089271
 20
4.529169882929693
 30
0.0
 70
     8
  0
VERTEX
  5
2196
330
2047
100
AcDbEntity
  8
image
  6
Continuous
100
AcDbVertex
100
AcDb2dVertex
 10
14.88405251037311
 20
4.530998457550306
 30
0.0
 70
     8
  0
VERTEX
  5
2197
330
2047
100
AcDbEntity
  8
image
  6
Continuous
100
AcDbVertex
100
AcDb2dVertex
 10
14.92351951292528
 20
4.532622450164628
 30
0.0
 70
     8
  0
VERTEX
  5
2198
330
2047
100
AcDbEntity
  8
image
  6
Continuous
100
AcDbVertex
100
AcDb2dVertex
 10
14.96389886754969
 20
4.534000944281172
 30
0.0
 70
     8
  0
VERTEX
  5
2199
330
2047
100
AcDbEntity
  8
image
  6
Continuous
100
AcDbVertex
100
AcDb2dVertex
 10
15.00457064324678
 20
4.53509302340845
 30
0.0
 70
     8
  0
VERTEX
  5
219A
330
2047
100
AcDbEntity
  8
image
  6
Continuous
100
AcDbVertex
100
AcDb2dVertex
 10
15.04501920555521
 20
4.535860693676281
 30
0.0
 70
     8
  0
VERTEX
  5
219B
330
2047
100
AcDbEntity
  8
image
  6
Continuous
100
AcDbVertex
100
AcDb2dVertex
 10
15.08514610616636
 20
4.536277651699698
 30
0.0
 70
     8
  0
VERTEX
  5
219C
330
2047
100
AcDbEntity
  8
image
  6
Continuous
100
AcDbVertex
100
AcDb2dVertex
 10
15.12495719330982
 20
4.536320516715042
 30
0.0
 70
     8
  0
VERTEX
  5
219D
330
2047
100
AcDbEntity
  8
image
  6
Continuous
100
AcDbVertex
100
AcDb2dVertex
 10
15.16445831521515
 20
4.535965907958651
 30
0.0
 70
     8
  0
VERTEX
  5
219E
330
2047
100
AcDbEntity
  8
image
  6
Continuous
100
AcDbVertex
100
AcDb2dVertex
 10
15.20365532011195
 20
4.535190444666865
 30
0.0
 70
     8
  0
VERTEX
  5
219F
330
2047
100
AcDbEntity
  8
image
  6
Continuous
100
AcDbVertex
100
AcDb2dVertex
 10
15.24255405622977
 20
4.533970746076023
 30
0.0
 70
     8
  0
VERTEX
  5
21A0
330
2047
100
AcDbEntity
  8
image
  6
Continuous
100
AcDbVertex
100
AcDb2dVertex
 10
15.28116037179821
 20
4.532283431422465
 30
0.0
 70
     8
  0
VERTEX
  5
21A1
330
2047
100
AcDbEntity
  8
image
  6
Continuous
100
AcDbVertex
100
AcDb2dVertex
 10
15.31948011504684
 20
4.530105119942531
 30
0.0
 70
     8
  0
VERTEX
  5
21A2
330
2047
100
AcDbEntity
  8
image
  6
Continuous
100
AcDbVertex
100
AcDb2dVertex
 10
15.35747917012569
 20
4.527385153239764
 30
0.0
 70
     8
  0
VERTEX
  5
21A3
330
2047
100
AcDbEntity
  8
image
  6
Continuous
100
AcDbVertex
100
AcDb2dVertex
 10
15.39496356486668
 20
4.52396376238653
 30
0.0
 70
     8
  0
VERTEX
  5
21A4
330
2047
100
AcDbEntity
  8
image
  6
Continuous
100
AcDbVertex
100
AcDb2dVertex
 10
15.43169936302217
 20
4.519653900822397
 30
0.0
 70
     8
  0
VERTEX
  5
21A5
330
2047
100
AcDbEntity
  8
image
  6
Continuous
100
AcDbVertex
100
AcDb2dVertex
 10
15.46745262834451
 20
4.514268521986937
 30
0.0
 70
     8
  0
VERTEX
  5
21A6
330
2047
100
AcDbEntity
  8
image
  6
Continuous
100
AcDbVertex
100
AcDb2dVertex
 10
15.50198942458608
 20
4.50762057931972
 30
0.0
 70
     8
  0
VERTEX
  5
21A7
330
2047
100
AcDbEntity
  8
image
  6
Continuous
100
AcDbVertex
100
AcDb2dVertex
 10
15.53507581549925
 20
4.499523026260315
 30
0.0
 70
     8
  0
VERTEX
  5
21A8
330
2047
100
AcDbEntity
  8
image
  6
Continuous
100
AcDbVertex
100
AcDb2dVertex
 10
15.56647786483637
 20
4.489788816248293
 30
0.0
 70
     8
  0
VERTEX
  5
21A9
330
2047
100
AcDbEntity
  8
image
  6
Continuous
100
AcDbVertex
100
AcDb2dVertex
 10
15.59596163634982
 20
4.478230902723223
 30
0.0
 70
     8
  0
VERTEX
  5
21AA
330
2047
100
AcDbEntity
  8
image
  6
Continuous
100
AcDbVertex
100
AcDb2dVertex
 10
15.62333900630458
 20
4.464737252570216
 30
0.0
 70
     8
  0
VERTEX
  5
21AB
330
2047
100
AcDbEntity
  8
image
  6
Continuous
100
AcDbVertex
100
AcDb2dVertex
 10
15.6486051010161
 20
4.44949588645655
 30
0.0
 70
     8
  0
VERTEX
  5
21AC
330
2047
100
AcDbEntity
  8
image
  6
Continuous
100
AcDbVertex
100
AcDb2dVertex
 10
15.67180085931245
 20
4.432769838495044
 30
0.0
 70
     8
  0
VERTEX
  5
21AD
330
2047
100
AcDbEntity
  8
image
  6
Continuous
100
AcDbVertex
100
AcDb2dVertex
 10
15.69296722002172
 20
4.414822142798515
 30
0.0
 70
     8
  0
VERTEX
  5
21AE
330
2047
100
AcDbEntity
  8
image
  6
Continuous
100
AcDbVertex
100
AcDb2dVertex
 10
15.71214512197196
 20
4.395915833479782
 30
0.0
 70
     8
  0
VERTEX
  5
21AF
330
2047
100
AcDbEntity
  8
image
  6
Continuous
100
AcDbVertex
100
AcDb2dVertex
 10
15.72937550399126
 20
4.376313944651665
 30
0.0
 70
     8
  0
VERTEX
  5
21B0
330
2047
100
AcDbEntity
  8
image
  6
Continuous
100
AcDbVertex
100
AcDb2dVertex
 10
15.7446993049077
 20
4.356279510426979
 30
0.0
 70
     8
  0
VERTEX
  5
21B1
330
2047
100
AcDbEntity
  8
image
  6
Continuous
100
AcDbVertex
100
AcDb2dVertex
 10
15.75815746354933
 20
4.336075564918545
 30
0.0
 70
     8
  0
VERTEX
  5
21B2
330
2047
100
AcDbEntity
  8
image
  6
Continuous
100
AcDbVertex
100
AcDb2dVertex
 10
15.76980359031533
 20
4.315886232018494
 30
0.0
 70
     8
  0
VERTEX
  5
21B3
330
2047
100
AcDbEntity
  8
image
  6
Continuous
100
AcDbVertex
100
AcDb2dVertex
 10
15.77974198188925
 20
4.295579994736209
 30
0.0
 70
     8
  0
VERTEX
  5
21B4
330
2047
100
AcDbEntity
  8
image
  6
Continuous
100
AcDbVertex
100
AcDb2dVertex
 10
15.78808960652573
 20
4.274946425860385
 30
0.0
 70
     8
  0
VERTEX
  5
21B5
330
2047
100
AcDbEntity
  8
image
  6
Continuous
100
AcDbVertex
100
AcDb2dVertex
 10
15.79496343247941
 20
4.253775098179718
 30
0.0
 70
     8
  0
VERTEX
  5
21B6
330
2047
100
AcDbEntity
  8
image
  6
Continuous
100
AcDbVertex
100
AcDb2dVertex
 10
15.80048042800493
 20
4.231855584482904
 30
0.0
 70
     8
  0
VERTEX
  5
21B7
330
2047
100
AcDbEntity
  8
image
  6
Continuous
100
AcDbVertex
100
AcDb2dVertex
 10
15.80475756135694
 20
4.208977457558637
 30
0.0
 70
     8
  0
VERTEX
  5
21B8
330
2047
100
AcDbEntity
  8
image
  6
Continuous
100
AcDbVertex
100
AcDb2dVertex
 10
15.80791180079007
 20
4.184930290195613
 30
0.0
 70
     8
  0
VERTEX
  5
21B9
330
2047
100
AcDbEntity
  8
image
  6
Continuous
100
AcDbVertex
100
AcDb2dVertex
 10
15.81006011455899
 20
4.15950365518253
 30
0.0
 70
     8
  0
VERTEX
  5
21BA
330
2047
100
AcDbEntity
  8
image
  6
Continuous
100
AcDbVertex
100
AcDb2dVertex
 10
15.81130620657195
 20
4.132560799101188
 30
0.0
 70
     8
  0
VERTEX
  5
21BB
330
2047
100
AcDbEntity
  8
image
  6
Continuous
100
AcDbVertex
100
AcDb2dVertex
 10
15.81170072335182
 20
4.104259663705814
 30
0.0
 70
     8
  0
VERTEX
  5
21BC
330
2047
100
AcDbEntity
  8
image
  6
Continuous
100
AcDbVertex
100
AcDb2dVertex
 10
15.81128104707511
 20
4.074831864543744
 30
0.0
 70
     8
  0
VERTEX
  5
21BD
330
2047
100
AcDbEntity
  8
image
  6
Continuous
100
AcDbVertex
100
AcDb2dVertex
 10
15.81008455991831
 20
4.04450901716231
 30
0.0
 70
     8
  0
VERTEX
  5
21BE
330
2047
100
AcDbEntity
  8
image
  6
Continuous
100
AcDbVertex
100
AcDb2dVertex
 10
15.80814864405791
 20
4.013522737108847
 30
0.0
 70
     8
  0
VERTEX
  5
21BF
330
2047
100
AcDbEntity
  8
image
  6
Continuous
100
AcDbVertex
100
AcDb2dVertex
 10
15.80551068167043
 20
3.982104639930689
 30
0.0
 70
     8
  0
VERTEX
  5
21C0
330
2047
100
AcDbEntity
  8
image
  6
Continuous
100
AcDbVertex
100
AcDb2dVertex
 10
15.80220805493235
 20
3.95048634117517
 30
0.0
 70
     8
  0
VERTEX
  5
21C1
330
2047
100
AcDbEntity
  8
image
  6
Continuous
100
AcDbVertex
100
AcDb2dVertex
 10
15.79827814602017
 20
3.918899456389623
 30
0.0
 70
     8
  0
VERTEX
  5
21C2
330
2047
100
AcDbEntity
  8
image
  6
Continuous
100
AcDbVertex
100
AcDb2dVertex
 10
15.79375413379536
 20
3.887523152436307
 30
0.0
 70
     8
  0
VERTEX
  5
21C3
330
2047
100
AcDbEntity
  8
image
  6
Continuous
100
AcDbVertex
100
AcDb2dVertex
 10
15.78865238385912
 20
3.856326801437182
 30
0.0
 70
     8
  0
VERTEX
  5
21C4
330
2047
100
AcDbEntity
  8
image
  6
Continuous
100
AcDbVertex
100
AcDb2dVertex
 10
15.78298505849765
 20
3.825227326829129
 30
0.0
 70
     8
  0
VERTEX
  5
21C5
330
2047
100
AcDbEntity
  8
image
  6
Continuous
100
AcDbVertex
100
AcDb2dVertex
 10
15.77676431999712
 20
3.794141652049032
 30
0.0
 70
     8
  0
VERTEX
  5
21C6
330
2047
100
AcDbEntity
  8
image
  6
Continuous
100
AcDbVertex
100
AcDb2dVertex
 10
15.77000233064372
 20
3.762986700533774
 30
0.0
 70
     8
  0
VERTEX
  5
21C7
330
2047
100
AcDbEntity
  8
image
  6
Continuous
100
AcDbVertex
100
AcDb2dVertex
 10
15.76271125272362
 20
3.731679395720238
 30
0.0
 70
     8
  0
VERTEX
  5
21C8
330
2047
100
AcDbEntity
  8
image
  6
Continuous
100
AcDbVertex
100
AcDb2dVertex
 10
15.75490324852301
 20
3.700136661045307
 30
0.0
 70
     8
  0
VERTEX
  5
21C9
330
2047
100
AcDbEntity
  8
image
  6
Continuous
100
AcDbVertex
100
AcDb2dVertex
 10
15.74659048032805
 20
3.668275419945865
 30
0.0
 70
     8
  0
VERTEX
  5
21CA
330
2047
100
AcDbEntity
  8
image
  6
Continuous
100
AcDbVertex
100
AcDb2dVertex
 10
15.73777052617814
 20
3.636014958303983
 30
0.0
 70
     8
  0
VERTEX
  5
21CB
330
2047
100
AcDbEntity
  8
image
  6
Continuous
100
AcDbVertex
100
AcDb2dVertex
 10
15.72838262712545
 20
3.60328401178249
 30
0.0
 70
     8
  0
VERTEX
  5
21CC
330
2047
100
AcDbEntity
  8
image
  6
Continuous
100
AcDbVertex
100
AcDb2dVertex
 10
15.71835143997537
 20
3.570013678489404
 30
0.0
 70
     8
  0
VERTEX
  5
21CD
330
2047
100
AcDbEntity
  8
image
  6
Continuous
100
AcDbVertex
100
AcDb2dVertex
 10
15.70760162153327
 20
3.536135056532743
 30
0.0
 70
     8
  0
VERTEX
  5
21CE
330
2047
100
AcDbEntity
  8
image
  6
Continuous
100
AcDbVertex
100
AcDb2dVertex
 10
15.69605782860456
 20
3.501579244020524
 30
0.0
 70
     8
  0
VERTEX
  5
21CF
330
2047
100
AcDbEntity
  8
image
  6
Continuous
100
AcDbVertex
100
AcDb2dVertex
 10
15.6836447179946
 20
3.466277339060767
 30
0.0
 70
     8
  0
VERTEX
  5
21D0
330
2047
100
AcDbEntity
  8
image
  6
Continuous
100
AcDbVertex
100
AcDb2dVertex
 10
15.67028694650878
 20
3.430160439761488
 30
0.0
 70
     8
  0
VERTEX
  5
21D1
330
2047
100
AcDbEntity
  8
image
  6
Continuous
100
AcDbVertex
100
AcDb2dVertex
 10
15.65590917095249
 20
3.393159644230706
 30
0.0
 70
     8
  0
VERTEX
  5
21D2
330
2047
100
AcDbEntity
  8
image
  6
Continuous
100
AcDbVertex
100
AcDb2dVertex
 10
15.64046185449186
 20
3.355253682253017
 30
0.0
 70
     8
  0
VERTEX
  5
21D3
330
2047
100
AcDbEntity
  8
image
  6
Continuous
100
AcDbVertex
100
AcDb2dVertex
 10
15.62399868573608
 20
3.316611810319336
 30
0.0
 70
     8
  0
VERTEX
  5
21D4
330
2047
100
AcDbEntity
  8
image
  6
Continuous
100
AcDbVertex
100
AcDb2dVertex
 10
15.6065991596551
 20
3.277450916597156
 30
0.0
 70
     8
  0
VERTEX
  5
21D5
330
2047
100
AcDbEntity
  8
image
  6
Continuous
100
AcDbVertex
100
AcDb2dVertex
 10
15.58834277121885
 20
3.23798788925397
 30
0.0
 70
     8
  0
VERTEX
  5
21D6
330
2047
100
AcDbEntity
  8
image
  6
Continuous
100
AcDbVertex
100
AcDb2dVertex
 10
15.56930901539727
 20
3.198439616457271
 30
0.0
 70
     8
  0
VERTEX
  5
21D7
330
2047
100
AcDbEntity
  8
image
  6
Continuous
100
AcDbVertex
100
AcDb2dVertex
 10
15.5495773871603
 20
3.159022986374552
 30
0.0
 70
     8
  0
VERTEX
  5
21D8
330
2047
100
AcDbEntity
  8
image
  6
Continuous
100
AcDbVertex
100
AcDb2dVertex
 10
15.5292273814779
 20
3.119954887173307
 30
0.0
 70
     8
  0
VERTEX
  5
21D9
330
2047
100
AcDbEntity
  8
image
  6
Continuous
100
AcDbVertex
100
AcDb2dVertex
 10
15.50833849331999
 20
3.081452207021027
 30
0.0
 70
     8
  0
VERTEX
  5
21DA
330
2047
100
AcDbEntity
  8
image
  6
Continuous
100
AcDbVertex
100
AcDb2dVertex
 10
15.48695906412647
 20
3.043689634176233
 30
0.0
 70
     8
  0
VERTEX
  5
21DB
330
2047
100
AcDbEntity
  8
image
  6
Continuous
100
AcDbVertex
100
AcDb2dVertex
 10
15.46501282121699
 20
3.006673057261542
 30
0.0
 70
     8
  0
VERTEX
  5
21DC
330
2047
100
AcDbEntity
  8
image
  6
Continuous
100
AcDbVertex
100
AcDb2dVertex
 10
15.44239233838114
 20
2.970366164990598
 30
0.0
 70
     8
  0
VERTEX
  5
21DD
330
2047
100
AcDbEntity
  8
image
  6
Continuous
100
AcDbVertex
100
AcDb2dVertex
 10
15.41899018940851
 20
2.934732646077045
 30
0.0
 70
     8
  0
VERTEX
  5
21DE
330
2047
100
AcDbEntity
  8
image
  6
Continuous
100
AcDbVertex
100
AcDb2dVertex
 10
15.39469894808871
 20
2.899736189234526
 30
0.0
 70
     8
  0
VERTEX
  5
21DF
330
2047
100
AcDbEntity
  8
image
  6
Continuous
100
AcDbVertex
100
AcDb2dVertex
 10
15.36941118821133
 20
2.865340483176686
 30
0.0
 70
     8
  0
VERTEX
  5
21E0
330
2047
100
AcDbEntity
  8
image
  6
Continuous
100
AcDbVertex
100
AcDb2dVertex
 10
15.34301948356595
 20
2.831509216617168
 30
0.0
 70
     8
  0
VERTEX
  5
21E1
330
2047
100
AcDbEntity
  8
image
  6
Continuous
100
AcDbVertex
100
AcDb2dVertex
 10
15.31541640794218
 20
2.798206078269616
 30
0.0
 70
     8
  0
VERTEX
  5
21E2
330
2047
100
AcDbEntity
  8
image
  6
Continuous
100
AcDbVertex
100
AcDb2dVertex
 10
15.28655326712401
 20
2.765425995828961
 30
0.0
 70
     8
  0
VERTEX
  5
21E3
330
2047
100
AcDbEntity
  8
image
  6
Continuous
100
AcDbVertex
100
AcDb2dVertex
 10
15.25661629487299
 20
2.733288852915278
 30
0.0
 70
     8
  0
VERTEX
  5
21E4
330
2047
100
AcDbEntity
  8
image
  6
Continuous
100
AcDbVertex
100
AcDb2dVertex
 10
15.2258504569451
 20
2.70194577212993
 30
0.0
 70
     8
  0
VERTEX
  5
21E5
330
2047
100
AcDbEntity
  8
image
  6
Continuous
100
AcDbVertex
100
AcDb2dVertex
 10
15.19450071909628
 20
2.671547876074281
 30
0.0
 70
     8
  0
VERTEX
  5
21E6
330
2047
100
AcDbEntity
  8
image
  6
Continuous
100
AcDbVertex
100
AcDb2dVertex
 10
15.16281204708249
 20
2.642246287349694
 30
0.0
 70
     8
  0
VERTEX
  5
21E7
330
2047
100
AcDbEntity
  8
image
  6
Continuous
100
AcDbVertex
100
AcDb2dVertex
 10
15.13102940665971
 20
2.614192128557531
 30
0.0
 70
     8
  0
VERTEX
  5
21E8
330
2047
100
AcDbEntity
  8
image
  6
Continuous
100
AcDbVertex
100
AcDb2dVertex
 10
15.09939776358388
 20
2.587536522299155
 30
0.0
 70
     8
  0
VERTEX
  5
21E9
330
2047
100
AcDbEntity
  8
image
  6
Continuous
100
AcDbVertex
100
AcDb2dVertex
 10
15.06816208361097
 20
2.56243059117593
 30
0.0
 70
     8
  0
VERTEX
  5
21EA
330
2047
100
AcDbEntity
  8
image
  6
Continuous
100
AcDbVertex
100
AcDb2dVertex
 10
15.03747139316989
 20
2.538961299529557
 30
0.0
 70
     8
  0
VERTEX
  5
21EB
330
2047
100
AcDbEntity
  8
image
  6
Continuous
100
AcDbVertex
100
AcDb2dVertex
 10
15.00709096138147
 20
2.516958978663096
 30
0.0
 70
     8
  0
VERTEX
  5
21EC
330
2047
100
AcDbEntity
  8
image
  6
Continuous
100
AcDbVertex
100
AcDb2dVertex
 10
14.97669011803948
 20
2.496189801619943
 30
0.0
 70
     8
  0
VERTEX
  5
21ED
330
2047
100
AcDbEntity
  8
image
  6
Continuous
100
AcDbVertex
100
AcDb2dVertex
 10
14.9459381929377
 20
2.476419941443497
 30
0.0
 70
     8
  0
VERTEX
  5
21EE
330
2047
100
AcDbEntity
  8
image
  6
Continuous
100
AcDbVertex
100
AcDb2dVertex
 10
14.91450451586991
 20
2.457415571177156
 30
0.0
 70
     8
  0
VERTEX
  5
21EF
330
2047
100
AcDbEntity
  8
image
  6
Continuous
100
AcDbVertex
100
AcDb2dVertex
 10
14.88205841662988
 20
2.438942863864318
 30
0.0
 70
     8
  0
VERTEX
  5
21F0
330
2047
100
AcDbEntity
  8
image
  6
Continuous
100
AcDbVertex
100
AcDb2dVertex
 10
14.84826922501139
 20
2.42076799254838
 30
0.0
 70
     8
  0
VERTEX
  5
21F1
330
2047
100
AcDbEntity
  8
image
  6
Continuous
100
AcDbVertex
100
AcDb2dVertex
 10
14.81280627080823
 20
2.402657130272741
 30
0.0
 70
     8
  0
VERTEX
  5
21F2
330
2047
100
AcDbEntity
  8
image
  6
Continuous
100
AcDbVertex
100
AcDb2dVertex
 10
14.77519459128208
 20
2.384449125358362
 30
0.0
 70
     8
  0
VERTEX
  5
21F3
330
2047
100
AcDbEntity
  8
image
  6
Continuous
100
AcDbVertex
100
AcDb2dVertex
 10
14.73438205356627
 20
2.366273527236463
 30
0.0
 70
     8
  0
VERTEX
  5
21F4
330
2047
100
AcDbEntity
  8
image
  6
Continuous
100
AcDbVertex
100
AcDb2dVertex
 10
14.68917223226204
 20
2.348332560615824
 30
0.0
 70
     8
  0
VERTEX
  5
21F5
330
2047
100
AcDbEntity
  8
image
  6
Continuous
100
AcDbVertex
100
AcDb2dVertex
 10
14.63836870197065
 20
2.330828450205228
 30
0.0
 70
     8
  0
VERTEX
  5
21F6
330
2047
100
AcDbEntity
  8
image
  6
Continuous
100
AcDbVertex
100
AcDb2dVertex
 10
14.58077503729332
 20
2.313963420713459
 30
0.0
 70
     8
  0
VERTEX
  5
21F7
330
2047
100
AcDbEntity
  8
image
  6
Continuous
100
AcDbVertex
100
AcDb2dVertex
 10
14.51519481283131
 20
2.297939696849299
 30
0.0
 70
     8
  0
VERTEX
  5
21F8
330
2047
100
AcDbEntity
  8
image
  6
Continuous
100
AcDbVertex
100
AcDb2dVertex
 10
14.44043160318585
 20
2.282959503321528
 30
0.0
 70
     8
  0
VERTEX
  5
21F9
330
2047
100
AcDbEntity
  8
image
  6
Continuous
100
AcDbVertex
100
AcDb2dVertex
 10
14.35528898295818
 20
2.269225064838932
 30
0.0
 70
     8
  0
VERTEX
  5
21FA
330
2047
100
AcDbEntity
  8
image
  6
Continuous
100
AcDbVertex
100
AcDb2dVertex
 10
16.03662177092311
 20
5.078547753445793
 30
0.0
 70
    16
  0
VERTEX
  5
21FB
330
2047
100
AcDbEntity
  8
image
  6
Continuous
100
AcDbVertex
100
AcDb2dVertex
 10
15.98517564976015
 20
4.623099951388262
 30
0.0
 70
    16
  0
VERTEX
  5
21FC
330
2047
100
AcDbEntity
  8
image
  6
Continuous
100
AcDbVertex
100
AcDb2dVertex
 10
15.88124038529585
 20
4.337397956604997
 30
0.0
 70
    16
  0
VERTEX
  5
21FD
330
2047
100
AcDbEntity
  8
image
  6
Continuous
100
AcDbVertex
100
AcDb2dVertex
 10
15.7722612110106
 20
4.213955910361943
 30
0.0
 70
    16
  0
VERTEX
  5
21FE
330
2047
100
AcDbEntity
  8
image
  6
Continuous
100
AcDbVertex
100
AcDb2dVertex
 10
15.55430286244009
 20
4.177649398997952
 30
0.0
 70
    16
  0
VERTEX
  5
21FF
330
2047
100
AcDbEntity
  8
image
  6
Continuous
100
AcDbVertex
100
AcDb2dVertex
 10
15.20556947793432
 20
4.199433311591004
 30
0.0
 70
    16
  0
VERTEX
  5
2200
330
2047
100
AcDbEntity
  8
image
  6
Continuous
100
AcDbVertex
100
AcDb2dVertex
 10
14.76238750846162
 20
4.184910712820065
 30
0.0
 70
    16
  0
VERTEX
  5
2201
330
2047
100
AcDbEntity
  8
image
  6
Continuous
100
AcDbVertex
100
AcDb2dVertex
 10
14.50810275357772
 20
4.177649398997952
 30
0.0
 70
    16
  0
VERTEX
  5
2202
330
2047
100
AcDbEntity
  8
image
  6
Continuous
100
AcDbVertex
100
AcDb2dVertex
 10
14.41365412395584
 20
4.22121719531077
 30
0.0
 70
    16
  0
VERTEX
  5
2203
330
2047
100
AcDbEntity
  8
image
  6
Continuous
100
AcDbVertex
100
AcDb2dVertex
 10
14.46608047342613
 20
4.245295667942007
 30
0.0
 70
    16
  0
VERTEX
  5
2204
330
2047
100
AcDbEntity
  8
image
  6
Continuous
100
AcDbVertex
100
AcDb2dVertex
 10
14.63887774485803
 20
4.235739794081709
 30
0.0
 70
    16
  0
VERTEX
  5
2205
330
2047
100
AcDbEntity
  8
image
  6
Continuous
100
AcDbVertex
100
AcDb2dVertex
 10
14.8132444594384
 20
4.228478480259596
 30
0.0
 70
    16
  0
VERTEX
  5
2206
330
2047
100
AcDbEntity
  8
image
  6
Continuous
100
AcDbVertex
100
AcDb2dVertex
 10
15.08932503131737
 20
4.22121719531077
 30
0.0
 70
    16
  0
VERTEX
  5
2207
330
2047
100
AcDbEntity
  8
image
  6
Continuous
100
AcDbVertex
100
AcDb2dVertex
 10
15.48891532214498
 20
4.22121719531077
 30
0.0
 70
    16
  0
VERTEX
  5
2208
330
2047
100
AcDbEntity
  8
image
  6
Continuous
100
AcDbVertex
100
AcDb2dVertex
 10
15.71413898770213
 20
4.250262392852648
 30
0.0
 70
    16
  0
VERTEX
  5
2209
330
2047
100
AcDbEntity
  8
image
  6
Continuous
100
AcDbVertex
100
AcDb2dVertex
 10
15.73593480469719
 20
4.301091474114292
 30
0.0
 70
    16
  0
VERTEX
  5
220A
330
2047
100
AcDbEntity
  8
image
  6
Continuous
100
AcDbVertex
100
AcDb2dVertex
 10
15.67781258138872
 20
4.359181840324763
 30
0.0
 70
    16
  0
VERTEX
  5
220B
330
2047
100
AcDbEntity
  8
image
  6
Continuous
100
AcDbVertex
100
AcDb2dVertex
 10
15.64148617507532
 20
4.344659241553824
 30
0.0
 70
    16
  0
VERTEX
  5
220C
330
2047
100
AcDbEntity
  8
image
  6
Continuous
100
AcDbVertex
100
AcDb2dVertex
 10
15.59062922409854
 20
4.315614072885231
 30
0.0
 70
    16
  0
VERTEX
  5
220D
330
2047
100
AcDbEntity
  8
image
  6
Continuous
100
AcDbVertex
100
AcDb2dVertex
 10
15.43805837116819
 20
4.293830160292179
 30
0.0
 70
    16
  0
VERTEX
  5
220E
330
2047
100
AcDbEntity
  8
image
  6
Continuous
100
AcDbVertex
100
AcDb2dVertex
 10
15.11112084831244
 20
4.301091474114292
 30
0.0
 70
    16
  0
VERTEX
  5
220F
330
2047
100
AcDbEntity
  8
image
  6
Continuous
100
AcDbVertex
100
AcDb2dVertex
 10
14.89316249974194
 20
4.301091474114292
 30
0.0
 70
    16
  0
VERTEX
  5
2210
330
2047
100
AcDbEntity
  8
image
  6
Continuous
100
AcDbVertex
100
AcDb2dVertex
 10
14.64614301718972
 20
4.293830160292179
 30
0.0
 70
    16
  0
VERTEX
  5
2211
330
2047
100
AcDbEntity
  8
image
  6
Continuous
100
AcDbVertex
100
AcDb2dVertex
 10
14.57349024921787
 20
4.301091474114292
 30
0.0
 70
    16
  0
VERTEX
  5
2212
330
2047
100
AcDbEntity
  8
image
  6
Continuous
100
AcDbVertex
100
AcDb2dVertex
 10
14.45724580260093
 20
4.322875357834058
 30
0.0
 70
    16
  0
VERTEX
  5
2213
330
2047
100
AcDbEntity
  8
image
  6
Continuous
100
AcDbVertex
100
AcDb2dVertex
 10
14.47177634726431
 20
4.388227037866641
 30
0.0
 70
    16
  0
VERTEX
  5
2214
330
2047
100
AcDbEntity
  8
image
  6
Continuous
100
AcDbVertex
100
AcDb2dVertex
 10
14.53716384290447
 20
4.380965752917814
 30
0.0
 70
    16
  0
VERTEX
  5
2215
330
2047
100
AcDbEntity
  8
image
  6
Continuous
100
AcDbVertex
100
AcDb2dVertex
 10
14.64614301718972
 20
4.366443154146875
 30
0.0
 70
    16
  0
VERTEX
  5
2216
330
2047
100
AcDbEntity
  8
image
  6
Continuous
100
AcDbVertex
100
AcDb2dVertex
 10
14.84230554876516
 20
4.351920555375936
 30
0.0
 70
    16
  0
VERTEX
  5
2217
330
2047
100
AcDbEntity
  8
image
  6
Continuous
100
AcDbVertex
100
AcDb2dVertex
 10
14.97308058470044
 20
4.351920555375936
 30
0.0
 70
    16
  0
VERTEX
  5
2218
330
2047
100
AcDbEntity
  8
image
  6
Continuous
100
AcDbVertex
100
AcDb2dVertex
 10
15.14744725462584
 20
4.344659241553824
 30
0.0
 70
    16
  0
VERTEX
  5
2219
330
2047
100
AcDbEntity
  8
image
  6
Continuous
100
AcDbVertex
100
AcDb2dVertex
 10
15.38720142019142
 20
4.359181840324763
 30
0.0
 70
    16
  0
VERTEX
  5
221A
330
2047
100
AcDbEntity
  8
image
  6
Continuous
100
AcDbVertex
100
AcDb2dVertex
 10
15.510711183795
 20
4.395488351688753
 30
0.0
 70
    16
  0
VERTEX
  5
221B
330
2047
100
AcDbEntity
  8
image
  6
Continuous
100
AcDbVertex
100
AcDb2dVertex
 10
15.50344591146332
 20
4.439056119128284
 30
0.0
 70
    16
  0
VERTEX
  5
221C
330
2047
100
AcDbEntity
  8
image
  6
Continuous
100
AcDbVertex
100
AcDb2dVertex
 10
15.39446673717806
 20
4.489885200389928
 30
0.0
 70
    16
  0
VERTEX
  5
221D
330
2047
100
AcDbEntity
  8
image
  6
Continuous
100
AcDbVertex
100
AcDb2dVertex
 10
15.22010002259769
 20
4.482623915441102
 30
0.0
 70
    16
  0
VERTEX
  5
221E
330
2047
100
AcDbEntity
  8
image
  6
Continuous
100
AcDbVertex
100
AcDb2dVertex
 10
15.06752916966735
 20
4.468101316670163
 30
0.0
 70
    16
  0
VERTEX
  5
221F
330
2047
100
AcDbEntity
  8
image
  6
Continuous
100
AcDbVertex
100
AcDb2dVertex
 10
14.88589722741025
 20
4.453578717899223
 30
0.0
 70
    16
  0
VERTEX
  5
2220
330
2047
100
AcDbEntity
  8
image
  6
Continuous
100
AcDbVertex
100
AcDb2dVertex
 10
14.76238750846162
 20
4.446317432950397
 30
0.0
 70
    16
  0
VERTEX
  5
2221
330
2047
100
AcDbEntity
  8
image
  6
Continuous
100
AcDbVertex
100
AcDb2dVertex
 10
14.63887774485803
 20
4.475362601618989
 30
0.0
 70
    16
  0
VERTEX
  5
2222
330
2047
100
AcDbEntity
  8
image
  6
Continuous
100
AcDbVertex
100
AcDb2dVertex
 10
14.63376600252344
 20
4.502671648473866
 30
0.0
 70
    16
  0
VERTEX
  5
2223
330
2047
100
AcDbEntity
  8
image
  6
Continuous
100
AcDbVertex
100
AcDb2dVertex
 10
14.6726930242719
 20
4.520628089401862
 30
0.0
 70
    16
  0
VERTEX
  5
2224
330
2047
100
AcDbEntity
  8
image
  6
Continuous
100
AcDbVertex
100
AcDb2dVertex
 10
15.00806408246652
 20
4.538584559203144
 30
0.0
 70
    16
  0
VERTEX
  5
2225
330
2047
100
AcDbEntity
  8
image
  6
Continuous
100
AcDbVertex
100
AcDb2dVertex
 10
15.32247450534268
 20
4.535591814236264
 30
0.0
 70
    16
  0
VERTEX
  5
2226
330
2047
100
AcDbEntity
  8
image
  6
Continuous
100
AcDbVertex
100
AcDb2dVertex
 10
15.61891858644379
 20
4.499678903506985
 30
0.0
 70
    16
  0
VERTEX
  5
2227
330
2047
100
AcDbEntity
  8
image
  6
Continuous
100
AcDbVertex
100
AcDb2dVertex
 10
15.77762096698107
 20
4.335077988075133
 30
0.0
 70
    16
  0
VERTEX
  5
2228
330
2047
100
AcDbEntity
  8
image
  6
Continuous
100
AcDbVertex
100
AcDb2dVertex
 10
15.81954232692792
 20
4.176462533703757
 30
0.0
 70
    16
  0
VERTEX
  5
2229
330
2047
100
AcDbEntity
  8
image
  6
Continuous
100
AcDbVertex
100
AcDb2dVertex
 10
15.80457041266118
 20
3.916093808205019
 30
0.0
 70
    16
  0
VERTEX
  5
222A
330
2047
100
AcDbEntity
  8
image
  6
Continuous
100
AcDbVertex
100
AcDb2dVertex
 10
15.75184489854841
 20
3.672558971813904
 30
0.0
 70
    16
  0
VERTEX
  5
222B
330
2047
100
AcDbEntity
  8
image
  6
Continuous
100
AcDbVertex
100
AcDb2dVertex
 10
15.66759287511348
 20
3.403322824214551
 30
0.0
 70
    16
  0
VERTEX
  5
222C
330
2047
100
AcDbEntity
  8
image
  6
Continuous
100
AcDbVertex
100
AcDb2dVertex
 10
15.51323862671261
 20
3.073107596712125
 30
0.0
 70
    16
  0
VERTEX
  5
222D
330
2047
100
AcDbEntity
  8
image
  6
Continuous
100
AcDbVertex
100
AcDb2dVertex
 10
15.32948357795604
 20
2.792960031063113
 30
0.0
 70
    16
  0
VERTEX
  5
222E
330
2047
100
AcDbEntity
  8
image
  6
Continuous
100
AcDbVertex
100
AcDb2dVertex
 10
15.06132550911631
 20
2.544288748653122
 30
0.0
 70
    16
  0
VERTEX
  5
222F
330
2047
100
AcDbEntity
  8
image
  6
Continuous
100
AcDbVertex
100
AcDb2dVertex
 10
14.8341868872445
 20
2.404468521379981
 30
0.0
 70
    16
  0
VERTEX
  5
2230
330
2047
100
AcDbEntity
  8
image
  6
Continuous
100
AcDbVertex
100
AcDb2dVertex
 10
14.59723867358489
 20
2.304009472102263
 30
0.0
 70
    16
  0
VERTEX
  5
2231
330
2047
100
AcDbEntity
  8
image
  6
Continuous
100
AcDbVertex
100
AcDb2dVertex
 10
14.35528898295818
 20
2.269225064838932
 30
0.0
 70
    16
  0
SEQEND
  5
2232
330
2047
100
AcDbEntity
  8
image
  6
Continuous
  0
LEADER
  5
225A
330
18
100
AcDbEntity
  8
text_bubbles
100
AcDbLeader
  3
STANDARD
 76
     2
 10
15.83536740835948
 20
5.1819520757481
 30
0.0
 10
15.48066732066544
 20
5.360266107531841
 30
0.0
  0
LEADER
  5
225B
330
18
100
AcDbEntity
  8
text_bubbles
100
AcDbLeader
  3
STANDARD
 76
     2
 10
17.77712355310039
 20
5.667742453430467
 30
0.0
 10
18.24243241585106
 20
5.667742453430467
 30
0.0
  0
LEADER
  5
225C
330
18
100
AcDbEntity
  8
text_bubbles
100
AcDbLeader
  3
STANDARD
 76
     2
 10
15.96867806268213
 20
5.891636214507931
 30
0.0
 10
15.52404227214183
 20
6.197612924263788
 30
0.0
  0
LEADER
  5
225D
330
18
100
AcDbEntity
  8
text_bubbles
100
AcDbLeader
  3
STANDARD
 76
     2
 10
14.28334707898314
 20
6.798901337994039
 30
0.0
 10
14.50371857885461
 20
7.208716832819108
 30
0.0
  0
LEADER
  5
225E
330
18
100
AcDbEntity
  8
text_bubbles
100
AcDbLeader
  3
STANDARD
 76
     2
 10
18.25851343697641
 20
3.970106851075004
 30
0.0
 10
18.72382229972707
 20
3.970106851075004
 30
0.0
  0
LEADER
  5
225F
330
18
100
AcDbEntity
  8
text_bubbles
100
AcDbLeader
  3
STANDARD
 76
     2
 10
17.02160205969277
 20
4.535965907958651
 30
0.0
 10
17.17357565538779
 20
5.102419889908029
 30
0.0
  0
ENDSEC
  0
SECTION
  2
OBJECTS
  0
DICTIONARY
  5
C
330
0
100
AcDbDictionary
281
     1
  3
ACAD_COLOR
350
22A0
  3
ACAD_GROUP
350
D
  3
ACAD_LAYOUT
350
1805
  3
ACAD_MATERIAL
350
2276
  3
ACAD_MLEADERSTYLE
350
22C5
  3
ACAD_MLINESTYLE
350
1B
  3
ACAD_PLOTSETTINGS
350
1806
  3
ACAD_PLOTSTYLENAME
350
1803
  3
ACAD_SCALELIST
350
22A3
  3
ACAD_TABLESTYLE
350
22A1
  3
ACAD_VISUALSTYLE
350
228F
  3
ACDB_RECOMPOSE_DATA
350
2352
  3
AcDbVariableDictionary
350
1DDF
  3
ASE_INDEX_DICTIONARY
350
2234
  3
BNS_SELSET
350
1800
1001
BBSI_PltSel
1000
1
1000

1001
BBSI_Plots
1000

1000
User124
1000
279.399993896484
1000
431.800018310547
1000
1
1000
1
1000
1
1000
1.48929479859561E-14
1000
17.9871359092673
1000
1
1000
0
1000
1
1000
1.56885758041751
1000
0
1000
1
1000
LaserJet5Shaded.ctb
1000
0
1000
0
1000
1
1000
1
1000
0
1000
0
1000
0
1000
0
1000
0
1000
0
1000
PS1
1000

1001
BBSI_Bookmarks
1000
1
1000
1
1000
0
1000
1
1000
0
1000
0
1000
0
1000
0
1000
0
1000
0
1000
0
1001
BBSI_BookmarksEx
1000
0
1000
0
1000

1000
0
  0
DICTIONARY
  5
22CE
330
2
100
AcDbDictionary
280
     1
281
     1
  3
ACAD_LAYERFILTERS
360
25B4
  0
DICTIONARY
  5
22A0
102
{ACAD_REACTORS
330
C
102
}
330
C
100
AcDbDictionary
281
     1
  0
DICTIONARY
  5
D
102
{ACAD_REACTORS
330
C
102
}
330
C
100
AcDbDictionary
281
     1
  0
DICTIONARY
  5
1805
102
{ACAD_REACTORS
330
C
102
}
330
C
100
AcDbDictionary
281
     1
  3
Layout1
350
1808
  3
Model
350
1807
  0
DICTIONARY
  5
2276
102
{ACAD_REACTORS
330
C
102
}
330
C
100
AcDbDictionary
281
     1
  3
ByBlock
350
227F
  3
ByLayer
350
2277
  3
Global
350
2287
  0
DICTIONARY
  5
22C5
102
{ACAD_REACTORS
330
C
102
}
330
C
100
AcDbDictionary
281
     1
  3
Standard
350
2421
  0
DICTIONARY
  5
1B
102
{ACAD_REACTORS
330
C
102
}
330
C
100
AcDbDictionary
281
     1
  3
STANDARD
350
1C
  0
DICTIONARY
  5
1806
102
{ACAD_REACTORS
330
C
102
}
330
C
100
AcDbDictionary
281
     1
  3
1055 24x36 BW
350
254F
  3
1055 24x36 BW Final
350
2550
  3
1055 24x36 Color
350
2551
  3
1055 24x36 Color Shaded
350
2552
  3
1055 30x42 BW
350
2553
  3
1055 30x42 BW Final
350
2554
  3
1055 B&W Draft
350
2555
  3
1055 B&W Final
350
2556
  3
1055 BW Half
350
2557
  3
1055 Color Draft
350
2558
  3
1055 Color Final
350
2559
  3
1055+ 24x36 BW
350
255A
  3
1055+ 24x36 BW Final
350
255B
  3
1055+ 24x36 Color
350
255C
  3
1055+ 24x36 Color Shaded
350
255D
  3
1055+ 30x42 BW
350
255E
  3
1055+ 30x42 BW Final
350
255F
  3
1055+ B&W Draft
350
2560
  3
1055+ B&W Final
350
2561
  3
1055+ BW Half
350
2562
  3
1055+ Color Draft
350
2563
  3
1055+ Color Final
350
2564
  3
_1055 22x34 True Centered BW
350
2565
  3
_1055 24x36 True Centered BW
350
2566
  3
_1055 24x36 True Centered BW Final
350
2567
  3
_1055 24x36 True Centered Color
350
2568
  3
_1055 30x42 True Centered BW
350
2569
  3
_1055+ 22x34 True Centered BW
350
256A
  3
_1055+ 24x36 True Centered BW
350
256B
  3
_1055+ 24x36 True Centered BW Final
350
256C
  3
_1055+ 24x36 True Centered Color
350
256D
  3
_1055+ 30x42 True Centered BW
350
256E
  3
DWF BW 11x17 Fit
350
256F
  3
DWF BW 11x17 Half
350
2570
  3
DWF BW 22x34
350
2571
  3
DWF BW 24x36
350
2572
  3
DWF BW 30x42
350
2573
  3
DWF BW 36x48
350
2574
  3
JPEG
350
2575
  3
Laser5 11x17 Fit
350
2576
  3
Laser5 11x17 Full
350
2577
  3
Laser5 11x17 Half
350
2578
  3
Laser5 8x11 Fit
350
2579
  3
Laser5 8x11 Half
350
257A
  3
Laser5 8x11 Portrait Fit
350
257B
  3
LaserJet5 11x17
350
257C
  3
LaserJet5 8.5x11
350
257D
  3
Oki9500 11x17 BW Fit
350
257E
  3
Oki9500 11x17 BW Full
350
257F
  3
Oki9500 11x17 BW Half
350
2580
  3
Oki9500 11x17 Color Fit
350
2581
  3
Oki9500 11x17 Color Full
350
2582
  3
Oki9500 11x17 Color Half
350
2583
  3
Oki9500 8x11 BW Fit
350
2584
  3
Oki9500 8x11 BW Portrait Fit
350
2585
  3
Oki9500 8x11 Color Fit
350
2586
  3
Oki9500 8x11 Color Portrait Fit
350
2587
  3
OKI9500 B&W 11x17
350
2588
  3
OKI9500 B&W 8.5x11
350
2589
  3
OKI9500 Color 11x17
350
258A
  3
OKI9500 Color 8.5x11
350
258B
  3
Oki9600 11x17 BW Fit
350
258C
  3
Oki9600 11x17 BW Full
350
258D
  3
Oki9600 11x17 BW Half
350
258E
  3
Oki9600 11x17 Color Fit
350
258F
  3
Oki9600 11x17 Color Full
350
2590
  3
Oki9600 11x17 Color Half
350
2591
  3
Oki9600 8x11 BW Fit
350
2592
  3
Oki9600 8x11 BW Portrait Fit
350
2593
  3
Oki9600 8x11 Color Fit
350
2594
  3
Oki9600 8x11 Color Portrait Fit
350
2595
  3
OKI9600 B&W 11x17
350
2596
  3
OKI9600 B&W 8.5x11
350
2597
  3
OKI9600 Color 11x17
350
2598
  3
OKI9600 Color 8.5x11
350
2599
  3
PHX Kyocera 11x17 Fit
350
259A
  3
PHX Oki9500 11x17 BW Fit
350
259B
  3
PHX Oki9500 11x17 BW Half
350
259C
  0
ACDBDICTIONARYWDFLT
  5
1803
102
{ACAD_REACTORS
330
C
102
}
330
C
100
AcDbDictionary
281
     1
  3
Normal
350
1804
100
AcDbDictionaryWithDefault
340
1804
  0
DICTIONARY
  5
22A3
102
{ACAD_REACTORS
330
C
102
}
330
C
100
AcDbDictionary
281
     1
  3
A0
350
22A4
  0
DICTIONARY
  5
22A1
102
{ACAD_REACTORS
330
C
102
}
330
C
100
AcDbDictionary
281
     1
  3
Standard
350
22A2
  0
DICTIONARY
  5
228F
102
{ACAD_REACTORS
330
C
102
}
330
C
100
AcDbDictionary
281
     1
  3
2dWireframe
350
2295
  3
3D Hidden
350
2297
  3
3dWireframe
350
2296
  3
Basic
350
2294
  3
Brighten
350
229B
  3
ColorChange
350
229F
  3
Conceptual
350
2298
  3
Dim
350
229A
  3
Facepattern
350
229E
  3
Flat
350
2290
  3
FlatWithEdges
350
2291
  3
Gouraud
350
2292
  3
GouraudWithEdges
350
2293
  3
Linepattern
350
229D
  3
Realistic
350
2299
  3
Thicken
350
229C
  0
XRECORD
  5
2352
102
{ACAD_REACTORS
330
C
102
}
330
C
100
AcDbXrecord
280
     1
 90
        1
330
22A2
  0
DICTIONARY
  5
1DDF
102
{ACAD_REACTORS
330
C
102
}
330
C
100
AcDbDictionary
281
     1
  3
CANNOSCALE
350
2356
  3
CMLEADERSTYLE
350
2354
  3
CTABLESTYLE
350
2353
  3
DIMASSOC
350
1DE0
  3
LAYEREVAL
350
25CD
  3
LAYERNOTIFY
350
2358
  3
LIGHTINGUNITS
350
2357
  3
MSLTSCALE
350
2355
  3
SORTENTS
350
2254
  0
DICTIONARY
  5
2234
102
{ACAD_REACTORS
330
C
102
}
330
C
100
AcDbDictionary
281
     1
  3
ASEBlockHierarchyIndexRecord
350
2235
1001
DCO15
1040
1449390786.64
  0
DICTIONARY
  5
1800
102
{ACAD_REACTORS
330
C
102
}
330
0
100
AcDbDictionary
281
     1
  0
DICTIONARY
  5
25B4
102
{ACAD_REACTORS
330
22CE
102
}
330
22CE
100
AcDbDictionary
281
     1
  3
_0100-
350
25B7
  3
_0280-
350
25B6
  3
_Add Alternate
350
25B9
  3
_Bid Alternate
350
25BA
  3
_Color 253
350
25BC
  3
_Color 8
350
25B8
  3
_Color 84
350
25BB
  3
_Contours
350
25C2
  3
_Demo
350
25BD
  3
_Existing
350
25BE
  3
_Hardscape
350
25C1
  3
_NoXref
350
25B5
  3
_Row
350
25BF
  3
_Utility
350
25C0
  0
LAYOUT
  5
1808
102
{ACAD_REACTORS
330
1805
102
}
330
1805
100
AcDbPlotSettings
  1

  2
S:\AutoCAD 2002\Plotters\1055ColorDraftShaded.pc3
  4

  6

 40
0.0
 41
0.0
 42
0.0
 43
0.0
 44
0.0
 45
0.0
 46
0.0
 47
0.0
 48
0.0
 49
0.0
140
0.0
141
0.0
142
1.0
143
1.0
 70
   688
 72
     0
 73
     0
 74
     5
  7
Black&White.ctb
 75
    16
147
1.0
 76
     0
 77
     2
 78
   300
148
0.0
149
0.0
100
AcDbLayout
  1
Layout1
 70
     1
 71
     1
 10
0.0
 20
0.0
 11
12.0
 21
9.0
 12
0.0
 22
0.0
 32
0.0
 14
1.000000000000000E+20
 24
1.000000000000000E+20
 34
1.000000000000000E+20
 15
-1.000000000000000E+20
 25
-1.000000000000000E+20
 35
-1.000000000000000E+20
146
0.0
 13
0.0
 23
0.0
 33
0.0
 16
1.0
 26
0.0
 36
0.0
 17
0.0
 27
1.0
 37
0.0
 76
     0
330
15
  0
LAYOUT
  5
1807
102
{ACAD_REACTORS
330
1805
102
}
330
1805
100
AcDbPlotSettings
  1
LaserJet5 8.5x11
  2
LaserJet5Shaded-8x11.pc3
  4
Letter
  6

 40
5.873749732971191
 41
5.873734951019287
 42
6.55108642578125
 43
5.027084350585937
 44
279.3999938964844
 45
215.8999938964844
 46
0.0000000000000149
 47
17.98713590926733
 48
0.0
 49
0.0
140
0.0
141
0.0
142
1.0
143
1.568857580417505
 70
 11956
 72
     0
 73
     0
 74
     1
  7
LaserJet5Shaded.ctb
 75
     0
147
0.6374064876774087
 76
     0
 77
     2
 78
   300
148
-297.2633030833436
149
11.769362250314
100
AcDbLayout
  1
Model
 70
     1
 71
     0
 10
0.0
 20
0.0
 11
12.0
 21
9.0
 12
0.0
 22
0.0
 32
0.0
 14
0.0
 24
0.0
 34
0.0
 15
0.0
 25
0.0
 35
0.0
146
0.0
 13
0.0
 23
0.0
 33
0.0
 16
1.0
 26
0.0
 36
0.0
 17
0.0
 27
1.0
 37
0.0
 76
     0
330
18
331
2274
1001
ACAD_PSEXT
1000
LaserJet5Shaded-8x11.pc3
1000
HP LaserJet 5Si
1000
CAD Area
1000

1070
     0
  0
MATERIAL
  5
227F
102
{ACAD_XDICTIONARY
360
2280
102
}
102
{ACAD_REACTORS
330
2276
102
}
330
2276
100
AcDbMaterial
  1
ByBlock
 72
     0
 43
0.0208333333333333
 43
0.0
 43
0.0
 43
0.0
 43
0.0
 43
0.0208333333333333
 43
0.0
 43
0.0
 43
0.0
 43
0.0
 43
1.0
 43
0.0
 43
0.0
 43
0.0
 43
0.0
 43
1.0
 77
     0
 47
0.0208333333333333
 47
0.0
 47
0.0
 47
0.0
 47
0.0
 47
0.0208333333333333
 47
0.0
 47
0.0
 47
0.0
 47
0.0
 47
1.0
 47
0.0
 47
0.0
 47
0.0
 47
0.0
 47
1.0
171
     0
 49
0.0208333333333333
 49
0.0
 49
0.0
 49
0.0
 49
0.0
 49
0.0208333333333333
 49
0.0
 49
0.0
 49
0.0
 49
0.0
 49
1.0
 49
0.0
 49
0.0
 49
0.0
 49
0.0
 49
1.0
175
     0
142
0.0208333333333333
142
0.0
142
0.0
142
0.0
142
0.0
142
0.0208333333333333
142
0.0
142
0.0
142
0.0
142
0.0
142
1.0
142
0.0
142
0.0
142
0.0
142
0.0
142
1.0
179
     0
144
0.0208333333333333
144
0.0
144
0.0
144
0.0
144
0.0
144
0.0208333333333333
144
0.0
144
0.0
144
0.0
144
0.0
144
1.0
144
0.0
144
0.0
144
0.0
144
0.0
144
1.0
147
0.0208333333333333
147
0.0
147
0.0
147
0.0
147
0.0
147
0.0208333333333333
147
0.0
147
0.0
147
0.0
147
0.0
147
1.0
147
0.0
147
0.0
147
0.0
147
0.0
147
1.0
  0
MATERIAL
  5
2277
102
{ACAD_XDICTIONARY
360
2278
102
}
102
{ACAD_REACTORS
330
2276
102
}
330
2276
100
AcDbMaterial
  1
ByLayer
 72
     0
 43
0.0208333333333333
 43
0.0
 43
0.0
 43
0.0
 43
0.0
 43
0.0208333333333333
 43
0.0
 43
0.0
 43
0.0
 43
0.0
 43
1.0
 43
0.0
 43
0.0
 43
0.0
 43
0.0
 43
1.0
 77
     0
 47
0.0208333333333333
 47
0.0
 47
0.0
 47
0.0
 47
0.0
 47
0.0208333333333333
 47
0.0
 47
0.0
 47
0.0
 47
0.0
 47
1.0
 47
0.0
 47
0.0
 47
0.0
 47
0.0
 47
1.0
171
     0
 49
0.0208333333333333
 49
0.0
 49
0.0
 49
0.0
 49
0.0
 49
0.0208333333333333
 49
0.0
 49
0.0
 49
0.0
 49
0.0
 49
1.0
 49
0.0
 49
0.0
 49
0.0
 49
0.0
 49
1.0
175
     0
142
0.0208333333333333
142
0.0
142
0.0
142
0.0
142
0.0
142
0.0208333333333333
142
0.0
142
0.0
142
0.0
142
0.0
142
1.0
142
0.0
142
0.0
142
0.0
142
0.0
142
1.0
179
     0
144
0.0208333333333333
144
0.0
144
0.0
144
0.0
144
0.0
144
0.0208333333333333
144
0.0
144
0.0
144
0.0
144
0.0
144
1.0
144
0.0
144
0.0
144
0.0
144
0.0
144
1.0
147
0.0208333333333333
147
0.0
147
0.0
147
0.0
147
0.0
147
0.0208333333333333
147
0.0
147
0.0
147
0.0
147
0.0
147
1.0
147
0.0
147
0.0
147
0.0
147
0.0
147
1.0
  0
MATERIAL
  5
2287
102
{ACAD_XDICTIONARY
360
2288
102
}
102
{ACAD_REACTORS
330
2276
102
}
330
2276
100
AcDbMaterial
  1
Global
 72
     0
 43
0.0208333333333333
 43
0.0
 43
0.0
 43
0.0
 43
0.0
 43
0.0208333333333333
 43
0.0
 43
0.0
 43
0.0
 43
0.0
 43
1.0
 43
0.0
 43
0.0
 43
0.0
 43
0.0
 43
1.0
 77
     0
 47
0.0208333333333333
 47
0.0
 47
0.0
 47
0.0
 47
0.0
 47
0.0208333333333333
 47
0.0
 47
0.0
 47
0.0
 47
0.0
 47
1.0
 47
0.0
 47
0.0
 47
0.0
 47
0.0
 47
1.0
171
     0
 49
0.0208333333333333
 49
0.0
 49
0.0
 49
0.0
 49
0.0
 49
0.0208333333333333
 49
0.0
 49
0.0
 49
0.0
 49
0.0
 49
1.0
 49
0.0
 49
0.0
 49
0.0
 49
0.0
 49
1.0
175
     0
142
0.0208333333333333
142
0.0
142
0.0
142
0.0
142
0.0
142
0.0208333333333333
142
0.0
142
0.0
142
0.0
142
0.0
142
1.0
142
0.0
142
0.0
142
0.0
142
0.0
142
1.0
179
     0
144
0.0208333333333333
144
0.0
144
0.0
144
0.0
144
0.0
144
0.0208333333333333
144
0.0
144
0.0
144
0.0
144
0.0
144
1.0
144
0.0
144
0.0
144
0.0
144
0.0
144
1.0
147
0.0208333333333333
147
0.0
147
0.0
147
0.0
147
0.0
147
0.0208333333333333
147
0.0
147
0.0
147
0.0
147
0.0
147
1.0
147
0.0
147
0.0
147
0.0
147
0.0
147
1.0
  0
MLEADERSTYLE
  5
2421
102
{ACAD_REACTORS
330
22C5
102
}
330
22C5
100
AcDbMLeaderStyle
170
     2
171
     1
172
     0
 90
        2
 40
0.0
 41
0.0
173
     1
 91
-1056964608
340
12
 92
       -2
290
     1
 42
0.09
291
     1
 43
0.36
  3
Standard
 44
0.18
300

342
F
174
     1
178
     6
175
     1
176
     0
 93
-1056964608
 45
0.18
292
     0
297
     0
 46
0.18
 94
-1056964608
 47
1.0
 49
1.0
140
1.0
293
     1
141
0.0
294
     1
177
     0
142
1.0
295
     0
296
     0
143
0.125
1001
ACAD_MLEADERVER
1070
     2
  0
MLINESTYLE
  5
1C
102
{ACAD_REACTORS
330
1B
102
}
330
1B
100
AcDbMlineStyle
  2
STANDARD
 70
     0
  3

 62
   256
 51
90.0
 52
90.0
 71
     2
 49
0.5
 62
   256
  6
BYLAYER
 49
-0.5
 62
   256
  6
BYLAYER
  0
PLOTSETTINGS
  5
254F
102
{ACAD_REACTORS
330
1806
102
}
330
1806
100
AcDbPlotSettings
  1
1055 24x36 BW
  2
1055B&WDraftShaded.pc3
  4
User257
  6

 40
14.98600006103515
 41
8.297271728515625
 42
14.9859619140625
 43
8.29736328125
 44
914.3153076171875
 45
1269.915283203125
 46
0.0
 47
0.0
 48
0.0
 49
0.0
140
0.0
141
0.0
142
1.0
143
1.0
 70
  2800
 72
     0
 73
     2
 74
     1
  7
Full_B&W.ctb
 75
    16
147
1.0
 76
     0
 77
     2
 78
   300
148
-75.74468520391772
149
-27.53050504688192
1001
ACAD_PSEXT
1000
1055B&WDraftShaded.pc3
1000
HP DesignJet 1055CM by HP
1000
FRONT
1000

1070
     0
  0
PLOTSETTINGS
  5
2550
102
{ACAD_REACTORS
330
1806
102
}
330
1806
100
AcDbPlotSettings
  1
1055 24x36 BW Final
  2
1055B&WFinalShaded.pc3
  4
User257
  6

 40
14.98600006103515
 41
8.297271728515625
 42
14.9859619140625
 43
8.29736328125
 44
914.357666015625
 45
1269.957641601562
 46
0.0
 47
0.0
 48
0.0
 49
0.0
140
0.0
141
0.0
142
1.0
143
1.0
 70
  2800
 72
     0
 73
     2
 74
     1
  7
Full_B&W.ctb
 75
    16
147
1.0
 76
     0
 77
     2
 78
   300
148
-75.74468520391772
149
-27.53050504688192
1001
ACAD_PSEXT
1000
1055B&WFinalShaded.pc3
1000
HP DesignJet 1055CM by HP
1000
FRONT
1000

1070
     0
  0
PLOTSETTINGS
  5
2551
102
{ACAD_REACTORS
330
1806
102
}
330
1806
100
AcDbPlotSettings
  1
1055 24x36 Color
  2
1055ColorDraftShaded.pc3
  4
User257
  6

 40
14.98600006103515
 41
8.297271728515625
 42
14.9859619140625
 43
8.29736328125
 44
914.3153076171875
 45
1269.915283203125
 46
0.0
 47
0.0
 48
0.0
 49
0.0
140
0.0
141
0.0
142
1.0
143
1.0
 70
  2800
 72
     0
 73
     2
 74
     1
  7
Color.ctb
 75
    16
147
1.0
 76
     0
 77
     2
 78
   300
148
-75.74468520391772
149
-27.53050504688192
1001
ACAD_PSEXT
1000
1055ColorDraftShaded.pc3
1000
HP DesignJet 1055CM by HP
1000
FRONT
1000

1070
     0
  0
PLOTSETTINGS
  5
2552
102
{ACAD_REACTORS
330
1806
102
}
330
1806
100
AcDbPlotSettings
  1
1055 24x36 Color Shaded
  2
1055ColorDraftShaded.pc3
  4
User257
  6

 40
14.98600006103515
 41
8.297271728515625
 42
14.9859619140625
 43
8.29736328125
 44
914.3153076171875
 45
1269.915283203125
 46
0.0
 47
0.0
 48
0.0
 49
0.0
140
0.0
141
0.0
142
1.0
143
1.0
 70
  2800
 72
     0
 73
     2
 74
     1
  7
Full_Color.ctb
 75
    16
147
1.0
 76
     0
 77
     2
 78
   300
148
-75.74468520391772
149
-27.53050504688192
1001
ACAD_PSEXT
1000
1055ColorDraftShaded.pc3
1000
HP DesignJet 1055CM by HP
1000
FRONT
1000

1070
     0
  0
PLOTSETTINGS
  5
2553
102
{ACAD_REACTORS
330
1806
102
}
330
1806
100
AcDbPlotSettings
  1
1055 30x42 BW
  2
1055B&WDraftShaded.pc3
  4
User257
  6

 40
14.98600006103515
 41
8.297271728515625
 42
14.9859619140625
 43
8.29736328125
 44
914.3153076171875
 45
1269.915283203125
 46
0.0
 47
0.0
 48
0.0
 49
0.0
140
0.0
141
0.0
142
1.0
143
1.0
 70
  2800
 72
     0
 73
     1
 74
     1
  7
Full_B&W.ctb
 75
    16
147
1.0
 76
     0
 77
     2
 78
   300
148
-75.74468520391772
149
-27.53050504688192
1001
ACAD_PSEXT
1000
1055B&WDraftShaded.pc3
1000
HP DesignJet 1055CM by HP
1000
FRONT
1000

1070
     0
  0
PLOTSETTINGS
  5
2554
102
{ACAD_REACTORS
330
1806
102
}
330
1806
100
AcDbPlotSettings
  1
1055 30x42 BW Final
  2
1055B&WFinalShaded.pc3
  4
User257
  6

 40
14.98600006103515
 41
8.297271728515625
 42
14.9859619140625
 43
8.29736328125
 44
914.357666015625
 45
1269.957641601562
 46
0.0
 47
0.0
 48
0.0
 49
0.0
140
0.0
141
0.0
142
1.0
143
1.0
 70
  2800
 72
     0
 73
     1
 74
     1
  7
Full_B&W.ctb
 75
    16
147
1.0
 76
     0
 77
     2
 78
   300
148
-75.74468520391772
149
-27.53050504688192
1001
ACAD_PSEXT
1000
1055B&WFinalShaded.pc3
1000
HP DesignJet 1055CM by HP
1000
FRONT
1000

1070
     0
  0
PLOTSETTINGS
  5
2555
102
{ACAD_REACTORS
330
1806
102
}
330
1806
100
AcDbPlotSettings
  1
1055 B&W Draft
  2
1055B&WDraftShaded.pc3
  4
User257
  6

 40
4.995333194732666
 41
8.297271728515625
 42
4.99530029296875
 43
8.29736328125
 44
914.3153076171875
 45
1269.915283203125
 46
0.0
 47
0.0
 48
0.0
 49
0.0
140
0.0
141
0.0
142
1.0
143
30.0
 70
 11936
 72
     0
 73
     2
 74
     1
  7
Full_B&W.ctb
 75
     0
147
3.484472351238056
 76
     0
 77
     2
 78
   300
148
-119.4582094169044
149
-58.17053554795709
1001
ACAD_PSEXT
1000
1055B&WDraftShaded.pc3
1000
HP DesignJet 1055CM by HP
1000
\\aqua-srv01
1000

1070
     0
  0
PLOTSETTINGS
  5
2556
102
{ACAD_REACTORS
330
1806
102
}
330
1806
100
AcDbPlotSettings
  1
1055 B&W Final
  2
1055B&WFinalShaded.pc3
  4
User257
  6

 40
4.995333194732666
 41
8.297271728515625
 42
4.99530029296875
 43
8.29736328125
 44
914.357666015625
 45
1269.957641601562
 46
0.0
 47
0.0
 48
0.0
 49
0.0
140
0.0
141
0.0
142
1.0
143
30.0
 70
 11936
 72
     0
 73
     2
 74
     1
  7
Full_B&W.ctb
 75
     0
147
3.484472351238056
 76
     0
 77
     2
 78
   300
148
-119.4582094169044
149
-58.17053554795709
1001
ACAD_PSEXT
1000
1055B&WFinalShaded.pc3
1000
HP DesignJet 1055CM by HP
1000
\\aqua-srv01
1000

1070
     0
  0
PLOTSETTINGS
  5
2557
102
{ACAD_REACTORS
330
1806
102
}
330
1806
100
AcDbPlotSettings
  1
1055 BW Half
  2
1055B&WDraftShaded.pc3
  4
User257
  6

 40
14.98600006103515
 41
8.297271728515625
 42
14.9859619140625
 43
8.29736328125
 44
914.3153076171875
 45
1269.915283203125
 46
0.0
 47
0.0
 48
0.0
 49
0.0
140
0.0
141
0.0
142
1.0
143
2.0
 70
  2800
 72
     0
 73
     2
 74
     1
  7
Full_B&W.ctb
 75
    17
147
0.5
 76
     0
 77
     2
 78
   300
148
-75.74468520391772
149
-27.53050504688192
1001
ACAD_PSEXT
1000
1055B&WDraftShaded.pc3
1000
HP DesignJet 1055CM by HP
1000
FRONT
1000

1070
     0
  0
PLOTSETTINGS
  5
2558
102
{ACAD_REACTORS
330
1806
102
}
330
1806
100
AcDbPlotSettings
  1
1055 Color Draft
  2
1055ColorDraftShaded.pc3
  4
User257
  6

 40
4.995333194732666
 41
8.297271728515625
 42
4.99530029296875
 43
8.29736328125
 44
914.3153076171875
 45
1269.915283203125
 46
0.0
 47
0.0
 48
0.0
 49
0.0
140
0.0
141
0.0
142
1.0
143
30.0
 70
 11936
 72
     0
 73
     2
 74
     1
  7
Full_Color.ctb
 75
     0
147
3.484472351238056
 76
     0
 77
     2
 78
   300
148
-119.4582094169044
149
-58.17053554795709
1001
ACAD_PSEXT
1000
1055ColorDraftShaded.pc3
1000
HP DesignJet 1055CM by HP
1000
\\aqua-srv01
1000

1070
     0
  0
PLOTSETTINGS
  5
2559
102
{ACAD_REACTORS
330
1806
102
}
330
1806
100
AcDbPlotSettings
  1
1055 Color Final
  2
1055ColorFinalShaded.pc3
  4
User257
  6

 40
4.995333194732666
 41
8.297271728515625
 42
4.99530029296875
 43
8.29736328125
 44
914.357666015625
 45
1269.957641601562
 46
0.0
 47
0.0
 48
0.0
 49
0.0
140
0.0
141
0.0
142
1.0
143
30.0
 70
 11936
 72
     0
 73
     2
 74
     1
  7
Full_Color.ctb
 75
     0
147
3.484472351238056
 76
     0
 77
     2
 78
   300
148
-119.4582094169044
149
-58.17053554795709
1001
ACAD_PSEXT
1000
1055ColorFinalShaded.pc3
1000
HP DesignJet 1055CM by HP
1000
\\aqua-srv01
1000

1070
     0
  0
PLOTSETTINGS
  5
255A
102
{ACAD_REACTORS
330
1806
102
}
330
1806
100
AcDbPlotSettings
  1
1055+ 24x36 BW
  2
1055_PLUS_B&WDraftShaded.pc3
  4
User257
  6

 40
14.98600006103515
 41
8.297271728515625
 42
14.9859619140625
 43
8.29736328125
 44
914.3153076171875
 45
1269.915283203125
 46
0.0
 47
0.0
 48
0.0
 49
0.0
140
0.0
141
0.0
142
1.0
143
1.0
 70
  2800
 72
     0
 73
     2
 74
     1
  7
Full_B&W.ctb
 75
    16
147
1.0
 76
     0
 77
     2
 78
   300
148
-75.74468520391772
149
-27.53050504688192
1001
ACAD_PSEXT
1000
1055_PLUS_B&WDraftShaded.pc3
1000
HP DesignJet 1055CM by HP
1000
FRONT
1000

1070
     0
  0
PLOTSETTINGS
  5
255B
102
{ACAD_REACTORS
330
1806
102
}
330
1806
100
AcDbPlotSettings
  1
1055+ 24x36 BW Final
  2
1055_PLUS_B&WFinalShaded.pc3
  4
User257
  6

 40
14.98600006103515
 41
8.297271728515625
 42
14.9859619140625
 43
8.29736328125
 44
914.357666015625
 45
1269.957641601562
 46
0.0
 47
0.0
 48
0.0
 49
0.0
140
0.0
141
0.0
142
1.0
143
1.0
 70
  2800
 72
     0
 73
     2
 74
     1
  7
Full_B&W.ctb
 75
    16
147
1.0
 76
     0
 77
     2
 78
   300
148
-75.74468520391772
149
-27.53050504688192
1001
ACAD_PSEXT
1000
1055_PLUS_B&WFinalShaded.pc3
1000
HP DesignJet 1055CM by HP
1000
FRONT
1000

1070
     0
  0
PLOTSETTINGS
  5
255C
102
{ACAD_REACTORS
330
1806
102
}
330
1806
100
AcDbPlotSettings
  1
1055+ 24x36 Color
  2
1055_PLUS_ColorDraftShaded.pc3
  4
User257
  6

 40
14.98600006103515
 41
8.297271728515625
 42
14.9859619140625
 43
8.29736328125
 44
914.3153076171875
 45
1269.915283203125
 46
0.0
 47
0.0
 48
0.0
 49
0.0
140
0.0
141
0.0
142
1.0
143
1.0
 70
  2800
 72
     0
 73
     2
 74
     1
  7
Color.ctb
 75
    16
147
1.0
 76
     0
 77
     2
 78
   300
148
-75.74468520391772
149
-27.53050504688192
1001
ACAD_PSEXT
1000
1055_PLUS_ColorDraftShaded.pc3
1000
HP DesignJet 1055CM by HP
1000
FRONT
1000

1070
     0
  0
PLOTSETTINGS
  5
255D
102
{ACAD_REACTORS
330
1806
102
}
330
1806
100
AcDbPlotSettings
  1
1055+ 24x36 Color Shaded
  2
1055_PLUS_ColorDraftShaded.pc3
  4
User257
  6

 40
14.98600006103515
 41
8.297271728515625
 42
14.9859619140625
 43
8.29736328125
 44
914.3153076171875
 45
1269.915283203125
 46
0.0
 47
0.0
 48
0.0
 49
0.0
140
0.0
141
0.0
142
1.0
143
1.0
 70
  2800
 72
     0
 73
     2
 74
     1
  7
Full_Color.ctb
 75
    16
147
1.0
 76
     0
 77
     2
 78
   300
148
-75.74468520391772
149
-27.53050504688192
1001
ACAD_PSEXT
1000
1055_PLUS_ColorDraftShaded.pc3
1000
HP DesignJet 1055CM by HP
1000
FRONT
1000

1070
     0
  0
PLOTSETTINGS
  5
255E
102
{ACAD_REACTORS
330
1806
102
}
330
1806
100
AcDbPlotSettings
  1
1055+ 30x42 BW
  2
1055_PLUS_B&WDraftShaded.pc3
  4
User257
  6

 40
14.98600006103515
 41
8.297271728515625
 42
14.9859619140625
 43
8.29736328125
 44
914.3153076171875
 45
1269.915283203125
 46
0.0
 47
0.0
 48
0.0
 49
0.0
140
0.0
141
0.0
142
1.0
143
1.0
 70
  2800
 72
     0
 73
     1
 74
     1
  7
Full_B&W.ctb
 75
    16
147
1.0
 76
     0
 77
     2
 78
   300
148
-75.74468520391772
149
-27.53050504688192
1001
ACAD_PSEXT
1000
1055_PLUS_B&WDraftShaded.pc3
1000
HP DesignJet 1055CM by HP
1000
FRONT
1000

1070
     0
  0
PLOTSETTINGS
  5
255F
102
{ACAD_REACTORS
330
1806
102
}
330
1806
100
AcDbPlotSettings
  1
1055+ 30x42 BW Final
  2
1055_PLUS_B&WFinalShaded.pc3
  4
User257
  6

 40
14.98600006103515
 41
8.297271728515625
 42
14.9859619140625
 43
8.29736328125
 44
914.357666015625
 45
1269.957641601562
 46
0.0
 47
0.0
 48
0.0
 49
0.0
140
0.0
141
0.0
142
1.0
143
1.0
 70
  2800
 72
     0
 73
     1
 74
     1
  7
Full_B&W.ctb
 75
    16
147
1.0
 76
     0
 77
     2
 78
   300
148
-75.74468520391772
149
-27.53050504688192
1001
ACAD_PSEXT
1000
1055_PLUS_B&WFinalShaded.pc3
1000
HP DesignJet 1055CM by HP
1000
FRONT
1000

1070
     0
  0
PLOTSETTINGS
  5
2560
102
{ACAD_REACTORS
330
1806
102
}
330
1806
100
AcDbPlotSettings
  1
1055+ B&W Draft
  2
1055_PLUS_B&WDraftShaded.pc3
  4
User257
  6

 40
4.995333194732666
 41
13.2926607131958
 42
4.99530029296875
 43
13.292724609375
 44
914.3153076171875
 45
1269.915283203125
 46
0.0
 47
0.0
 48
0.0
 49
0.0
140
0.0
141
0.0
142
1.0
143
30.0
 70
 11936
 72
     0
 73
     2
 74
     1
  7
Full_B&W.ctb
 75
     0
147
3.484472351238056
 76
     0
 77
     2
 78
   300
148
-119.4582094169044
149
-58.17053554795709
1001
ACAD_PSEXT
1000
1055_PLUS_B&WDraftShaded.pc3
1000
HP DesignJet 1055CM by HP
1000
\\aqua-srv01
1000

1070
     0
  0
PLOTSETTINGS
  5
2561
102
{ACAD_REACTORS
330
1806
102
}
330
1806
100
AcDbPlotSettings
  1
1055+ B&W Final
  2
1055_PLUS_B&WFinalShaded.pc3
  4
User257
  6

 40
4.995333194732666
 41
13.2926607131958
 42
4.99530029296875
 43
13.292724609375
 44
914.357666015625
 45
1269.957641601562
 46
0.0
 47
0.0
 48
0.0
 49
0.0
140
0.0
141
0.0
142
1.0
143
30.0
 70
 11936
 72
     0
 73
     2
 74
     1
  7
Full_B&W.ctb
 75
     0
147
3.484472351238056
 76
     0
 77
     2
 78
   300
148
-119.4582094169044
149
-58.17053554795709
1001
ACAD_PSEXT
1000
1055_PLUS_B&WFinalShaded.pc3
1000
HP DesignJet 1055CM by HP
1000
\\aqua-srv01
1000

1070
     0
  0
PLOTSETTINGS
  5
2562
102
{ACAD_REACTORS
330
1806
102
}
330
1806
100
AcDbPlotSettings
  1
1055+ BW Half
  2
1055_PLUS_B&WDraftShaded.pc3
  4
User257
  6

 40
14.98600006103515
 41
8.297271728515625
 42
14.9859619140625
 43
8.29736328125
 44
914.3153076171875
 45
1269.915283203125
 46
0.0
 47
0.0
 48
0.0
 49
0.0
140
0.0
141
0.0
142
1.0
143
2.0
 70
  2800
 72
     0
 73
     2
 74
     1
  7
Full_B&W.ctb
 75
    17
147
0.5
 76
     0
 77
     2
 78
   300
148
-75.74468520391772
149
-27.53050504688192
1001
ACAD_PSEXT
1000
1055_PLUS_B&WDraftShaded.pc3
1000
HP DesignJet 1055CM by HP
1000
FRONT
1000

1070
     0
  0
PLOTSETTINGS
  5
2563
102
{ACAD_REACTORS
330
1806
102
}
330
1806
100
AcDbPlotSettings
  1
1055+ Color Draft
  2
1055_PLUS_ColorDraftShaded.pc3
  4
User257
  6

 40
4.995333194732666
 41
8.297271728515625
 42
4.99530029296875
 43
8.29736328125
 44
914.3153076171875
 45
1269.915283203125
 46
0.0
 47
0.0
 48
0.0
 49
0.0
140
0.0
141
0.0
142
1.0
143
30.0
 70
 11936
 72
     0
 73
     2
 74
     1
  7
Full_Color.ctb
 75
     0
147
3.484472351238056
 76
     0
 77
     2
 78
   300
148
-119.4582094169044
149
-58.17053554795709
1001
ACAD_PSEXT
1000
1055_PLUS_ColorDraftShaded.pc3
1000
HP DesignJet 1055CM by HP
1000
\\aqua-srv01
1000

1070
     0
  0
PLOTSETTINGS
  5
2564
102
{ACAD_REACTORS
330
1806
102
}
330
1806
100
AcDbPlotSettings
  1
1055+ Color Final
  2
1055_PLUS_ColorFinalShaded.pc3
  4
User257
  6

 40
4.995333194732666
 41
13.2926607131958
 42
4.99530029296875
 43
13.292724609375
 44
914.357666015625
 45
1269.957641601562
 46
0.0
 47
0.0
 48
0.0
 49
0.0
140
0.0
141
0.0
142
1.0
143
30.0
 70
 11936
 72
     0
 73
     2
 74
     1
  7
Full_Color.ctb
 75
     0
147
3.484472351238056
 76
     0
 77
     2
 78
   300
148
-119.4582094169044
149
-58.17053554795709
1001
ACAD_PSEXT
1000
1055_PLUS_ColorFinalShaded.pc3
1000
HP DesignJet 1055CM by HP
1000
\\aqua-srv01
1000

1070
     0
  0
PLOTSETTINGS
  5
2565
102
{ACAD_REACTORS
330
1806
102
}
330
1806
100
AcDbPlotSettings
  1
_1055 22x34 True Centered BW
  2
1055B&WDraftShaded 24x36 true.pc3
  4
User1639
  6

 40
0.0
 41
0.0
 42
0.0
 43
0.0
 44
863.6000366210938
 45
558.7999877929687
 46
379.1860116761152
 47
224.9166389522296
 48
0.0
 49
0.0
140
0.0
141
0.0
142
1.0
143
1.0
 70
  2804
 72
     0
 73
     0
 74
     1
  7
Full_B&W.ctb
 75
    16
147
1.0
 76
     0
 77
     2
 78
   300
148
-75.74468520391772
149
-27.53050504688192
1001
ACAD_PSEXT
1000
1055B&WDraftShaded 24x36 true.pc3
1000
HP DesignJet 1055CM by HP
1000
FRONT
1000

1070
     0
  0
PLOTSETTINGS
  5
2566
102
{ACAD_REACTORS
330
1806
102
}
330
1806
100
AcDbPlotSettings
  1
_1055 24x36 True Centered BW
  2
1055B&WDraftShaded 24x36 true.pc3
  4
User1308
  6

 40
14.98600006103515
 41
8.297332763671875
 42
14.9859619140625
 43
8.29736328125
 44
914.3153076171875
 45
609.5153198242187
 46
389.5576661866133
 47
241.9769569453936
 48
0.0
 49
0.0
140
0.0
141
0.0
142
1.0
143
1.0
 70
  2804
 72
     0
 73
     0
 74
     1
  7
Full_B&W.ctb
 75
    16
147
1.0
 76
     0
 77
     2
 78
   300
148
-75.74468520391772
149
-27.53050504688192
1001
ACAD_PSEXT
1000
1055B&WDraftShaded 24x36 true.pc3
1000
HP DesignJet 1055CM by HP
1000
FRONT
1000

1070
     0
  0
PLOTSETTINGS
  5
2567
102
{ACAD_REACTORS
330
1806
102
}
330
1806
100
AcDbPlotSettings
  1
_1055 24x36 True Centered BW Final
  2
1055B&WFinalShaded 24x36 true.pc3
  4
User1308
  6

 40
14.98600006103515
 41
8.297332763671875
 42
14.9859619140625
 43
8.29736328125
 44
914.357666015625
 45
609.5576782226562
 46
389.578845385832
 47
241.9981361446124
 48
0.0
 49
0.0
140
0.0
141
0.0
142
1.0
143
1.0
 70
  2804
 72
     0
 73
     0
 74
     1
  7
Full_B&W.ctb
 75
    16
147
1.0
 76
     0
 77
     2
 78
   300
148
-75.74468520391772
149
-27.53050504688192
1001
ACAD_PSEXT
1000
1055B&WFinalShaded 24x36 true.pc3
1000
HP DesignJet 1055CM by HP
1000
FRONT
1000

1070
     0
  0
PLOTSETTINGS
  5
2568
102
{ACAD_REACTORS
330
1806
102
}
330
1806
100
AcDbPlotSettings
  1
_1055 24x36 True Centered Color
  2
1055ColorDraftShaded 24x36 true.pc3
  4
User1308
  6

 40
14.98600006103515
 41
8.297332763671875
 42
14.9859619140625
 43
8.29736328125
 44
914.3153076171875
 45
609.5153198242187
 46
389.5576661866133
 47
241.9769569453936
 48
0.0
 49
0.0
140
0.0
141
0.0
142
1.0
143
1.0
 70
  2804
 72
     0
 73
     0
 74
     1
  7
Full_Color.ctb
 75
    16
147
1.0
 76
     0
 77
     2
 78
   300
148
-75.74468520391772
149
-27.53050504688192
1001
ACAD_PSEXT
1000
1055ColorDraftShaded 24x36 true.pc3
1000
HP DesignJet 1055CM by HP
1000
FRONT
1000

1070
     0
  0
PLOTSETTINGS
  5
2569
102
{ACAD_REACTORS
330
1806
102
}
330
1806
100
AcDbPlotSettings
  1
_1055 30x42 True Centered BW
  2
1055B&WDraftShaded 30x42 true.pc3
  4
User286
  6

 40
0.0
 41
0.0
 42
-0.08465576171875
 43
-0.084716796875
 44
761.9153442382812
 45
1066.71533203125
 46
326.5166450557452
 47
480.7860177796309
 48
0.0
 49
0.0
140
0.0
141
0.0
142
1.0
143
1.0
 70
  2804
 72
     0
 73
     1
 74
     1
  7
Full_B&W.ctb
 75
    16
147
1.0
 76
     0
 77
     2
 78
   300
148
-75.74468520391772
149
-27.53050504688192
1001
ACAD_PSEXT
1000
1055B&WDraftShaded 30x42 true.pc3
1000
HP DesignJet 1055CM by HP
1000
FRONT
1000

1070
     0
  0
PLOTSETTINGS
  5
256A
102
{ACAD_REACTORS
330
1806
102
}
330
1806
100
AcDbPlotSettings
  1
_1055+ 22x34 True Centered BW
  2
1055_PLUS_B&WDraftShaded 24x36 true.pc3
  4
User1639
  6

 40
0.0
 41
0.0
 42
0.0
 43
0.0
 44
863.6000366210938
 45
558.7999877929687
 46
379.1860116761152
 47
224.9166389522296
 48
0.0
 49
0.0
140
0.0
141
0.0
142
1.0
143
1.0
 70
  2804
 72
     0
 73
     0
 74
     1
  7
Full_B&W.ctb
 75
    16
147
1.0
 76
     0
 77
     2
 78
   300
148
-75.74468520391772
149
-27.53050504688192
1001
ACAD_PSEXT
1000
1055_PLUS_B&WDraftShaded 24x36 true.pc3
1000
HP DesignJet 1055CM by HP
1000
FRONT
1000

1070
     0
  0
PLOTSETTINGS
  5
256B
102
{ACAD_REACTORS
330
1806
102
}
330
1806
100
AcDbPlotSettings
  1
_1055+ 24x36 True Centered BW
  2
1055_PLUS_B&WDraftShaded 24x36 true.pc3
  4
User1308
  6

 40
14.98600006103515
 41
8.297332763671875
 42
14.9859619140625
 43
8.29736328125
 44
914.3153076171875
 45
609.5153198242187
 46
389.5576661866133
 47
241.9769569453936
 48
0.0
 49
0.0
140
0.0
141
0.0
142
1.0
143
1.0
 70
  2804
 72
     0
 73
     0
 74
     1
  7
Full_B&W.ctb
 75
    16
147
1.0
 76
     0
 77
     2
 78
   300
148
-75.74468520391772
149
-27.53050504688192
1001
ACAD_PSEXT
1000
1055_PLUS_B&WDraftShaded 24x36 true.pc3
1000
HP DesignJet 1055CM by HP
1000
FRONT
1000

1070
     0
  0
PLOTSETTINGS
  5
256C
102
{ACAD_REACTORS
330
1806
102
}
330
1806
100
AcDbPlotSettings
  1
_1055+ 24x36 True Centered BW Final
  2
1055_PLUS_B&WFinalShaded 24x36 true.pc3
  4
User1308
  6

 40
14.98600006103515
 41
8.297332763671875
 42
14.9859619140625
 43
8.29736328125
 44
914.357666015625
 45
609.5576782226562
 46
389.578845385832
 47
241.9981361446124
 48
0.0
 49
0.0
140
0.0
141
0.0
142
1.0
143
1.0
 70
  2804
 72
     0
 73
     0
 74
     1
  7
Full_B&W.ctb
 75
    16
147
1.0
 76
     0
 77
     2
 78
   300
148
-75.74468520391772
149
-27.53050504688192
1001
ACAD_PSEXT
1000
1055_PLUS_B&WFinalShaded 24x36 true.pc3
1000
HP DesignJet 1055CM by HP
1000
FRONT
1000

1070
     0
  0
PLOTSETTINGS
  5
256D
102
{ACAD_REACTORS
330
1806
102
}
330
1806
100
AcDbPlotSettings
  1
_1055+ 24x36 True Centered Color
  2
1055_PLUS_ColorDraftShaded 24x36 true.pc3
  4
User1308
  6

 40
14.98600006103515
 41
8.297332763671875
 42
14.9859619140625
 43
8.29736328125
 44
914.3153076171875
 45
609.5153198242187
 46
389.5576661866133
 47
241.9769569453936
 48
0.0
 49
0.0
140
0.0
141
0.0
142
1.0
143
1.0
 70
  2804
 72
     0
 73
     0
 74
     1
  7
Full_Color.ctb
 75
    16
147
1.0
 76
     0
 77
     2
 78
   300
148
-75.74468520391772
149
-27.53050504688192
1001
ACAD_PSEXT
1000
1055_PLUS_ColorDraftShaded 24x36 true.pc3
1000
HP DesignJet 1055CM by HP
1000
FRONT
1000

1070
     0
  0
PLOTSETTINGS
  5
256E
102
{ACAD_REACTORS
330
1806
102
}
330
1806
100
AcDbPlotSettings
  1
_1055+ 30x42 True Centered BW
  2
1055_PLUS_B&WDraftShaded 30x42 true.pc3
  4
User636
  6

 40
0.0
 41
0.0
 42
0.0
 43
0.0
 44
762.0
 45
1066.800048828125
 46
326.5166450557452
 47
480.7860177796309
 48
0.0
 49
0.0
140
0.0
141
0.0
142
1.0
143
1.0
 70
  2804
 72
     0
 73
     1
 74
     1
  7
Full_B&W.ctb
 75
    16
147
1.0
 76
     0
 77
     2
 78
   300
148
-75.74468520391772
149
-27.53050504688192
1001
ACAD_PSEXT
1000
1055_PLUS_B&WDraftShaded 30x42 true.pc3
1000
HP DesignJet 1055CM by HP
1000
Front
1000

1070
     0
  0
PLOTSETTINGS
  5
256F
102
{ACAD_REACTORS
330
1806
102
}
330
1806
100
AcDbPlotSettings
  1
DWF BW 11x17 Fit
  2
DWF-BW_11x17.pc3
  4
UserDefinedImperial (17.00 x 11.00Inches)
  6

 40
0.0
 41
0.0
 42
0.0
 43
0.0
 44
431.7999877929687
 45
279.3999938964844
 46
80.99316641155249
 47
0.000000000000005
 48
0.0
 49
0.0
140
0.0
141
0.0
142
1.0
143
0.3900025492802298
 70
  2740
 72
     0
 73
     0
 74
     1
  7
Full_B&W.ctb
 75
     0
147
2.564085803658341
 76
     0
 77
     2
 78
   300
148
-75.74468520391772
149
-27.53050504688192
1001
ACAD_PSEXT
1000
DWF-BW_11x17.pc3
1000
DWF eView (optimized for viewing)
1000
File
1000

1070
     0
  0
PLOTSETTINGS
  5
2570
102
{ACAD_REACTORS
330
1806
102
}
330
1806
100
AcDbPlotSettings
  1
DWF BW 11x17 Half
  2
DWF-BW_11x17.pc3
  4
UserDefinedImperial (17.00 x 11.00Inches)
  6

 40
0.0
 41
0.0
 42
0.0
 43
0.0
 44
431.7999877929687
 45
279.3999938964844
 46
189.5929905792686
 47
112.4583194761148
 48
0.0
 49
0.0
140
0.0
141
0.0
142
1.0
143
2.0
 70
  2740
 72
     0
 73
     0
 74
     1
  7
Full_B&W.ctb
 75
    17
147
0.5
 76
     0
 77
     2
 78
   300
148
-75.74468520391772
149
-27.53050504688192
1001
ACAD_PSEXT
1000
DWF-BW_11x17.pc3
1000
DWF eView (optimized for viewing)
1000
File
1000

1070
     0
  0
PLOTSETTINGS
  5
2571
102
{ACAD_REACTORS
330
1806
102
}
330
1806
100
AcDbPlotSettings
  1
DWF BW 22x34
  2
DWF-BW_22x34.pc3
  4
UserDefinedImperial (34.00 x 22.00Inches)
  6

 40
0.0
 41
0.0
 42
0.0
 43
0.0
 44
863.5999755859375
 45
558.7999877929687
 46
379.1859811585372
 47
224.9166389522296
 48
0.0
 49
0.0
140
0.0
141
0.0
142
1.0
143
1.0
 70
  2740
 72
     0
 73
     0
 74
     1
  7
Full_B&W.ctb
 75
    16
147
1.0
 76
     0
 77
     2
 78
   300
148
-75.74468520391772
149
-27.53050504688192
1001
ACAD_PSEXT
1000
DWF-BW_22x34.pc3
1000
DWF eView (optimized for viewing)
1000
File
1000

1070
     0
  0
PLOTSETTINGS
  5
2572
102
{ACAD_REACTORS
330
1806
102
}
330
1806
100
AcDbPlotSettings
  1
DWF BW 24x36
  2
DWF-BW_24x36.pc3
  4
UserDefinedImperial (36.00 x 24.00Inches)
  6

 40
0.0
 41
0.0
 42
0.0
 43
0.0
 44
914.4000244140626
 45
609.5999755859375
 46
404.5860055725996
 47
250.3166328487139
 48
0.0
 49
0.0
140
0.0
141
0.0
142
1.0
143
1.0
 70
  2740
 72
     0
 73
     0
 74
     1
  7
Full_B&W.ctb
 75
    16
147
1.0
 76
     0
 77
     2
 78
   300
148
-75.74468520391772
149
-27.53050504688192
1001
ACAD_PSEXT
1000
DWF-BW_24x36.pc3
1000
DWF eView (optimized for viewing)
1000
File
1000

1070
     0
  0
PLOTSETTINGS
  5
2573
102
{ACAD_REACTORS
330
1806
102
}
330
1806
100
AcDbPlotSettings
  1
DWF BW 30x42
  2
DWF-BW_30x42.pc3
  4
UserDefinedImperial (42.00 x 30.00Inches)
  6

 40
0.0
 41
0.0
 42
0.0
 43
0.0
 44
1066.800048828125
 45
762.0
 46
480.7860177796309
 47
326.5166450557452
 48
0.0
 49
0.0
140
0.0
141
0.0
142
1.0
143
1.0
 70
  2740
 72
     0
 73
     0
 74
     1
  7
Full_B&W.ctb
 75
    16
147
1.0
 76
     0
 77
     2
 78
   300
148
-75.74468520391772
149
-27.53050504688192
1001
ACAD_PSEXT
1000
DWF-BW_30x42.pc3
1000
DWF eView (optimized for viewing)
1000
File
1000

1070
     0
  0
PLOTSETTINGS
  5
2574
102
{ACAD_REACTORS
330
1806
102
}
330
1806
100
AcDbPlotSettings
  1
DWF BW 36x48
  2
DWF-BW_36x48.pc3
  4
UserDefinedImperial (48.00 x 36.00Inches)
  6

 40
0.0
 41
0.0
 42
0.0
 43
0.0
 44
1219.199951171875
 45
914.4000244140626
 46
556.9859689515058
 47
402.7166572627765
 48
0.0
 49
0.0
140
0.0
141
0.0
142
1.0
143
1.0
 70
  2740
 72
     0
 73
     0
 74
     1
  7
Full_B&W.ctb
 75
    16
147
1.0
 76
     0
 77
     2
 78
   300
148
-75.74468520391772
149
-27.53050504688192
1001
ACAD_PSEXT
1000
DWF-BW_36x48.pc3
1000
DWF eView (optimized for viewing)
1000
File
1000

1070
     0
  0
PLOTSETTINGS
  5
2575
102
{ACAD_REACTORS
330
1806
102
}
330
1806
100
AcDbPlotSettings
  1
JPEG
  2
JPEG.pc3
  4
UserDefinedRaster (1920.00 x 1080.00Pixels)
  6

 40
0.0
 41
0.0
 42
1.0
 43
1.0
 44
1920.0
 45
1080.0
 46
406.3806477588332
 47
0.0000000000000059
 48
0.0
 49
0.0
140
0.0
141
0.0
142
1.0
143
0.0034364301827912
 70
 11956
 72
     2
 73
     0
 74
     1
  7
Full_B&W.ctb
 75
     0
147
290.9996556914617
 76
     0
 77
     2
 78
   300
148
-4.70307911090175
149
-2.2901785648802
1001
ACAD_PSEXT
1000
JPEG.pc3
1000
Independent JPEG Group JFIF (JPEG Compression)
1000
File
1000

1070
     0
  0
PLOTSETTINGS
  5
2576
102
{ACAD_REACTORS
330
1806
102
}
330
1806
100
AcDbPlotSettings
  1
Laser5 11x17 Fit
  2
LaserJet5Shaded.pc3
  4
11x17
  6

 40
5.873749732971191
 41
5.027085304260253
 42
5.873748779296875
 43
5.027069091796875
 44
431.7999877929687
 45
279.3999938964844
 46
79.97401308328474
 47
0.0
 48
0.0
 49
0.0
140
0.0
141
0.0
142
1.0
143
0.4045605831172927
 70
  2740
 72
     0
 73
     0
 74
     1
  7
LaserJet5Shaded.ctb
 75
     0
147
2.471817675104729
 76
     0
 77
     2
 78
   300
148
-75.74468520391772
149
-27.53050504688192
1001
ACAD_PSEXT
1000
LaserJet5Shaded.pc3
1000
HP LaserJet 5Si
1000
\\aqua-srv01
1000

1070
     0
  0
PLOTSETTINGS
  5
2577
102
{ACAD_REACTORS
330
1806
102
}
330
1806
100
AcDbPlotSettings
  1
Laser5 11x17 Full
  2
LaserJet5Shaded.pc3
  4
11x17
  6

 40
5.873749732971191
 41
5.027085304260253
 42
5.873748779296875
 43
5.027069091796875
 44
431.7999877929687
 45
279.3999938964844
 46
157.4122380059187
 47
80.18956480595884
 48
0.0
 49
0.0
140
0.0
141
0.0
142
1.0
143
1.0
 70
  2724
 72
     0
 73
     0
 74
     1
  7
LaserJet5Shaded.ctb
 75
     0
147
2.433550528115671
 76
     0
 77
     2
 78
   300
148
-75.74468520391772
149
-27.53050504688192
1001
ACAD_PSEXT
1000
LaserJet5Shaded.pc3
1000
HP LaserJet 5Si
1000
\\aqua-srv01
1000

1070
     0
  0
PLOTSETTINGS
  5
2578
102
{ACAD_REACTORS
330
1806
102
}
330
1806
100
AcDbPlotSettings
  1
Laser5 11x17 Half
  2
LaserJet5Shaded.pc3
  4
11x17
  6

 40
5.873749732971191
 41
5.027085304260253
 42
5.873748779296875
 43
5.027069091796875
 44
431.7999877929687
 45
279.3999938964844
 46
183.7192413231345
 47
107.4312422780862
 48
0.0
 49
0.0
140
0.0
141
0.0
142
1.0
143
2.0
 70
  2740
 72
     0
 73
     0
 74
     1
  7
LaserJet5Shaded.ctb
 75
    17
147
0.5
 76
     0
 77
     2
 78
   300
148
-75.74468520391772
149
-27.53050504688192
1001
ACAD_PSEXT
1000
LaserJet5Shaded.pc3
1000
HP LaserJet 5Si
1000
\\aqua-srv01
1000

1070
     0
  0
PLOTSETTINGS
  5
2579
102
{ACAD_REACTORS
330
1806
102
}
330
1806
100
AcDbPlotSettings
  1
Laser5 8x11 Fit
  2
LaserJet5Shaded-8x11.pc3
  4
Letter
  6

 40
5.873749732971191
 41
5.027085304260253
 42
5.873748779296875
 43
5.027084350585937
 44
279.3999938964844
 45
215.8999938964844
 46
34.4346667826652
 47
0.0
 48
0.0
 49
0.0
140
0.0
141
0.0
142
1.0
143
0.5293607985003172
 70
  2740
 72
     0
 73
     0
 74
     1
  7
LaserJet5Shaded.ctb
 75
     0
147
1.889070748784206
 76
     0
 77
     2
 78
   300
148
-75.74468520391772
149
-27.53050504688192
1001
ACAD_PSEXT
1000
LaserJet5Shaded-8x11.pc3
1000
HP LaserJet 5Si
1000
\\aqua-srv01
1000

1070
     0
  0
PLOTSETTINGS
  5
257A
102
{ACAD_REACTORS
330
1806
102
}
330
1806
100
AcDbPlotSettings
  1
Laser5 8x11 Half
  2
LaserJet5Shaded-8x11.pc3
  4
Letter
  6

 40
5.873749732971191
 41
5.027085304260253
 42
5.873748779296875
 43
5.027084350585937
 44
279.3999938964844
 45
215.8999938964844
 46
107.5192443748923
 47
75.68123464869171
 48
0.0
 49
0.0
140
0.0
141
0.0
142
1.0
143
2.0
 70
  2740
 72
     0
 73
     0
 74
     1
  7
LaserJet5Shaded.ctb
 75
    17
147
0.5
 76
     0
 77
     2
 78
   300
148
-75.74468520391772
149
-27.53050504688192
1001
ACAD_PSEXT
1000
LaserJet5Shaded-8x11.pc3
1000
HP LaserJet 5Si
1000
\\aqua-srv01
1000

1070
     0
  0
PLOTSETTINGS
  5
257B
102
{ACAD_REACTORS
330
1806
102
}
330
1806
100
AcDbPlotSettings
  1
Laser5 8x11 Portrait Fit
  2
LaserJet5Shaded-8x11.pc3
  4
Letter
  6

 40
5.873749732971191
 41
5.027085304260253
 42
5.873748779296875
 43
5.027084350585937
 44
279.3999938964844
 45
215.8999938964844
 46
27.24653799736659
 47
0.0000000000000029
 48
0.0
 49
0.0
140
0.0
141
0.0
142
1.0
143
0.5111981924167587
 70
  2740
 72
     0
 73
     1
 74
     1
  7
LaserJet5Shaded.ctb
 75
     0
147
1.956188450652308
 76
     0
 77
     2
 78
   300
148
-75.74468520391772
149
-27.53050504688192
1001
ACAD_PSEXT
1000
LaserJet5Shaded-8x11.pc3
1000
HP LaserJet 5Si
1000
\\aqua-srv01
1000

1070
     0
  0
PLOTSETTINGS
  5
257C
102
{ACAD_REACTORS
330
1806
102
}
330
1806
100
AcDbPlotSettings
  1
LaserJet5 11x17
  2
LaserJet5Shaded.pc3
  4
11x17
  6

 40
7.111999988555908
 41
5.079999923706054
 42
7.11199951171875
 43
5.079986572265625
 44
279.3999938964844
 45
431.7999877929687
 46
0.0
 47
74.88489939702606
 48
0.0
 49
0.0
140
0.0
141
0.0
142
1.0
143
0.3551636250563743
 70
 11956
 72
     0
 73
     1
 74
     1
  7
LaserJet5Shaded.ctb
 75
     0
147
2.815603652658045
 76
     0
 77
     2
 78
   300
148
-119.4582094169044
149
-58.17053554795709
1001
ACAD_PSEXT
1000
LaserJet5Shaded.pc3
1000
HP LaserJet 5Si
1000
\\aqua-srv01
1000

1070
     0
  0
PLOTSETTINGS
  5
257D
102
{ACAD_REACTORS
330
1806
102
}
330
1806
100
AcDbPlotSettings
  1
LaserJet5 8.5x11
  2
LaserJet5Shaded-8x11.pc3
  4
Letter
  6

 40
5.873749732971191
 41
5.873734951019287
 42
6.55108642578125
 43
5.027084350585937
 44
279.3999938964844
 45
215.8999938964844
 46
28.40045128601757
 47
0.0000000000000046
 48
0.0
 49
0.0
140
0.0
141
0.0
142
1.0
143
0.4594207153946231
 70
 11956
 72
     0
 73
     0
 74
     1
  7
LaserJet5Shaded.ctb
 75
     0
147
2.176654135286525
 76
     0
 77
     2
 78
   300
148
-119.4582094169044
149
-58.17053554795709
1001
ACAD_PSEXT
1000
LaserJet5Shaded-8x11.pc3
1000
HP LaserJet 5Si
1000
CAD Area
1000

1070
     0
  0
PLOTSETTINGS
  5
257E
102
{ACAD_REACTORS
330
1806
102
}
330
1806
100
AcDbPlotSettings
  1
Oki9500 11x17 BW Fit
  2
OKI DOKI Color Laser.pc3
  4
Tabloid
  6

 40
5.027083396911621
 41
5.027085304260253
 42
5.027099609375
 43
5.027069091796875
 44
431.7999877929687
 45
279.3999938964844
 46
80.82067083627547
 47
0.0
 48
0.0
 49
0.0
140
0.0
141
0.0
142
1.0
143
0.4045605831172927
 70
  2740
 72
     0
 73
     0
 74
     1
  7
OKIB&WShaded.ctb
 75
     0
147
2.471817675104729
 76
     0
 77
     2
 78
   300
148
-75.74468520391772
149
-27.53050504688192
1001
ACAD_PSEXT
1000
OKI DOKI Color Laser.pc3
1000
OKI C9500(PCL)
1000
FRONT
1000

1070
     0
  0
PLOTSETTINGS
  5
257F
102
{ACAD_REACTORS
330
1806
102
}
330
1806
100
AcDbPlotSettings
  1
Oki9500 11x17 BW Full
  2
OKI DOKI Color Laser.pc3
  4
Tabloid
  6

 40
5.027083396911621
 41
5.027085304260253
 42
5.027099609375
 43
5.027069091796875
 44
431.7999877929687
 45
279.3999938964844
 46
158.2588957589094
 47
80.18956480595884
 48
0.0
 49
0.0
140
0.0
141
0.0
142
1.0
143
1.0
 70
  2724
 72
     0
 73
     0
 74
     1
  7
OKIB&WShaded.ctb
 75
     0
147
2.471817675104729
 76
     0
 77
     2
 78
   300
148
-75.74468520391772
149
-27.53050504688192
1001
ACAD_PSEXT
1000
OKI DOKI Color Laser.pc3
1000
OKI C9500(PCL)
1000
FRONT
1000

1070
     0
  0
PLOTSETTINGS
  5
2580
102
{ACAD_REACTORS
330
1806
102
}
330
1806
100
AcDbPlotSettings
  1
Oki9500 11x17 BW Half
  2
OKI DOKI Color Laser.pc3
  4
Tabloid
  6

 40
5.027083396911621
 41
5.027085304260253
 42
5.027099609375
 43
5.027069091796875
 44
431.7999877929687
 45
279.3999938964844
 46
184.5658990761252
 47
107.4312422780862
 48
0.0
 49
0.0
140
0.0
141
0.0
142
1.0
143
2.0
 70
  2740
 72
     0
 73
     0
 74
     1
  7
OKIB&WShaded.ctb
 75
    17
147
0.5
 76
     0
 77
     2
 78
   300
148
-75.74468520391772
149
-27.53050504688192
1001
ACAD_PSEXT
1000
OKI DOKI Color Laser.pc3
1000
OKI C9500(PCL)
1000
FRONT
1000

1070
     0
  0
PLOTSETTINGS
  5
2581
102
{ACAD_REACTORS
330
1806
102
}
330
1806
100
AcDbPlotSettings
  1
Oki9500 11x17 Color Fit
  2
OKI DOKI Color Laser.pc3
  4
Tabloid
  6

 40
5.027083396911621
 41
5.027085304260253
 42
5.027099609375
 43
5.027069091796875
 44
431.7999877929687
 45
279.3999938964844
 46
80.82067083627547
 47
0.0
 48
0.0
 49
0.0
140
0.0
141
0.0
142
1.0
143
0.4045605831172927
 70
  2740
 72
     0
 73
     0
 74
     1
  7
OKIColorShaded.ctb
 75
     0
147
2.471817675104729
 76
     0
 77
     2
 78
   300
148
-75.74468520391772
149
-27.53050504688192
1001
ACAD_PSEXT
1000
OKI DOKI Color Laser.pc3
1000
OKI C9500(PCL)
1000
FRONT
1000

1070
     0
  0
PLOTSETTINGS
  5
2582
102
{ACAD_REACTORS
330
1806
102
}
330
1806
100
AcDbPlotSettings
  1
Oki9500 11x17 Color Full
  2
OKI DOKI Color Laser.pc3
  4
Tabloid
  6

 40
5.027082920074462
 41
5.027085781097412
 42
5.027099609375
 43
5.027069091796875
 44
431.7999877929687
 45
279.3999938964844
 46
158.258895997328
 47
80.18956456754025
 48
0.0
 49
0.0
140
0.0
141
0.0
142
1.0
143
1.0
 70
  2724
 72
     0
 73
     0
 74
     1
  7
OKIColorShaded.ctb
 75
     0
147
2.471817675104729
 76
     0
 77
     2
 78
   300
148
-75.74468520391772
149
-27.53050504688192
1001
ACAD_PSEXT
1000
OKI DOKI Color Laser.pc3
1000
OKI C9600(PCL)
1000
FRONT
1000

1070
     0
  0
PLOTSETTINGS
  5
2583
102
{ACAD_REACTORS
330
1806
102
}
330
1806
100
AcDbPlotSettings
  1
Oki9500 11x17 Color Half
  2
OKI DOKI Color Laser.pc3
  4
Tabloid
  6

 40
5.027083396911621
 41
5.027085304260253
 42
5.027099609375
 43
5.027069091796875
 44
431.7999877929687
 45
279.3999938964844
 46
184.5658990761252
 47
107.4312422780862
 48
0.0
 49
0.0
140
0.0
141
0.0
142
1.0
143
2.0
 70
  2740
 72
     0
 73
     0
 74
     1
  7
OKIColorShaded.ctb
 75
    17
147
0.5
 76
     0
 77
     2
 78
   300
148
-75.74468520391772
149
-27.53050504688192
1001
ACAD_PSEXT
1000
OKI DOKI Color Laser.pc3
1000
OKI C9500(PCL)
1000
FRONT
1000

1070
     0
  0
PLOTSETTINGS
  5
2584
102
{ACAD_REACTORS
330
1806
102
}
330
1806
100
AcDbPlotSettings
  1
Oki9500 8x11 BW Fit
  2
OKI DOKI Color Laser8x11.pc3
  4
Letter
  6

 40
5.027083396911621
 41
5.027085304260253
 42
5.027099609375
 43
5.027084350585937
 44
279.3999938964844
 45
215.8999938964844
 46
35.28132453565591
 47
0.0
 48
0.0
 49
0.0
140
0.0
141
0.0
142
1.0
143
0.5293607985003172
 70
  2740
 72
     0
 73
     0
 74
     1
  7
OKIB&WShaded.ctb
 75
     0
147
1.889070748784206
 76
     0
 77
     2
 78
   300
148
-75.74468520391772
149
-27.53050504688192
1001
ACAD_PSEXT
1000
OKI DOKI Color Laser8x11.pc3
1000
OKI C9500(PCL)
1000
FRONT
1000

1070
     0
  0
PLOTSETTINGS
  5
2585
102
{ACAD_REACTORS
330
1806
102
}
330
1806
100
AcDbPlotSettings
  1
Oki9500 8x11 BW Portrait Fit
  2
OKI DOKI Color Laser8x11.pc3
  4
Letter
  6

 40
5.027083396911621
 41
5.027085304260253
 42
5.027099609375
 43
5.027084350585937
 44
279.3999938964844
 45
215.8999938964844
 46
28.0931957503573
 47
0.0000000000000029
 48
0.0
 49
0.0
140
0.0
141
0.0
142
1.0
143
0.5111981924167587
 70
  2740
 72
     0
 73
     1
 74
     1
  7
OKIB&WShaded.ctb
 75
     0
147
1.956188450652308
 76
     0
 77
     2
 78
   300
148
-75.74468520391772
149
-27.53050504688192
1001
ACAD_PSEXT
1000
OKI DOKI Color Laser8x11.pc3
1000
OKI C9500(PCL)
1000
FRONT
1000

1070
     0
  0
PLOTSETTINGS
  5
2586
102
{ACAD_REACTORS
330
1806
102
}
330
1806
100
AcDbPlotSettings
  1
Oki9500 8x11 Color Fit
  2
OKI DOKI Color Laser8x11.pc3
  4
Letter
  6

 40
5.027083396911621
 41
5.027085304260253
 42
5.027099609375
 43
5.027084350585937
 44
279.3999938964844
 45
215.8999938964844
 46
35.28132453565591
 47
0.0
 48
0.0
 49
0.0
140
0.0
141
0.0
142
1.0
143
0.5293607985003172
 70
  2740
 72
     0
 73
     0
 74
     1
  7
OKIColorShaded.ctb
 75
     0
147
1.889070748784206
 76
     0
 77
     2
 78
   300
148
-75.74468520391772
149
-27.53050504688192
1001
ACAD_PSEXT
1000
OKI DOKI Color Laser8x11.pc3
1000
OKI C9500(PCL)
1000
FRONT
1000

1070
     0
  0
PLOTSETTINGS
  5
2587
102
{ACAD_REACTORS
330
1806
102
}
330
1806
100
AcDbPlotSettings
  1
Oki9500 8x11 Color Portrait Fit
  2
OKI DOKI Color Laser8x11.pc3
  4
Letter
  6

 40
5.027083396911621
 41
5.027085304260253
 42
5.027099609375
 43
5.027084350585937
 44
279.3999938964844
 45
215.8999938964844
 46
28.0931957503573
 47
0.0000000000000029
 48
0.0
 49
0.0
140
0.0
141
0.0
142
1.0
143
0.5111981924167587
 70
  2740
 72
     0
 73
     1
 74
     1
  7
OKIColorShaded.ctb
 75
     0
147
1.956188450652308
 76
     0
 77
     2
 78
   300
148
-75.74468520391772
149
-27.53050504688192
1001
ACAD_PSEXT
1000
OKI DOKI Color Laser8x11.pc3
1000
OKI C9500(PCL)
1000
FRONT
1000

1070
     0
  0
PLOTSETTINGS
  5
2588
102
{ACAD_REACTORS
330
1806
102
}
330
1806
100
AcDbPlotSettings
  1
OKI9500 B&W 11x17
  2
OKI DOKI Color Laser.pc3
  4
11x17
  6

 40
5.873749732971191
 41
5.873734951019287
 42
5.873748779296875
 43
5.027069091796875
 44
431.7999877929687
 45
279.3999938964844
 46
72.38759962724653
 47
0.0000000000000057
 48
0.0
 49
0.0
140
0.0
141
0.0
142
1.0
143
0.3507677900220671
 70
 11956
 72
     0
 73
     0
 74
     1
  7
OKIB&WShaded.ctb
 75
     0
147
2.850888902704233
 76
     0
 77
     2
 78
   300
148
-119.4582094169044
149
-58.17053554795709
1001
ACAD_PSEXT
1000
OKI DOKI Color Laser.pc3
1000
HP LaserJet 5Si
1000
CAD Area
1000

1070
     0
  0
PLOTSETTINGS
  5
2589
102
{ACAD_REACTORS
330
1806
102
}
330
1806
100
AcDbPlotSettings
  1
OKI9500 B&W 8.5x11
  2
OKI DOKI Color Laser8x11.pc3
  4
Letter
  6

 40
5.873749732971191
 41
5.873734951019287
 42
6.55108642578125
 43
5.027084350585937
 44
279.3999938964844
 45
215.8999938964844
 46
28.40045128601757
 47
0.0000000000000046
 48
0.0
 49
0.0
140
0.0
141
0.0
142
1.0
143
0.4594207153946231
 70
 11956
 72
     0
 73
     0
 74
     1
  7
OKIB&WShaded.ctb
 75
     0
147
2.176654135286525
 76
     0
 77
     2
 78
   300
148
-119.4582094169044
149
-58.17053554795709
1001
ACAD_PSEXT
1000
OKI DOKI Color Laser8x11.pc3
1000
HP LaserJet 5Si
1000
CAD Area
1000

1070
     0
  0
PLOTSETTINGS
  5
258A
102
{ACAD_REACTORS
330
1806
102
}
330
1806
100
AcDbPlotSettings
  1
OKI9500 Color 11x17
  2
OKI DOKI Color Laser.pc3
  4
Tabloid
  6

 40
5.027083396911621
 41
5.027085304260253
 42
5.027099609375
 43
5.027069091796875
 44
431.7999877929687
 45
279.3999938964844
 46
72.80024597690952
 47
0.0
 48
0.0
 49
0.0
140
0.0
141
0.0
142
1.0
143
0.349665202263268
 70
 11956
 72
     0
 73
     0
 74
     1
  7
OKIColorShaded.ctb
 75
     0
147
2.859878516727796
 76
     0
 77
     2
 78
   300
148
-119.4582094169044
149
-58.17053554795709
1001
ACAD_PSEXT
1000
OKI DOKI Color Laser.pc3
1000
OKI C9500(PCL)
1000
FRONT
1000

1070
     0
  0
PLOTSETTINGS
  5
258B
102
{ACAD_REACTORS
330
1806
102
}
330
1806
100
AcDbPlotSettings
  1
OKI9500 Color 8.5x11
  2
OKI DOKI Color Laser8x11.pc3
  4
Letter
  6

 40
5.873749732971191
 41
5.873734951019287
 42
6.55108642578125
 43
5.027084350585937
 44
279.3999938964844
 45
215.8999938964844
 46
28.40045128601757
 47
0.0000000000000046
 48
0.0
 49
0.0
140
0.0
141
0.0
142
1.0
143
0.4594207153946231
 70
 11956
 72
     0
 73
     0
 74
     1
  7
OKIColorShaded.ctb
 75
     0
147
2.176654135286525
 76
     0
 77
     2
 78
   300
148
-119.4582094169044
149
-58.17053554795709
1001
ACAD_PSEXT
1000
OKI DOKI Color Laser8x11.pc3
1000
HP LaserJet 5Si
1000
CAD Area
1000

1070
     0
  0
PLOTSETTINGS
  5
258C
102
{ACAD_REACTORS
330
1806
102
}
330
1806
100
AcDbPlotSettings
  1
Oki9600 11x17 BW Fit
  2
9600 BW 11x17.pc3
  4
Tabloid
  6

 40
5.027082920074462
 41
5.027085781097412
 42
5.027099609375
 43
5.027069091796875
 44
431.7999877929687
 45
279.3999938964844
 46
80.82067130493244
 47
0.000000000000007
 48
0.0
 49
0.0
140
0.0
141
0.0
142
1.0
143
0.4045605838335077
 70
  2804
 72
     0
 73
     0
 74
     1
  7
OKIB&WShaded.ctb
 75
     0
147
2.47181767072874
 76
     0
 77
     2
 78
   300
148
-75.74468520391772
149
-27.53050504688192
1001
ACAD_PSEXT
1000
9600 BW 11x17.pc3
1000
OKI C9600(PCL)
1000
Expansion Area
1000

1070
     0
  0
PLOTSETTINGS
  5
258D
102
{ACAD_REACTORS
330
1806
102
}
330
1806
100
AcDbPlotSettings
  1
Oki9600 11x17 BW Full
  2
9600 BW 11x17.pc3
  4
Tabloid
  6

 40
5.027082920074462
 41
5.027085781097412
 42
5.027099609375
 43
5.027069091796875
 44
431.7999877929687
 45
279.3999938964844
 46
158.258895997328
 47
80.18956456754025
 48
0.0
 49
0.0
140
0.0
141
0.0
142
1.0
143
1.0
 70
  2788
 72
     0
 73
     0
 74
     1
  7
OKIB&WShaded.ctb
 75
     0
147
2.47181767072874
 76
     0
 77
     2
 78
   300
148
-75.74468520391772
149
-27.53050504688192
1001
ACAD_PSEXT
1000
9600 BW 11x17.pc3
1000
OKI C9600(PCL)
1000
Expansion Area
1000

1070
     0
  0
PLOTSETTINGS
  5
258E
102
{ACAD_REACTORS
330
1806
102
}
330
1806
100
AcDbPlotSettings
  1
Oki9600 11x17 BW Half
  2
9600 BW 11x17.pc3
  4
Tabloid
  6

 40
5.027082920074462
 41
5.027085781097412
 42
5.027099609375
 43
5.027069091796875
 44
431.7999877929687
 45
279.3999938964844
 46
184.5658993145439
 47
107.4312420396676
 48
0.0
 49
0.0
140
0.0
141
0.0
142
1.0
143
2.0
 70
  2788
 72
     0
 73
     0
 74
     1
  7
OKIB&WShaded.ctb
 75
     0
147
2.47181767072874
 76
     0
 77
     2
 78
   300
148
-75.74468520391772
149
-27.53050504688192
1001
ACAD_PSEXT
1000
9600 BW 11x17.pc3
1000
OKI C9600(PCL)
1000
Expansion Area
1000

1070
     0
  0
PLOTSETTINGS
  5
258F
102
{ACAD_REACTORS
330
1806
102
}
330
1806
100
AcDbPlotSettings
  1
Oki9600 11x17 Color Fit
  2
9600 Color 11x17.pc3
  4
Tabloid
  6

 40
5.027082920074462
 41
5.027085781097412
 42
5.027099609375
 43
5.027069091796875
 44
431.7999877929687
 45
279.3999938964844
 46
80.82067130493244
 47
0.000000000000007
 48
0.0
 49
0.0
140
0.0
141
0.0
142
1.0
143
0.4045605838335077
 70
  2804
 72
     0
 73
     0
 74
     1
  7
OKIColorShaded.ctb
 75
     0
147
2.47181767072874
 76
     0
 77
     2
 78
   300
148
-75.74468520391772
149
-27.53050504688192
1001
ACAD_PSEXT
1000
9600 Color 11x17.pc3
1000
OKI C9600(PCL)
1000
Expansion Area
1000

1070
     0
  0
PLOTSETTINGS
  5
2590
102
{ACAD_REACTORS
330
1806
102
}
330
1806
100
AcDbPlotSettings
  1
Oki9600 11x17 Color Full
  2
9600 Color 11x17.pc3
  4
Tabloid
  6

 40
5.027082920074462
 41
5.027085781097412
 42
5.027099609375
 43
5.027069091796875
 44
431.7999877929687
 45
279.3999938964844
 46
158.258895997328
 47
80.18956456754025
 48
0.0
 49
0.0
140
0.0
141
0.0
142
1.0
143
1.0
 70
  2788
 72
     0
 73
     0
 74
     1
  7
OKIColorShaded.ctb
 75
     0
147
2.47181767072874
 76
     0
 77
     2
 78
   300
148
-75.74468520391772
149
-27.53050504688192
1001
ACAD_PSEXT
1000
9600 Color 11x17.pc3
1000
OKI C9600(PCL)
1000
Expansion Area
1000

1070
     0
  0
PLOTSETTINGS
  5
2591
102
{ACAD_REACTORS
330
1806
102
}
330
1806
100
AcDbPlotSettings
  1
Oki9600 11x17 Color Half
  2
9600 Color 11x17.pc3
  4
Tabloid
  6

 40
5.027082920074462
 41
5.027085781097412
 42
5.027099609375
 43
5.027069091796875
 44
431.7999877929687
 45
279.3999938964844
 46
184.5658993145439
 47
107.4312420396676
 48
0.0
 49
0.0
140
0.0
141
0.0
142
1.0
143
2.0
 70
  2788
 72
     0
 73
     0
 74
     1
  7
OKIColorShaded.ctb
 75
     0
147
2.47181767072874
 76
     0
 77
     2
 78
   300
148
-75.74468520391772
149
-27.53050504688192
1001
ACAD_PSEXT
1000
9600 Color 11x17.pc3
1000
OKI C9600(PCL)
1000
Expansion Area
1000

1070
     0
  0
PLOTSETTINGS
  5
2592
102
{ACAD_REACTORS
330
1806
102
}
330
1806
100
AcDbPlotSettings
  1
Oki9600 8x11 BW Fit
  2
9600 BW 8.5x11.pc3
  4
Letter
  6

 40
5.027082920074462
 41
5.027070522308349
 42
5.027099609375
 43
5.027084350585937
 44
279.3999938964844
 45
215.8999938964844
 46
35.28131763668624
 47
0.0000000000000033
 48
0.0
 49
0.0
140
0.0
141
0.0
142
1.0
143
0.5293607604865011
 70
  2804
 72
     0
 73
     0
 74
     1
  7
OKIB&WShaded.ctb
 75
     0
147
1.889070884439876
 76
     0
 77
     2
 78
   300
148
-75.74468520391772
149
-27.53050504688192
1001
ACAD_PSEXT
1000
9600 BW 8.5x11.pc3
1000
OKI C9600(PCL)
1000
Expansion Area
1000

1070
     0
  0
PLOTSETTINGS
  5
2593
102
{ACAD_REACTORS
330
1806
102
}
330
1806
100
AcDbPlotSettings
  1
Oki9600 8x11 BW Portrait Fit
  2
9600 BW 8.5x11.pc3
  4
Letter
  6

 40
5.027082920074462
 41
5.027070522308349
 42
5.027099609375
 43
5.027084350585937
 44
279.3999938964844
 45
215.8999938964844
 46
28.09318833520237
 47
-0.0000000000000029
 48
0.0
 49
0.0
140
0.0
141
0.0
142
1.0
143
0.5111981557072135
 70
  2804
 72
     0
 73
     1
 74
     1
  7
OKIB&WShaded.ctb
 75
     0
147
1.956188591127753
 76
     0
 77
     2
 78
   300
148
-75.74468520391772
149
-27.53050504688192
1001
ACAD_PSEXT
1000
9600 BW 8.5x11.pc3
1000
OKI C9600(PCL)
1000
Expansion Area
1000

1070
     0
  0
PLOTSETTINGS
  5
2594
102
{ACAD_REACTORS
330
1806
102
}
330
1806
100
AcDbPlotSettings
  1
Oki9600 8x11 Color Fit
  2
9600 Color 8.5x11.pc3
  4
Letter
  6

 40
5.027082920074462
 41
5.027070522308349
 42
5.027099609375
 43
5.027084350585937
 44
279.3999938964844
 45
215.8999938964844
 46
35.28131763668624
 47
0.0000000000000033
 48
0.0
 49
0.0
140
0.0
141
0.0
142
1.0
143
0.5293607604865011
 70
  2804
 72
     0
 73
     0
 74
     1
  7
OKIColorShaded.ctb
 75
     0
147
1.889070884439876
 76
     0
 77
     2
 78
   300
148
-75.74468520391772
149
-27.53050504688192
1001
ACAD_PSEXT
1000
9600 Color 8.5x11.pc3
1000
OKI C9600(PCL)
1000
Expansion Area
1000

1070
     0
  0
PLOTSETTINGS
  5
2595
102
{ACAD_REACTORS
330
1806
102
}
330
1806
100
AcDbPlotSettings
  1
Oki9600 8x11 Color Portrait Fit
  2
9600 Color 8.5x11.pc3
  4
Letter
  6

 40
5.027082920074462
 41
5.027070522308349
 42
5.027099609375
 43
5.027084350585937
 44
279.3999938964844
 45
215.8999938964844
 46
28.09318833520237
 47
-0.0000000000000029
 48
0.0
 49
0.0
140
0.0
141
0.0
142
1.0
143
0.5111981557072135
 70
  2804
 72
     0
 73
     1
 74
     1
  7
OKIColorShaded.ctb
 75
     0
147
1.956188591127753
 76
     0
 77
     2
 78
   300
148
-75.74468520391772
149
-27.53050504688192
1001
ACAD_PSEXT
1000
9600 Color 8.5x11.pc3
1000
OKI C9600(PCL)
1000
Expansion Area
1000

1070
     0
  0
PLOTSETTINGS
  5
2596
102
{ACAD_REACTORS
330
1806
102
}
330
1806
100
AcDbPlotSettings
  1
OKI9600 B&W 11x17
  2
9600 BW 11x17.pc3
  4
Tabloid
  6

 40
5.027082920074462
 41
5.027085781097412
 42
5.027099609375
 43
5.027069091796875
 44
431.7999877929687
 45
279.3999938964844
 46
72.80024645976547
 47
-0.0000000000000027
 48
0.0
 49
0.0
140
0.0
141
0.0
142
1.0
143
0.3496652028822988
 70
 11956
 72
     0
 73
     0
 74
     1
  7
OKIB&WShaded.ctb
 75
     0
147
2.859878511664802
 76
     0
 77
     2
 78
   300
148
-119.4582094169044
149
-58.17053554795709
1001
ACAD_PSEXT
1000
9600 BW 11x17.pc3
1000
OKI C9600(PCL)
1000
Expansion Area
1000

1070
     0
  0
PLOTSETTINGS
  5
2597
102
{ACAD_REACTORS
330
1806
102
}
330
1806
100
AcDbPlotSettings
  1
OKI9600 B&W 8.5x11
  2
9600 BW 8.5x11.pc3
  4
Letter
  6

 40
5.027082920074462
 41
5.027070522308349
 42
5.027099609375
 43
5.027084350585937
 44
279.3999938964844
 45
215.8999938964844
 46
29.15175911978468
 47
0.0000000000000065
 48
0.0
 49
0.0
140
0.0
141
0.0
142
1.0
143
0.4575310722549676
 70
 11956
 72
     0
 73
     0
 74
     1
  7
OKIB&WShaded.ctb
 75
     0
147
2.185643906262899
 76
     0
 77
     2
 78
   300
148
-119.4582094169044
149
-58.17053554795709
1001
ACAD_PSEXT
1000
9600 BW 8.5x11.pc3
1000
OKI C9600(PCL)
1000
Expansion Area
1000

1070
     0
  0
PLOTSETTINGS
  5
2598
102
{ACAD_REACTORS
330
1806
102
}
330
1806
100
AcDbPlotSettings
  1
OKI9600 Color 11x17
  2
9600 Color 11x17.pc3
  4
Tabloid
  6

 40
5.027082920074462
 41
5.027085781097412
 42
5.027099609375
 43
5.027069091796875
 44
431.7999877929687
 45
279.3999938964844
 46
72.80024645976547
 47
-0.0000000000000027
 48
0.0
 49
0.0
140
0.0
141
0.0
142
1.0
143
0.3496652028822988
 70
 11956
 72
     0
 73
     0
 74
     1
  7
OKIColorShaded.ctb
 75
     0
147
2.859878511664802
 76
     0
 77
     2
 78
   300
148
-119.4582094169044
149
-58.17053554795709
1001
ACAD_PSEXT
1000
9600 Color 11x17.pc3
1000
OKI C9600(PCL)
1000
Expansion Area
1000

1070
     0
  0
PLOTSETTINGS
  5
2599
102
{ACAD_REACTORS
330
1806
102
}
330
1806
100
AcDbPlotSettings
  1
OKI9600 Color 8.5x11
  2
9600 Color 8.5x11.pc3
  4
Letter
  6

 40
5.027082920074462
 41
5.027070522308349
 42
5.027099609375
 43
5.027084350585937
 44
279.3999938964844
 45
215.8999938964844
 46
29.15175911978468
 47
0.0000000000000065
 48
0.0
 49
0.0
140
0.0
141
0.0
142
1.0
143
0.4575310722549676
 70
 11956
 72
     0
 73
     0
 74
     1
  7
OKIColorShaded.ctb
 75
     0
147
2.185643906262899
 76
     0
 77
     2
 78
   300
148
-119.4582094169044
149
-58.17053554795709
1001
ACAD_PSEXT
1000
9600 Color 8.5x11.pc3
1000
OKI C9600(PCL)
1000
Expansion Area
1000

1070
     0
  0
PLOTSETTINGS
  5
259A
102
{ACAD_REACTORS
330
1806
102
}
330
1806
100
AcDbPlotSettings
  1
PHX Kyocera 11x17 Fit
  2
PHX_Kyocera.pc3
  4
Tabloid
  6

 40
4.984749794006347
 41
5.069418907165527
 42
5.069427490234375
 43
4.9847412109375
 44
431.7999877929687
 45
279.3999938964844
 46
80.8206764601584
 47
-0.0000000000000226
 48
0.0
 49
0.0
140
0.0
141
0.0
142
1.0
143
0.4045605917118723
 70
  2740
 72
     0
 73
     0
 74
     1
  7
LaserJet5Shaded.ctb
 75
     0
147
2.471817622592858
 76
     0
 77
     2
 78
   300
148
-75.74468520391772
149
-27.53050504688192
1001
ACAD_PSEXT
1000
PHX_Kyocera.pc3
1000
Kyocera Mita KM-2050 KX
1000
Arizona
1000

1070
     0
  0
PLOTSETTINGS
  5
259B
102
{ACAD_REACTORS
330
1806
102
}
330
1806
100
AcDbPlotSettings
  1
PHX Oki9500 11x17 BW Fit
  2
PHX OKI BW.pc3
  4
Tabloid
  6

 40
5.027082920074462
 41
5.027085781097412
 42
5.027099609375
 43
5.027069091796875
 44
431.7999877929687
 45
279.3999938964844
 46
80.82067130493246
 47
0.0
 48
0.0
 49
0.0
140
0.0
141
0.0
142
1.0
143
0.4045605838335077
 70
  2740
 72
     0
 73
     0
 74
     1
  7
OKIB&WShaded.ctb
 75
     0
147
2.47181767072874
 76
     0
 77
     2
 78
   300
148
-75.74468520391772
149
-27.53050504688192
1001
ACAD_PSEXT
1000
PHX OKI BW.pc3
1000
OKI C9500(PCL)
1000
Arizona
1000

1070
     0
  0
PLOTSETTINGS
  5
259C
102
{ACAD_REACTORS
330
1806
102
}
330
1806
100
AcDbPlotSettings
  1
PHX Oki9500 11x17 BW Half
  2
PHX OKI BW.pc3
  4
Tabloid
  6

 40
5.027082920074462
 41
5.027085781097412
 42
5.027099609375
 43
5.027069091796875
 44
431.7999877929687
 45
279.3999938964844
 46
184.5658993145439
 47
107.4312420396676
 48
0.0
 49
0.0
140
0.0
141
0.0
142
1.0
143
2.0
 70
  2724
 72
     0
 73
     0
 74
     1
  7
OKIB&WShaded.ctb
 75
     0
147
2.47181767072874
 76
     0
 77
     2
 78
   300
148
-75.74468520391772
149
-27.53050504688192
1001
ACAD_PSEXT
1000
PHX OKI BW.pc3
1000
OKI C9500(PCL)
1000
Arizona
1000

1070
     0
  0
ACDBPLACEHOLDER
  5
1804
102
{ACAD_REACTORS
330
1803
102
}
330
1803
  0
SCALE
  5
22A4
102
{ACAD_REACTORS
330
22A3
102
}
330
22A3
100
AcDbScale
 70
     0
300
1:1
140
1.0
141
1.0
290
     1
  0
TABLESTYLE
  5
22A2
102
{ACAD_XDICTIONARY
360
2350
102
}
102
{ACAD_REACTORS
330
22A1
102
}
330
22A1
100
AcDbTableStyle
  3
Standard
 70
     0
 71
     0
 40
0.06
 41
0.06
280
     0
281
     0
  7
STANDARD
140
0.18
170
     2
 62
     0
 63
     7
283
     0
274
    -2
284
     1
 64
     0
275
    -2
285
     1
 65
     0
276
    -2
286
     1
 66
     0
277
    -2
287
     1
 67
     0
278
    -2
288
     1
 68
     0
279
    -2
289
     1
 69
     0
  7
STANDARD
140
0.25
170
     5
 62
     0
 63
     7
283
     0
274
    -2
284
     1
 64
     0
275
    -2
285
     1
 65
     0
276
    -2
286
     1
 66
     0
277
    -2
287
     1
 67
     0
278
    -2
288
     1
 68
     0
279
    -2
289
     1
 69
     0
  7
STANDARD
140
0.18
170
     5
 62
     0
 63
     7
283
     0
274
    -2
284
     1
 64
     0
275
    -2
285
     1
 65
     0
276
    -2
286
     1
 66
     0
277
    -2
287
     1
 67
     0
278
    -2
288
     1
 68
     0
279
    -2
289
     1
 69
     0
  0
VISUALSTYLE
  5
2295
102
{ACAD_REACTORS
330
228F
102
}
330
228F
100
AcDbVisualStyle
  2
2dWireframe
 70
     4
 71
     0
 72
     2
 73
     0
 90
        0
 40
-0.6
 41
-30.0
 62
     5
 63
     7
421
 16777215
 74
     1
 91
        4
 64
     7
 65
   257
 75
     1
175
     1
 42
1.0
 92
        0
 66
   257
 43
1.0
 76
     1
 77
     6
 78
     2
 67
     7
 79
     5
170
     0
171
     0
290
     0
174
     0
 93
        1
 44
0.0
173
     0
291
     0
 45
0.0
1001
ACAD
1000
AcDbSavedByObjectVersion
1070
     0
  0
VISUALSTYLE
  5
2297
102
{ACAD_REACTORS
330
228F
102
}
330
228F
100
AcDbVisualStyle
  2
3D Hidden
 70
     6
 71
     1
 72
     2
 73
     2
 90
        0
 40
-0.6
 41
-30.0
 62
     5
 63
     7
421
 16777215
 74
     2
 91
        2
 64
     7
 65
   257
 75
     2
175
     1
 42
40.0
 92
        0
 66
   257
 43
1.0
 76
     1
 77
     6
 78
     2
 67
     7
 79
     3
170
     0
171
     0
290
     0
174
     0
 93
        1
 44
0.0
173
     0
291
     0
 45
0.0
1001
ACAD
1000
AcDbSavedByObjectVersion
1070
     0
  0
VISUALSTYLE
  5
2296
102
{ACAD_REACTORS
330
228F
102
}
330
228F
100
AcDbVisualStyle
  2
3dWireframe
 70
     5
 71
     0
 72
     2
 73
     0
 90
        0
 40
-0.6
 41
-30.0
 62
     5
 63
     7
421
 16777215
 74
     1
 91
        4
 64
     7
 65
   257
 75
     1
175
     1
 42
1.0
 92
        0
 66
   257
 43
1.0
 76
     1
 77
     6
 78
     2
 67
     7
 79
     5
170
     0
171
     0
290
     0
174
     0
 93
        1
 44
0.0
173
     0
291
     0
 45
0.0
1001
ACAD
1000
AcDbSavedByObjectVersion
1070
     0
  0
VISUALSTYLE
  5
2294
102
{ACAD_REACTORS
330
228F
102
}
330
228F
100
AcDbVisualStyle
  2
Basic
 70
     7
 71
     1
 72
     0
 73
     1
 90
        0
 40
-0.6
 41
-30.0
 62
     5
 63
     7
421
 16777215
 74
     0
 91
        4
 64
     7
 65
   257
 75
     1
175
     1
 42
1.0
 92
        8
 66
     7
 43
1.0
 76
     1
 77
     6
 78
     2
 67
     7
 79
     5
170
     0
171
     0
290
     0
174
     0
 93
        1
 44
0.0
173
     0
291
     1
 45
0.0
1001
ACAD
1000
AcDbSavedByObjectVersion
1070
     0
  0
VISUALSTYLE
  5
229B
102
{ACAD_REACTORS
330
228F
102
}
330
228F
100
AcDbVisualStyle
  2
Brighten
 70
    12
 71
     2
 72
     2
 73
     0
 90
        0
 40
-0.6
 41
-30.0
 62
     5
 63
     7
421
 16777215
 74
     1
 91
        4
 64
     7
 65
   257
 75
     1
175
     1
 42
1.0
 92
        8
 66
     7
 43
1.0
 76
     1
 77
     6
 78
     2
 67
     7
 79
     5
170
     0
171
     0
290
     0
174
     0
 93
        1
 44
50.0
173
     0
291
     1
 45
0.0
1001
ACAD
1000
AcDbSavedByObjectVersion
1070
     0
  0
VISUALSTYLE
  5
229F
102
{ACAD_REACTORS
330
228F
102
}
330
228F
100
AcDbVisualStyle
  2
ColorChange
 70
    16
 71
     2
 72
     2
 73
     3
 90
        0
 40
-0.6
 41
-30.0
 62
     5
 63
     8
421
  8421504
 74
     1
 91
        4
 64
     7
 65
   257
 75
     1
175
     1
 42
1.0
 92
        8
 66
     8
424
  8421504
 43
1.0
 76
     1
 77
     6
 78
     2
 67
     7
 79
     5
170
     0
171
     0
290
     0
174
     0
 93
        1
 44
0.0
173
     0
291
     1
 45
0.0
1001
ACAD
1000
AcDbSavedByObjectVersion
1070
     0
  0
VISUALSTYLE
  5
2298
102
{ACAD_REACTORS
330
228F
102
}
330
228F
100
AcDbVisualStyle
  2
Conceptual
 70
     9
 71
     3
 72
     2
 73
     0
 90
        0
 40
-0.6
 41
-30.0
 62
     5
 63
     7
421
 16777215
 74
     2
 91
        2
 64
     7
 65
   257
 75
     1
175
     1
 42
40.0
 92
        8
 66
     7
 43
1.0
 76
     1
 77
     6
 78
     2
 67
     7
 79
     3
170
     0
171
     0
290
     0
174
     0
 93
        1
 44
0.0
173
     0
291
     0
 45
0.0
1001
ACAD
1000
AcDbSavedByObjectVersion
1070
     0
  0
VISUALSTYLE
  5
229A
102
{ACAD_REACTORS
330
228F
102
}
330
228F
100
AcDbVisualStyle
  2
Dim
 70
    11
 71
     2
 72
     2
 73
     0
 90
        0
 40
-0.6
 41
-30.0
 62
     5
 63
     7
421
 16777215
 74
     1
 91
        4
 64
     7
 65
   257
 75
     1
175
     1
 42
1.0
 92
        8
 66
     7
 43
1.0
 76
     1
 77
     6
 78
     2
 67
     7
 79
     5
170
     0
171
     0
290
     0
174
     0
 93
        1
 44
-50.0
173
     0
291
     1
 45
0.0
1001
ACAD
1000
AcDbSavedByObjectVersion
1070
     0
  0
VISUALSTYLE
  5
229E
102
{ACAD_REACTORS
330
228F
102
}
330
228F
100
AcDbVisualStyle
  2
Facepattern
 70
    15
 71
     2
 72
     2
 73
     0
 90
        0
 40
-0.6
 41
-30.0
 62
     5
 63
     7
421
 16777215
 74
     1
 91
        4
 64
     7
 65
   257
 75
     1
175
     1
 42
1.0
 92
        8
 66
     7
 43
1.0
 76
     1
 77
     6
 78
     2
 67
     7
 79
     5
170
     0
171
     0
290
     0
174
     0
 93
        1
 44
0.0
173
     0
291
     1
 45
0.0
1001
ACAD
1000
AcDbSavedByObjectVersion
1070
     0
  0
VISUALSTYLE
  5
2290
102
{ACAD_REACTORS
330
228F
102
}
330
228F
100
AcDbVisualStyle
  2
Flat
 70
     0
 71
     2
 72
     1
 73
     1
 90
        2
 40
-0.6
 41
30.0
 62
     5
 63
     7
421
 16777215
 74
     0
 91
        4
 64
     7
 65
   257
 75
     1
175
     1
 42
1.0
 92
        8
 66
     7
 43
1.0
 76
     1
 77
     6
 78
     2
 67
     7
 79
     5
170
     0
171
     0
290
     0
174
     0
 93
       13
 44
0.0
173
     0
291
     1
 45
0.0
1001
ACAD
1000
AcDbSavedByObjectVersion
1070
     0
  0
VISUALSTYLE
  5
2291
102
{ACAD_REACTORS
330
228F
102
}
330
228F
100
AcDbVisualStyle
  2
FlatWithEdges
 70
     1
 71
     2
 72
     1
 73
     1
 90
        2
 40
-0.6
 41
30.0
 62
     5
 63
     7
421
 16777215
 74
     1
 91
        4
 64
     7
 65
   257
 75
     1
175
     1
 42
1.0
 92
        0
 66
   257
 43
1.0
 76
     1
 77
     6
 78
     2
 67
     7
 79
     5
170
     0
171
     0
290
     0
174
     0
 93
       13
 44
0.0
173
     0
291
     1
 45
0.0
1001
ACAD
1000
AcDbSavedByObjectVersion
1070
     0
  0
VISUALSTYLE
  5
2292
102
{ACAD_REACTORS
330
228F
102
}
330
228F
100
AcDbVisualStyle
  2
Gouraud
 70
     2
 71
     2
 72
     2
 73
     1
 90
        2
 40
-0.6
 41
30.0
 62
     5
 63
     7
421
 16777215
 74
     0
 91
        4
 64
     7
 65
   257
 75
     1
175
     1
 42
1.0
 92
        0
 66
     7
 43
1.0
 76
     1
 77
     6
 78
     2
 67
     7
 79
     5
170
     0
171
     0
290
     0
174
     0
 93
       13
 44
0.0
173
     0
291
     1
 45
0.0
1001
ACAD
1000
AcDbSavedByObjectVersion
1070
     0
  0
VISUALSTYLE
  5
2293
102
{ACAD_REACTORS
330
228F
102
}
330
228F
100
AcDbVisualStyle
  2
GouraudWithEdges
 70
     3
 71
     2
 72
     2
 73
     1
 90
        2
 40
-0.6
 41
30.0
 62
     5
 63
     7
421
 16777215
 74
     1
 91
        4
 64
     7
 65
   257
 75
     1
175
     1
 42
1.0
 92
        0
 66
   257
 43
1.0
 76
     1
 77
     6
 78
     2
 67
     7
 79
     5
170
     0
171
     0
290
     0
174
     0
 93
       13
 44
0.0
173
     0
291
     1
 45
0.0
1001
ACAD
1000
AcDbSavedByObjectVersion
1070
     0
  0
VISUALSTYLE
  5
229D
102
{ACAD_REACTORS
330
228F
102
}
330
228F
100
AcDbVisualStyle
  2
Linepattern
 70
    14
 71
     2
 72
     2
 73
     0
 90
        0
 40
-0.6
 41
-30.0
 62
     5
 63
     7
421
 16777215
 74
     1
 91
        4
 64
     7
 65
   257
 75
     7
175
     7
 42
1.0
 92
        8
 66
     7
 43
1.0
 76
     1
 77
     6
 78
     2
 67
     7
 79
     5
170
     0
171
     0
290
     0
174
     0
 93
        1
 44
0.0
173
     0
291
     1
 45
0.0
1001
ACAD
1000
AcDbSavedByObjectVersion
1070
     0
  0
VISUALSTYLE
  5
2299
102
{ACAD_REACTORS
330
228F
102
}
330
228F
100
AcDbVisualStyle
  2
Realistic
 70
     8
 71
     2
 72
     2
 73
     0
 90
        0
 40
-0.6
 41
-30.0
 62
     5
 63
     7
421
 16777215
 74
     1
 91
        0
 64
     7
 65
   257
 75
     1
175
     1
 42
1.0
 92
        8
 66
     8
424
  7895160
 43
1.0
 76
     1
 77
     6
 78
     2
 67
     7
 79
     5
170
     0
171
     0
290
     0
174
     0
 93
       13
 44
0.0
173
     0
291
     0
 45
0.0
1001
ACAD
1000
AcDbSavedByObjectVersion
1070
     0
  0
VISUALSTYLE
  5
229C
102
{ACAD_REACTORS
330
228F
102
}
330
228F
100
AcDbVisualStyle
  2
Thicken
 70
    13
 71
     2
 72
     2
 73
     0
 90
        0
 40
-0.6
 41
-30.0
 62
     5
 63
     7
421
 16777215
 74
     1
 91
        4
 64
     7
 65
   257
 75
     1
175
     1
 42
1.0
 92
       12
 66
     7
 43
1.0
 76
     1
 77
     6
 78
     2
 67
     7
 79
     5
170
     0
171
     0
290
     0
174
     0
 93
        1
 44
0.0
173
     0
291
     1
 45
0.0
1001
ACAD
1000
AcDbSavedByObjectVersion
1070
     0
  0
DICTIONARYVAR
  5
2356
102
{ACAD_REACTORS
330
1DDF
102
}
330
1DDF
100
DictionaryVariables
280
     0
  1
1:1
  0
DICTIONARYVAR
  5
2354
102
{ACAD_REACTORS
330
1DDF
102
}
330
1DDF
100
DictionaryVariables
280
     0
  1
STANDARD
  0
DICTIONARYVAR
  5
2353
102
{ACAD_REACTORS
330
1DDF
102
}
330
1DDF
100
DictionaryVariables
280
     0
  1
STANDARD
  0
DICTIONARYVAR
  5
1DE0
102
{ACAD_REACTORS
330
1DDF
102
}
330
1DDF
100
DictionaryVariables
280
     0
  1
1
  0
DICTIONARYVAR
  5
25CD
102
{ACAD_REACTORS
330
1DDF
102
}
330
1DDF
100
DictionaryVariables
280
     0
  1
0
  0
DICTIONARYVAR
  5
2358
102
{ACAD_REACTORS
330
1DDF
102
}
330
1DDF
100
DictionaryVariables
280
     0
  1
15
  0
DICTIONARYVAR
  5
2357
102
{ACAD_REACTORS
330
1DDF
102
}
330
1DDF
100
DictionaryVariables
280
     0
  1
0
  0
DICTIONARYVAR
  5
2355
102
{ACAD_REACTORS
330
1DDF
102
}
330
1DDF
100
DictionaryVariables
280
     0
  1
0
  0
DICTIONARYVAR
  5
2254
102
{ACAD_REACTORS
330
1DDF
102
}
330
1DDF
100
DictionaryVariables
280
     0
  1
1
  0
XRECORD
  5
2235
102
{ACAD_REACTORS
330
2234
102
}
330
2234
100
AcDbXrecord
280
     1
330
1CF2
330
1D26
330
1D29
330
1D2C
330
1D2F
330
1D81
330
1D9D
330
1DAB
330
1DBF
330
1DC2
330
1DC5
330
1DE2
330
1E30
330
1BFE
330
1E2C
  0
XRECORD
  5
25B7
102
{ACAD_REACTORS
330
25B4
102
}
330
25B4
100
AcDbXrecord
280
     1
  1
_0100-
  1
*0100-*
  1
*
  1
*
 70
     0
  1
*
  1
*
  0
XRECORD
  5
25B6
102
{ACAD_REACTORS
330
25B4
102
}
330
25B4
100
AcDbXrecord
280
     1
  1
_0280-
  1
*0280-*
  1
*
  1
*
 70
     0
  1
*
  1
*
  0
XRECORD
  5
25B9
102
{ACAD_REACTORS
330
25B4
102
}
330
25B4
100
AcDbXrecord
280
     1
  1
_Add Alternate
  1
*add*alt*
  1
*
  1
*
 70
     0
  1
*
  1
*
  0
XRECORD
  5
25BA
102
{ACAD_REACTORS
330
25B4
102
}
330
25B4
100
AcDbXrecord
280
     1
  1
_Bid Alternate
  1
*bid*alt*
  1
*
  1
*
 70
     0
  1
*
  1
*
  0
XRECORD
  5
25BC
102
{ACAD_REACTORS
330
25B4
102
}
330
25B4
100
AcDbXrecord
280
     1
  1
_Color 253
  1
*
  1
253
  1
*
 70
     0
  1
*
  1
*
  0
XRECORD
  5
25B8
102
{ACAD_REACTORS
330
25B4
102
}
330
25B4
100
AcDbXrecord
280
     1
  1
_Color 8
  1
*
  1
8
  1
*
 70
     0
  1
*
  1
*
  0
XRECORD
  5
25BB
102
{ACAD_REACTORS
330
25B4
102
}
330
25B4
100
AcDbXrecord
280
     1
  1
_Color 84
  1
*
  1
84
  1
*
 70
     0
  1
*
  1
*
  0
XRECORD
  5
25C2
102
{ACAD_REACTORS
330
25B4
102
}
330
25B4
100
AcDbXrecord
280
     1
  1
_Contours
  1
*contour*,*cont-*,*cp cont*,*p-cont*
  1
*
  1
*
 70
     0
  1
*
  1
*
  0
XRECORD
  5
25BD
102
{ACAD_REACTORS
330
25B4
102
}
330
25B4
100
AcDbXrecord
280
     1
  1
_Demo
  1
*demo*
  1
*
  1
*
 70
     0
  1
*
  1
*
  0
XRECORD
  5
25BE
102
{ACAD_REACTORS
330
25B4
102
}
330
25B4
100
AcDbXrecord
280
     1
  1
_Existing
  1
*exist*,*ex*
  1
*
  1
*
 70
     0
  1
*
  1
*
  0
XRECORD
  5
25C1
102
{ACAD_REACTORS
330
25B4
102
}
330
25B4
100
AcDbXrecord
280
     1
  1
_Hardscape
  1
*sidewalk*,*sw*,*curb*,*walk*,*-lip*,*tbc*
  1
*
  1
*
 70
     0
  1
*
  1
*
  0
XRECORD
  5
25B5
102
{ACAD_REACTORS
330
25B4
102
}
330
25B4
100
AcDbXrecord
280
     1
  1
_NoXref
  1
~*|*
  1
*
  1
*
 70
     0
  1
*
  1
*
  0
XRECORD
  5
25BF
102
{ACAD_REACTORS
330
25B4
102
}
330
25B4
100
AcDbXrecord
280
     1
  1
_Row
  1
*row*
  1
*
  1
*
 70
     0
  1
*
  1
*
  0
XRECORD
  5
25C0
102
{ACAD_REACTORS
330
25B4
102
}
330
25B4
100
AcDbXrecord
280
     1
  1
_Utility
  1
*ut-*,*utility*,*wat*
  1
*
  1
*
 70
     0
  1
*
  1
*
  0
DICTIONARY
  5
2280
330
227F
100
AcDbDictionary
280
     1
281
     1
  3
ACAD_XREC_ROUNDTRIP
360
25D5
  3
BUMPTILE
360
2282
  3
DIFFUSETILE
360
2281
  3
OPACITYTILE
360
2285
  3
REFLECTIONTILE
360
2284
  3
REFRACTIONTILE
360
2286
  3
SPECULARTILE
360
2283
  0
DICTIONARY
  5
2278
330
2277
100
AcDbDictionary
280
     1
281
     1
  3
ACAD_XREC_ROUNDTRIP
360
25D4
  3
BUMPTILE
360
227A
  3
DIFFUSETILE
360
2279
  3
OPACITYTILE
360
227D
  3
REFLECTIONTILE
360
227C
  3
REFRACTIONTILE
360
227E
  3
SPECULARTILE
360
227B
  0
DICTIONARY
  5
2288
330
2287
100
AcDbDictionary
280
     1
281
     1
  3
ACAD_XREC_ROUNDTRIP
360
25D6
  3
BUMPTILE
360
228A
  3
DIFFUSETILE
360
2289
  3
OPACITYTILE
360
228D
  3
REFLECTIONTILE
360
228C
  3
REFRACTIONTILE
360
228E
  3
SPECULARTILE
360
228B
  0
DICTIONARY
  5
2350
330
22A2
100
AcDbDictionary
280
     1
281
     1
  3
ACAD_ROUNDTRIP_2008_TABLESTYLE_CELLSTYLEMAP
360
25D3
  3
ACAD_XREC_ROUNDTRIP
360
25D7
  0
XRECORD
  5
25D5
102
{ACAD_REACTORS
330
2280
102
}
330
2280
100
AcDbXrecord
280
     1
102
MATERIAL
148
0.0
149
0.0
149
0.0
 93
        0
 94
      127
282
     0
 72
     0
 77
     0
171
     0
175
     0
179
     0
273
     0
  0
XRECORD
  5
2282
102
{ACAD_REACTORS
330
2280
102
}
330
2280
100
AcDbXrecord
280
     1
270
     1
271
     1
  0
XRECORD
  5
2281
102
{ACAD_REACTORS
330
2280
102
}
330
2280
100
AcDbXrecord
280
     1
270
     1
271
     1
  0
XRECORD
  5
2285
102
{ACAD_REACTORS
330
2280
102
}
330
2280
100
AcDbXrecord
280
     1
270
     1
271
     1
  0
XRECORD
  5
2284
102
{ACAD_REACTORS
330
2280
102
}
330
2280
100
AcDbXrecord
280
     1
270
     1
271
     1
  0
XRECORD
  5
2286
102
{ACAD_REACTORS
330
2280
102
}
330
2280
100
AcDbXrecord
280
     1
270
     1
271
     1
  0
XRECORD
  5
2283
102
{ACAD_REACTORS
330
2280
102
}
330
2280
100
AcDbXrecord
280
     1
270
     1
271
     1
  0
XRECORD
  5
25D4
102
{ACAD_REACTORS
330
2278
102
}
330
2278
100
AcDbXrecord
280
     1
102
MATERIAL
148
0.0
149
0.0
149
0.0
 93
        0
 94
      127
282
     0
 72
     0
 77
     0
171
     0
175
     0
179
     0
273
     0
  0
XRECORD
  5
227A
102
{ACAD_REACTORS
330
2278
102
}
330
2278
100
AcDbXrecord
280
     1
270
     1
271
     1
  0
XRECORD
  5
2279
102
{ACAD_REACTORS
330
2278
102
}
330
2278
100
AcDbXrecord
280
     1
270
     1
271
     1
  0
XRECORD
  5
227D
102
{ACAD_REACTORS
330
2278
102
}
330
2278
100
AcDbXrecord
280
     1
270
     1
271
     1
  0
XRECORD
  5
227C
102
{ACAD_REACTORS
330
2278
102
}
330
2278
100
AcDbXrecord
280
     1
270
     1
271
     1
  0
XRECORD
  5
227E
102
{ACAD_REACTORS
330
2278
102
}
330
2278
100
AcDbXrecord
280
     1
270
     1
271
     1
  0
XRECORD
  5
227B
102
{ACAD_REACTORS
330
2278
102
}
330
2278
100
AcDbXrecord
280
     1
270
     1
271
     1
  0
XRECORD
  5
25D6
102
{ACAD_REACTORS
330
2288
102
}
330
2288
100
AcDbXrecord
280
     1
102
MATERIAL
148
0.0
149
0.0
149
0.0
 93
        0
 94
      127
282
     0
 72
     0
 77
     0
171
     0
175
     0
179
     0
273
     0
  0
XRECORD
  5
228A
102
{ACAD_REACTORS
330
2288
102
}
330
2288
100
AcDbXrecord
280
     1
270
     1
271
     1
  0
XRECORD
  5
2289
102
{ACAD_REACTORS
330
2288
102
}
330
2288
100
AcDbXrecord
280
     1
270
     1
271
     1
  0
XRECORD
  5
228D
102
{ACAD_REACTORS
330
2288
102
}
330
2288
100
AcDbXrecord
280
     1
270
     1
271
     1
  0
XRECORD
  5
228C
102
{ACAD_REACTORS
330
2288
102
}
330
2288
100
AcDbXrecord
280
     1
270
     1
271
     1
  0
XRECORD
  5
228E
102
{ACAD_REACTORS
330
2288
102
}
330
2288
100
AcDbXrecord
280
     1
270
     1
271
     1
  0
XRECORD
  5
228B
102
{ACAD_REACTORS
330
2288
102
}
330
2288
100
AcDbXrecord
280
     1
270
     1
271
     1
  0
CELLSTYLEMAP
  5
25D3
102
{ACAD_REACTORS
330
2350
102
}
330
2350
100
AcDbCellStyleMap
 90
        3
300
CELLSTYLE
  1
TABLEFORMAT_BEGIN
 90
        5
170
     1
 91
        0
 92
    32768
 62
   257
 93
        1
300
CONTENTFORMAT
  1
CONTENTFORMAT_BEGIN
 90
        0
 91
        0
 92
      512
 93
        0
300

 40
0.0
140
1.0
 94
        5
 62
     0
340
F
144
0.25
309
CONTENTFORMAT_END
171
     0
 94
        0
309
TABLEFORMAT_END
  1
CELLSTYLE_BEGIN
 90
        1
 91
        1
300
_TITLE
309
CELLSTYLE_END
300
CELLSTYLE
  1
TABLEFORMAT_BEGIN
 90
        5
170
     1
 91
        0
 92
        0
 62
   257
 93
        1
300
CONTENTFORMAT
  1
CONTENTFORMAT_BEGIN
 90
        0
 91
        0
 92
      512
 93
        0
300

 40
0.0
140
1.0
 94
        5
 62
     0
340
F
144
0.18
309
CONTENTFORMAT_END
171
     0
 94
        0
309
TABLEFORMAT_END
  1
CELLSTYLE_BEGIN
 90
        2
 91
        1
300
_HEADER
309
CELLSTYLE_END
300
CELLSTYLE
  1
TABLEFORMAT_BEGIN
 90
        5
170
     1
 91
        0
 92
        0
 62
   257
 93
        1
300
CONTENTFORMAT
  1
CONTENTFORMAT_BEGIN
 90
        0
 91
        0
 92
      512
 93
        0
300

 40
0.0
140
1.0
 94
        2
 62
     0
340
F
144
0.18
309
CONTENTFORMAT_END
171
     0
 94
        0
309
TABLEFORMAT_END
  1
CELLSTYLE_BEGIN
 90
        3
 91
        2
300
_DATA
309
CELLSTYLE_END
  0
XRECORD
  5
25D7
102
{ACAD_REACTORS
330
2350
102
}
330
2350
100
AcDbXrecord
280
     1
102
ACAD_ROUNDTRIP_PRE2007_TABLESTYLE
 90
      512
 91
        0
  1

 92
      512
 93
        0
  2

 94
      512
 95
        0
  3

  0
ENDSEC
  0
EOF
