  0
SECTION
  2
HEADER
  9
$ACADVER
  1
AC1018
  9
$ACADMAINTVER
 70
   104
  9
$DWGCODEPAGE
  3
ANSI_1252
  9
$LASTSAVEDBY
  1
dweyer
  9
$INSBASE
 10
-0.0102040656010656
 20
-0.0099921734210461
 30
0.0
  9
$EXTMIN
 10
0.0
 20
0.0
 30
0.0
  9
$EXTMAX
 10
16.48999999999999
 20
10.44
 30
0.03
  9
$LIMMIN
 10
0.0
 20
0.0
  9
$LIMMAX
 10
12.0
 20
9.0
  9
$ORTHOMODE
 70
     0
  9
$REGENMODE
 70
     1
  9
$FILLMODE
 70
     1
  9
$QTEXTMODE
 70
     0
  9
$MIRRTEXT
 70
     0
  9
$LTSCALE
 40
1.0
  9
$ATTMODE
 70
     1
  9
$TEXTSIZE
 40
0.125
  9
$TRACEWID
 40
0.05
  9
$TEXTSTYLE
  7
ROMANS
  9
$CLAYER
  8
image
  9
$CELTYPE
  6
BYLAYER
  9
$CECOLOR
 62
   256
  9
$CELTSCALE
 40
1.0
  9
$DISPSILH
 70
     0
  9
$DIMSCALE
 40
1.0
  9
$DIMASZ
 40
0.18
  9
$DIMEXO
 40
0.0625
  9
$DIMDLI
 40
0.38
  9
$DIMRND
 40
0.0
  9
$DIMDLE
 40
0.0
  9
$DIMEXE
 40
0.125
  9
$DIMTP
 40
0.0
  9
$DIMTM
 40
0.0
  9
$DIMTXT
 40
0.125
  9
$DIMCEN
 40
0.09
  9
$DIMTSZ
 40
0.0
  9
$DIMTOL
 70
     0
  9
$DIMLIM
 70
     0
  9
$DIMTIH
 70
     1
  9
$DIMTOH
 70
     1
  9
$DIMSE1
 70
     0
  9
$DIMSE2
 70
     0
  9
$DIMTAD
 70
     0
  9
$DIMZIN
 70
     0
  9
$DIMBLK
  1

  9
$DIMASO
 70
     1
  9
$DIMSHO
 70
     1
  9
$DIMPOST
  1

  9
$DIMAPOST
  1

  9
$DIMALT
 70
     0
  9
$DIMALTD
 70
     2
  9
$DIMALTF
 40
25.4
  9
$DIMLFAC
 40
1.0
  9
$DIMTOFL
 70
     0
  9
$DIMTVP
 40
0.0
  9
$DIMTIX
 70
     0
  9
$DIMSOXD
 70
     0
  9
$DIMSAH
 70
     0
  9
$DIMBLK1
  1

  9
$DIMBLK2
  1

  9
$DIMSTYLE
  2
STANDARD
  9
$DIMCLRD
 70
   256
  9
$DIMCLRE
 70
   256
  9
$DIMCLRT
 70
   256
  9
$DIMTFAC
 40
1.0
  9
$DIMGAP
 40
0.09
  9
$DIMJUST
 70
     0
  9
$DIMSD1
 70
     0
  9
$DIMSD2
 70
     0
  9
$DIMTOLJ
 70
     1
  9
$DIMTZIN
 70
     0
  9
$DIMALTZ
 70
     0
  9
$DIMALTTZ
 70
     0
  9
$DIMUPT
 70
     0
  9
$DIMDEC
 70
     4
  9
$DIMTDEC
 70
     4
  9
$DIMALTU
 70
     2
  9
$DIMALTTD
 70
     2
  9
$DIMTXSTY
  7
arial
  9
$DIMAUNIT
 70
     0
  9
$DIMADEC
 70
     0
  9
$DIMALTRND
 40
0.0
  9
$DIMAZIN
 70
     0
  9
$DIMDSEP
 70
    46
  9
$DIMATFIT
 70
     3
  9
$DIMFRAC
 70
     0
  9
$DIMLDRBLK
  1

  9
$DIMLUNIT
 70
     2
  9
$DIMLWD
 70
    -1
  9
$DIMLWE
 70
    -1
  9
$DIMTMOVE
 70
     0
  9
$LUNITS
 70
     2
  9
$LUPREC
 70
     3
  9
$SKETCHINC
 40
0.1
  9
$FILLETRAD
 40
0.0
  9
$AUNITS
 70
     0
  9
$AUPREC
 70
     0
  9
$MENU
  1
c:\acad13nt\win\SUPPORT\ACAD
  9
$ELEVATION
 40
0.0
  9
$PELEVATION
 40
0.0
  9
$THICKNESS
 40
0.0
  9
$LIMCHECK
 70
     0
  9
$CHAMFERA
 40
0.0
  9
$CHAMFERB
 40
0.0
  9
$CHAMFERC
 40
0.0
  9
$CHAMFERD
 40
0.0
  9
$SKPOLY
 70
     0
  9
$TDCREATE
 40
2449623.343430903
  9
$TDUCREATE
 40
2449623.635097569
  9
$TDUPDATE
 40
2455575.513089699
  9
$TDUUPDATE
 40
2455575.804756366
  9
$TDINDWG
 40
0.4561578241
  9
$TDUSRTIMER
 40
0.4561578241
  9
$USRTIMER
 70
     1
  9
$ANGBASE
 50
0.0
  9
$ANGDIR
 70
     0
  9
$PDMODE
 70
     0
  9
$PDSIZE
 40
0.0
  9
$PLINEWID
 40
0.0
  9
$SPLFRAME
 70
     0
  9
$SPLINETYPE
 70
     6
  9
$SPLINESEGS
 70
     8
  9
$HANDSEED
  5
9D5
  9
$SURFTAB1
 70
     6
  9
$SURFTAB2
 70
     6
  9
$SURFTYPE
 70
     6
  9
$SURFU
 70
     6
  9
$SURFV
 70
     6
  9
$UCSBASE
  2

  9
$UCSNAME
  2

  9
$UCSORG
 10
0.0
 20
0.0
 30
0.0
  9
$UCSXDIR
 10
1.0
 20
0.0
 30
0.0
  9
$UCSYDIR
 10
0.0
 20
1.0
 30
0.0
  9
$UCSORTHOREF
  2

  9
$UCSORTHOVIEW
 70
     0
  9
$UCSORGTOP
 10
0.0
 20
0.0
 30
0.0
  9
$UCSORGBOTTOM
 10
0.0
 20
0.0
 30
0.0
  9
$UCSORGLEFT
 10
0.0
 20
0.0
 30
0.0
  9
$UCSORGRIGHT
 10
0.0
 20
0.0
 30
0.0
  9
$UCSORGFRONT
 10
0.0
 20
0.0
 30
0.0
  9
$UCSORGBACK
 10
0.0
 20
0.0
 30
0.0
  9
$PUCSBASE
  2

  9
$PUCSNAME
  2

  9
$PUCSORG
 10
0.0
 20
0.0
 30
0.0
  9
$PUCSXDIR
 10
1.0
 20
0.0
 30
0.0
  9
$PUCSYDIR
 10
0.0
 20
1.0
 30
0.0
  9
$PUCSORTHOREF
  2

  9
$PUCSORTHOVIEW
 70
     0
  9
$PUCSORGTOP
 10
0.0
 20
0.0
 30
0.0
  9
$PUCSORGBOTTOM
 10
0.0
 20
0.0
 30
0.0
  9
$PUCSORGLEFT
 10
0.0
 20
0.0
 30
0.0
  9
$PUCSORGRIGHT
 10
0.0
 20
0.0
 30
0.0
  9
$PUCSORGFRONT
 10
0.0
 20
0.0
 30
0.0
  9
$PUCSORGBACK
 10
0.0
 20
0.0
 30
0.0
  9
$USERI1
 70
     0
  9
$USERI2
 70
     0
  9
$USERI3
 70
     0
  9
$USERI4
 70
     0
  9
$USERI5
 70
     0
  9
$USERR1
 40
0.0
  9
$USERR2
 40
0.0
  9
$USERR3
 40
0.0
  9
$USERR4
 40
0.0
  9
$USERR5
 40
0.0
  9
$WORLDVIEW
 70
     1
  9
$SHADEDGE
 70
     3
  9
$SHADEDIF
 70
    70
  9
$TILEMODE
 70
     1
  9
$MAXACTVP
 70
    16
  9
$PINSBASE
 10
0.0
 20
0.0
 30
0.0
  9
$PLIMCHECK
 70
     0
  9
$PEXTMIN
 10
1.000000000000000E+20
 20
1.000000000000000E+20
 30
1.000000000000000E+20
  9
$PEXTMAX
 10
-1.000000000000000E+20
 20
-1.000000000000000E+20
 30
-1.000000000000000E+20
  9
$PLIMMIN
 10
0.0
 20
0.0
  9
$PLIMMAX
 10
12.0
 20
9.0
  9
$UNITMODE
 70
     0
  9
$VISRETAIN
 70
     0
  9
$PLINEGEN
 70
     1
  9
$PSLTSCALE
 70
     1
  9
$TREEDEPTH
 70
  3020
  9
$CMLSTYLE
  2
STANDARD
  9
$CMLJUST
 70
     0
  9
$CMLSCALE
 40
1.0
  9
$PROXYGRAPHICS
 70
     1
  9
$MEASUREMENT
 70
     0
  9
$CELWEIGHT
370
    -1
  9
$ENDCAPS
280
     0
  9
$JOINSTYLE
280
     0
  9
$LWDISPLAY
290
     0
  9
$INSUNITS
 70
     0
  9
$HYPERLINKBASE
  1

  9
$STYLESHEET
  1
okicolorshaded.ctb
  9
$XEDIT
290
     1
  9
$CEPSNTYPE
380
     0
  9
$PSTYLEMODE
290
     1
  9
$FINGERPRINTGUID
  2
{836422F3-A604-42EF-94E6-CBC462A1BF8A}
  9
$VERSIONGUID
  2
{E7BBB562-A3B9-4843-88B5-0DEECC3C5704}
  9
$EXTNAMES
290
     1
  9
$PSVPSCALE
 40
0.0
  9
$OLESTARTUP
290
     1
  9
$SORTENTS
280
    48
  9
$INDEXCTL
280
     0
  9
$HIDETEXT
280
     1
  9
$XCLIPFRAME
290
     0
  9
$HALOGAP
280
     0
  9
$OBSCOLOR
 70
   257
  9
$OBSLTYPE
280
     0
  9
$INTERSECTIONDISPLAY
280
     0
  9
$INTERSECTIONCOLOR
 70
   257
  9
$DIMASSOC
280
     1
  9
$PROJECTNAME
  1

  0
ENDSEC
  0
SECTION
  2
CLASSES
  0
CLASS
  1
ACDBDICTIONARYWDFLT
  2
AcDbDictionaryWithDefault
  3
ObjectDBX Classes
 90
        0
 91
        1
280
     0
281
     0
  0
CLASS
  1
DICTIONARYVAR
  2
AcDbDictionaryVar
  3
ObjectDBX Classes
 90
        0
 91
       12
280
     0
281
     0
  0
CLASS
  1
SORTENTSTABLE
  2
AcDbSortentsTable
  3
ObjectDBX Classes
 90
        0
 91
        3
280
     0
281
     0
  0
CLASS
  1
MATERIAL
  2
AcDbMaterial
  3
ObjectDBX Classes
 90
     1153
 91
        3
280
     0
281
     0
  0
CLASS
  1
VISUALSTYLE
  2
AcDbVisualStyle
  3
ObjectDBX Classes
 90
     4095
 91
       16
280
     0
281
     0
  0
CLASS
  1
TABLESTYLE
  2
AcDbTableStyle
  3
ObjectDBX Classes
 90
     4095
 91
        1
280
     0
281
     0
  0
CLASS
  1
SCALE
  2
AcDbScale
  3
ObjectDBX Classes
 90
     1153
 91
        1
280
     0
281
     0
  0
CLASS
  1
MLEADERSTYLE
  2
AcDbMLeaderStyle
  3
ACDB_MLEADERSTYLE_CLASS
 90
     4095
 91
        1
280
     0
281
     0
  0
CLASS
  1
EXACXREFPANELOBJECT
  2
ExAcXREFPanelObject
  3
EXAC_ESW
 90
     1025
 91
        0
280
     0
281
     0
  0
CLASS
  1
NPOCOLLECTION
  2
AcDbImpNonPersistentObjectsCollection
  3
ObjectDBX Classes
 90
     1153
 91
        0
280
     0
281
     0
  0
CLASS
  1
CELLSTYLEMAP
  2
AcDbCellStyleMap
  3
ObjectDBX Classes
 90
     1152
 91
       12
280
     0
281
     0
  0
ENDSEC
  0
SECTION
  2
TABLES
  0
TABLE
  2
VPORT
  5
19
330
0
100
AcDbSymbolTable
 70
     1
  0
VPORT
  5
864
330
19
100
AcDbSymbolTableRecord
100
AcDbViewportTableRecord
  2
*Active
 70
     0
 10
0.0
 20
0.0
 11
1.0
 21
1.0
 12
8.244999999999997
 22
5.219999999999999
 13
0.0
 23
0.0
 14
0.14
 24
0.14
 15
0.14
 25
0.14
 16
0.0
 26
0.0
 36
1.0
 17
0.0
 27
0.0
 37
0.0
 40
10.53157894736842
 41
2.281112737920937
 42
50.0
 43
0.0
 44
0.0
 50
0.0
 51
0.0
 71
     0
 72
  1000
 73
     1
 74
     1
 75
     0
 76
     0
 77
     0
 78
     0
281
     0
 65
     1
110
0.0
120
0.0
130
0.0
111
1.0
121
0.0
131
0.0
112
0.0
122
1.0
132
0.0
 79
     0
146
0.0
  0
ENDTAB
  0
TABLE
  2
LTYPE
  5
14
330
0
100
AcDbSymbolTable
 70
     1
  0
LTYPE
  5
15
330
14
100
AcDbSymbolTableRecord
100
AcDbLinetypeTableRecord
  2
BYBLOCK
 70
     0
  3

 72
    65
 73
     0
 40
0.0
  0
LTYPE
  5
16
330
14
100
AcDbSymbolTableRecord
100
AcDbLinetypeTableRecord
  2
BYLAYER
 70
     0
  3

 72
    65
 73
     0
 40
0.0
  0
LTYPE
  5
8
330
14
100
AcDbSymbolTableRecord
100
AcDbLinetypeTableRecord
  2
CONTINUOUS
 70
     0
  3
Solid line
 72
    65
 73
     0
 40
0.0
  0
ENDTAB
  0
TABLE
  2
LAYER
  5
10
102
{ACAD_XDICTIONARY
360
8BE
102
}
330
0
100
AcDbSymbolTable
 70
     3
  0
LAYER
  5
4
330
10
100
AcDbSymbolTableRecord
100
AcDbLayerTableRecord
  2
0
 70
     0
 62
     7
  6
CONTINUOUS
370
    -3
390
5
  0
LAYER
  5
22
330
10
100
AcDbSymbolTableRecord
100
AcDbLayerTableRecord
  2
image
 70
     0
 62
     7
  6
CONTINUOUS
370
    -3
390
5
  0
LAYER
  5
829
330
10
100
AcDbSymbolTableRecord
100
AcDbLayerTableRecord
  2
title
 70
     0
 62
     4
  6
CONTINUOUS
370
    -3
390
5
  0
ENDTAB
  0
TABLE
  2
STYLE
  5
11
330
0
100
AcDbSymbolTable
 70
     6
  0
STYLE
  5
12
330
11
100
AcDbSymbolTableRecord
100
AcDbTextStyleTableRecord
  2
STANDARD
 70
     0
 40
0.0
 41
1.0
 50
0.0
 71
     0
 42
0.2
  3
txt
  4

  0
STYLE
  5
23
330
11
100
AcDbSymbolTableRecord
100
AcDbTextStyleTableRecord
  2
ROMANS
 70
     0
 40
0.0
 41
1.0
 50
0.0
 71
     0
 42
0.125
  3
ROMANS.SHX
  4

  0
STYLE
  5
3B
330
11
100
AcDbSymbolTableRecord
100
AcDbTextStyleTableRecord
  2
arial
 70
     0
 40
0.0
 41
1.0
 50
0.0
 71
     0
 42
0.15
  3
ARIAL.TTF
  4

1001
ACAD
1000
Arial
1071
       34
  0
STYLE
  5
82A
330
11
100
AcDbSymbolTableRecord
100
AcDbTextStyleTableRecord
  2
L100
 70
     0
 40
0.1
 41
1.0
 50
0.0
 71
     0
 42
0.1
  3
romans.shx
  4

  0
STYLE
  5
82B
330
11
100
AcDbSymbolTableRecord
100
AcDbTextStyleTableRecord
  2
L200
 70
     0
 40
0.2
 41
1.0
 50
0.0
 71
     0
 42
0.081
  3
ARIAL.TTF
  4

1001
ACAD
1000
Arial
1071
       34
  0
STYLE
  5
82C
330
11
100
AcDbSymbolTableRecord
100
AcDbTextStyleTableRecord
  2
L80
 70
     0
 40
0.08
 41
1.0
 50
0.0
 71
     0
 42
0.08
  3
ROMANS
  4

  0
ENDTAB
  0
TABLE
  2
VIEW
  5
17
330
0
100
AcDbSymbolTable
 70
     0
  0
ENDTAB
  0
TABLE
  2
UCS
  5
18
330
0
100
AcDbSymbolTable
 70
     0
  0
ENDTAB
  0
TABLE
  2
APPID
  5
1B
330
0
100
AcDbSymbolTable
 70
    11
  0
APPID
  5
1C
330
1B
100
AcDbSymbolTableRecord
100
AcDbRegAppTableRecord
  2
ACAD
 70
     0
  0
APPID
  5
8F5
330
1B
100
AcDbSymbolTableRecord
100
AcDbRegAppTableRecord
  2
BBSI_PltSel
 70
     0
  0
APPID
  5
8F6
330
1B
100
AcDbSymbolTableRecord
100
AcDbRegAppTableRecord
  2
BBSI_Bookmarks
 70
     0
  0
APPID
  5
8F7
330
1B
100
AcDbSymbolTableRecord
100
AcDbRegAppTableRecord
  2
BBSI_BookmarksEx
 70
     0
  0
APPID
  5
8FB
330
1B
100
AcDbSymbolTableRecord
100
AcDbRegAppTableRecord
  2
ACAD_PSEXT
 70
     0
  0
APPID
  5
8FC
330
1B
100
AcDbSymbolTableRecord
100
AcDbRegAppTableRecord
  2
BBSI_Plots
 70
     0
  0
APPID
  5
91F
330
1B
100
AcDbSymbolTableRecord
100
AcDbRegAppTableRecord
  2
ACAD_MLEADERVER
 70
     0
  0
APPID
  5
928
330
1B
100
AcDbSymbolTableRecord
100
AcDbRegAppTableRecord
  2
ACAD_EXEMPT_FROM_CAD_STANDARDS
 70
     0
  0
APPID
  5
937
330
1B
100
AcDbSymbolTableRecord
100
AcDbRegAppTableRecord
  2
BBSI_StampsEx
 70
     0
  0
APPID
  5
938
330
1B
100
AcDbSymbolTableRecord
100
AcDbRegAppTableRecord
  2
BBSI_Attachs
 70
     0
  0
APPID
  5
939
330
1B
100
AcDbSymbolTableRecord
100
AcDbRegAppTableRecord
  2
BBSI_DigSigs
 70
     0
  0
ENDTAB
  0
TABLE
  2
DIMSTYLE
  5
1D
330
0
100
AcDbSymbolTable
 70
     1
100
AcDbDimStyleTable
 71
     0
  0
DIMSTYLE
105
25
330
1D
100
AcDbSymbolTableRecord
100
AcDbDimStyleTableRecord
  2
STANDARD
 70
     0
340
12
  0
ENDTAB
  0
TABLE
  2
BLOCK_RECORD
  5
1
330
0
100
AcDbSymbolTable
 70
     1
  0
BLOCK_RECORD
  5
2
102
{ACAD_XDICTIONARY
360
7FE
102
}
330
1
100
AcDbSymbolTableRecord
100
AcDbBlockTableRecord
  2
*MODEL_SPACE
340
A
  0
BLOCK_RECORD
  5
C
330
1
100
AcDbSymbolTableRecord
100
AcDbBlockTableRecord
  2
*PAPER_SPACE
340
F
  0
BLOCK_RECORD
  5
82F
102
{ACAD_XDICTIONARY
360
994
102
}
330
1
100
AcDbSymbolTableRecord
100
AcDbBlockTableRecord
  2
titleblock
340
0
102
{BLKREFS
331
83D
102
}
  0
ENDTAB
  0
ENDSEC
  0
SECTION
  2
BLOCKS
  0
BLOCK
  5
3
330
2
100
AcDbEntity
  8
0
100
AcDbBlockBegin
  2
*MODEL_SPACE
 70
     0
 10
0.0
 20
0.0
 30
0.0
  3
*MODEL_SPACE
  1

  0
ENDBLK
  5
9
330
2
100
AcDbEntity
  8
0
100
AcDbBlockEnd
  0
BLOCK
  5
D
330
C
100
AcDbEntity
 67
     1
  8
0
100
AcDbBlockBegin
  2
*PAPER_SPACE
 70
     0
 10
0.0
 20
0.0
 30
0.0
  3
*PAPER_SPACE
  1

  0
ENDBLK
  5
E
330
C
100
AcDbEntity
 67
     1
  8
0
100
AcDbBlockEnd
  0
BLOCK
  5
83B
330
82F
100
AcDbEntity
  8
0
100
AcDbBlockBegin
  2
titleblock
 70
     2
 10
0.0
 20
0.0
 30
0.0
  3
titleblock
  1

  0
LWPOLYLINE
  5
830
330
82F
100
AcDbEntity
  8
title
100
AcDbPolyline
 90
        4
 70
     1
 43
0.0
 10
0.0
 20
0.0
 10
16.48999999999999
 20
0.0000000000000001
 10
16.48999999999999
 20
10.44
 10
0.0
 20
10.44
  0
ATTDEF
  5
831
330
82F
100
AcDbEntity
  8
title
100
AcDbText
 10
0.5055556038023421
 20
0.7842270964783673
 30
0.0
 40
0.2
  1
D
  7
L200
 72
     4
 11
0.6064423705144839
 21
0.8842270964783672
 31
0.0
100
AcDbAttributeDefinition
  3
#
  2
D
 70
     0
  0
ATTDEF
  5
832
330
82F
100
AcDbEntity
  8
title
100
AcDbText
 10
1.231442370514484
 20
1.34371230274675
 30
0.0
 40
0.2
  1

  7
L200
100
AcDbAttributeDefinition
  3
DETAIL TITLE TOP LINE
  2
TITLE1
 70
     0
  0
ATTDEF
  5
833
330
82F
100
AcDbEntity
  8
title
100
AcDbText
 10
1.231442370514484
 20
0.9842270964783674
 30
0.0
 40
0.2
  1
TITLE
  7
L200
100
AcDbAttributeDefinition
  3
DETAIL TITLE TOP 2ND LINE
  2
TITLE2
 70
     0
  0
ATTDEF
  5
834
330
82F
100
AcDbEntity
  8
title
100
AcDbText
 10
2.713645751168312
 20
0.5927927664583189
 30
0.0
 40
0.2
  1
TITLE2
  7
L200
100
AcDbAttributeDefinition
  3
DETAIL TITLE BOTTOM 1
  2
TITLE3
 70
     0
  0
ATTDEF
  5
835
330
82F
100
AcDbEntity
  8
title
100
AcDbText
 10
2.713645751168312
 20
0.2692560808167741
 30
0.0
 40
0.2
  1

  7
L200
100
AcDbAttributeDefinition
  3
DETAIL TITLE BOTTOM 2
  2
TITLE4
 70
     0
  0
ATTDEF
  5
836
330
82F
100
AcDbEntity
  8
title
 62
     7
100
AcDbText
 10
8.177214829966379
 20
0.9696027915446398
 30
0.0
 40
0.08
  1
-
  7
L80
 72
     2
 11
8.261024353775903
 21
0.9696027915446398
 31
0.0
100
AcDbAttributeDefinition
  3
REVISION DATE
  2
REVISED
 70
     0
  0
ATTDEF
  5
837
330
82F
100
AcDbEntity
  8
title
 62
     7
100
AcDbText
 10
0.2639423705144838
 20
0.0847116480207214
 30
0.0
 40
0.08
  1
-
  7
L80
100
AcDbAttributeDefinition
  3
DWG-NAME
  2
DWG-NAME
 70
     0
  0
LWPOLYLINE
  5
838
330
82F
100
AcDbEntity
  8
title
 62
     3
100
AcDbPolyline
 90
        2
 70
     1
 43
0.03
 10
0.6064423705144839
 20
0.5417270964783675
 42
0.9999999999999998
 10
0.6064423705144839
 20
1.226727096478367
 42
0.9999999999999998
  0
ATTDEF
  5
839
330
82F
100
AcDbEntity
  8
title
 62
     7
100
AcDbText
 10
1.231442370514484
 20
0.7005637793954894
 30
0.0
 40
0.1
  1
N.T.S.
  7
L100
100
AcDbAttributeDefinition
  3
SCALE
  2
SCALE
 70
     0
  0
LWPOLYLINE
  5
83A
330
82F
100
AcDbEntity
  8
title
 62
     3
100
AcDbPolyline
 90
        2
 70
     0
 43
0.04
 39
0.03
 10
0.9489423705144833
 20
0.8842270964783672
 10
8.261024353775903
 20
0.8842270964783672
  0
ENDBLK
  5
83C
330
82F
100
AcDbEntity
  8
0
100
AcDbBlockEnd
  0
ENDSEC
  0
SECTION
  2
ENTITIES
  0
LWPOLYLINE
  5
41B
330
2
100
AcDbEntity
  8
image
100
AcDbPolyline
 90
        2
 70
     0
 43
0.0
 10
5.857437001688261
 20
4.140860046762558
 10
5.857437001688261
 20
4.042334224678056
  0
LWPOLYLINE
  5
41C
330
2
100
AcDbEntity
  8
image
100
AcDbPolyline
 90
        2
 70
     0
 43
0.0
 10
5.820422191511153
 20
4.140860046762552
 10
5.820422191511153
 20
4.042334224678056
  0
LWPOLYLINE
  5
41D
330
2
100
AcDbEntity
  8
image
 62
     5
100
AcDbPolyline
 90
        5
 70
     0
 43
0.037
 10
5.888901647315802
 20
4.045288756313945
 10
5.888901647315802
 20
4.154725727639002
 10
5.888901647315802
 20
4.278957593289247
 42
0.081374222779636
 10
5.825000973002434
 20
4.548126624412626
 42
-0.0300668381132792
 10
5.787933451464223
 20
4.733991496124737
 42
-1.093220757323432
  0
LWPOLYLINE
  5
41E
330
2
100
AcDbEntity
  8
image
100
AcDbPolyline
 90
        3
 70
     0
 43
0.0
 10
5.820422191511153
 20
4.140860046762552
 42
-0.0983242927606133
 10
5.842525987913721
 20
4.396396144176637
 42
0.0880393955965766
 10
5.994600759129515
 20
4.995416475098082
 42
1.190049425856698
  0
LWPOLYLINE
  5
41F
330
2
100
AcDbEntity
  8
image
100
AcDbPolyline
 90
        3
 70
     0
 43
0.0
 10
5.857437001688261
 20
4.140860046762558
 42
-0.0978733617649846
 10
5.877296359632233
 20
4.383375391957017
 42
0.0872125590264546
 10
6.031062254107024
 20
4.989040304111327
 42
0.0657011673153704
  0
LWPOLYLINE
  5
420
330
2
100
AcDbEntity
  8
image
100
AcDbPolyline
 90
        4
 70
     1
 43
0.0
 10
6.3113344071832
 20
4.043026094262671
 10
6.3113344071832
 20
2.36802609426267
 10
5.4263344071832
 20
2.36802609426267
 10
5.4263344071832
 20
4.043026094262671
  0
LWPOLYLINE
  5
421
330
2
100
AcDbEntity
  8
image
100
AcDbPolyline
 90
        3
 70
     0
 43
0.0
 10
5.879567694730281
 20
4.140860046762552
 42
-0.0983242927606133
 10
5.901671491132849
 20
4.396396144176637
 42
0.0880393955965766
 10
6.053746262348643
 20
4.995416475098082
 42
1.190049425856698
  0
LWPOLYLINE
  5
422
330
2
100
AcDbEntity
  8
image
100
AcDbPolyline
 90
        3
 70
     0
 43
0.0
 10
5.916582504907389
 20
4.140860046762558
 42
-0.0978733617649846
 10
5.936441862851361
 20
4.383375391957017
 42
0.0872125590264546
 10
6.090207757326152
 20
4.989040304111327
 42
0.0657011673153704
  0
LWPOLYLINE
  5
423
330
2
100
AcDbEntity
  8
image
100
AcDbPolyline
 90
        2
 70
     0
 43
0.0
 10
5.879567694730281
 20
4.140860046762552
 10
5.879567694730281
 20
4.042334224678056
  0
LWPOLYLINE
  5
424
330
2
100
AcDbEntity
  8
image
100
AcDbPolyline
 90
        2
 70
     0
 43
0.0
 10
5.916582504907389
 20
4.140860046762558
 10
5.916582504907389
 20
4.042334224678056
  0
LWPOLYLINE
  5
425
330
2
100
AcDbEntity
  8
image
100
AcDbPolyline
 90
        2
 70
     0
 43
0.0
 10
6.3113344071832
 20
4.022146999887237
 10
5.4263344071832
 20
4.022146999887237
  0
LWPOLYLINE
  5
426
330
2
100
AcDbEntity
  8
image
 62
     5
100
AcDbPolyline
 90
        5
 70
     0
 43
0.037
 10
5.838748246605658
 20
4.045288756313945
 10
5.838748246605658
 20
4.154725727639002
 10
5.838748246605658
 20
4.278957593289247
 42
0.081374222779636
 10
5.77484757229229
 20
4.548126624412626
 42
-0.0655100906327898
 10
5.737780050754079
 20
4.733991496124737
 42
-1.093220757323432
  0
LINE
  5
427
330
2
100
AcDbEntity
  8
image
100
AcDbLine
 10
9.710415381076442
 20
6.224026350746584
 30
0.0
 11
10.04921121356357
 21
6.224026350746584
 31
0.0
  0
LINE
  5
428
330
2
100
AcDbEntity
  8
image
100
AcDbLine
 10
9.497661075081031
 20
5.830975801028998
 30
0.0
 11
10.08996148152705
 21
5.830975801028998
 31
0.0
  0
LINE
  5
429
330
2
100
AcDbEntity
  8
image
100
AcDbLine
 10
9.497661075081031
 20
5.973127898576045
 30
0.0
 11
10.08996148152705
 21
5.973127898576045
 31
0.0
  0
LINE
  5
42A
330
2
100
AcDbEntity
  8
image
100
AcDbLine
 10
9.759842978025956
 20
5.735977466834242
 30
0.0
 11
10.73905297862425
 21
5.735977466834242
 31
0.0
  0
LINE
  5
42B
330
2
100
AcDbEntity
  8
image
100
AcDbLine
 10
9.497661075081031
 20
5.973127898576045
 30
0.0
 11
9.497661075081031
 21
5.830975801028998
 31
0.0
  0
LINE
  5
42C
330
2
100
AcDbEntity
  8
image
100
AcDbLine
 10
9.545045107596711
 20
5.973127898576045
 30
0.0
 11
9.545045107596711
 21
5.830975801028998
 31
0.0
  0
LINE
  5
42D
330
2
100
AcDbEntity
  8
image
100
AcDbLine
 10
9.622281080597273
 20
5.679820737303977
 30
0.0
 11
9.622281080597273
 21
5.973127898576045
 31
0.0
  0
LINE
  5
42E
330
2
100
AcDbEntity
  8
image
100
AcDbLine
 10
9.669665113112957
 20
5.679820737303977
 30
0.0
 11
9.669665113112957
 21
5.973127898576045
 31
0.0
  0
LINE
  5
42F
330
2
100
AcDbEntity
  8
image
100
AcDbLine
 10
9.702229061057392
 20
5.575052604042909
 30
0.0
 11
9.702229061057392
 21
5.830975801028998
 31
0.0
  0
LINE
  5
430
330
2
100
AcDbEntity
  8
image
100
AcDbLine
 10
9.759842978025956
 20
5.735977466834242
 30
0.0
 11
9.759842978025956
 21
5.606647844113723
 31
0.0
  0
LINE
  5
431
330
2
100
AcDbEntity
  8
image
100
AcDbLine
 10
9.779122228224183
 20
6.224026350746584
 30
0.0
 11
9.779122228224183
 21
5.973127898576045
 31
0.0
  0
LINE
  5
432
330
2
100
AcDbEntity
  8
image
100
AcDbLine
 10
9.710415381076442
 20
5.973127898576045
 30
0.0
 11
9.710415381076442
 21
6.224026350746584
 31
0.0
  0
LINE
  5
433
330
2
100
AcDbEntity
  8
image
100
AcDbLine
 10
9.72581519164404
 20
6.224026350746584
 30
0.0
 11
9.72581519164404
 21
5.973127898576045
 31
0.0
  0
LINE
  5
434
330
2
100
AcDbEntity
  8
image
100
AcDbLine
 10
9.886705799630993
 20
5.973127898576045
 30
0.0
 11
9.886705799630993
 21
5.830975801028998
 31
0.0
  0
LINE
  5
435
330
2
100
AcDbEntity
  8
image
100
AcDbLine
 10
9.87292079500902
 20
5.973127898576045
 30
0.0
 11
9.87292079500902
 21
5.830975801028998
 31
0.0
  0
ARC
  5
436
330
2
100
AcDbEntity
  8
image
100
AcDbCircle
 10
9.935361751718103
 20
5.615885674308039
 30
0.0
 40
0.1521972825592481
100
AcDbArc
 50
79.50852298766861
 51
123.1113419603719
  0
LINE
  5
437
330
2
100
AcDbEntity
  8
image
100
AcDbLine
 10
9.852221279969183
 20
5.74336773098971
 30
0.0
 11
9.852221279969183
 21
5.735977466834242
 31
0.0
  0
LINE
  5
438
330
2
100
AcDbEntity
  8
image
100
AcDbLine
 10
10.07392920463295
 20
5.735977466834242
 30
0.0
 11
9.852221279969183
 21
5.735977466834242
 31
0.0
  0
LINE
  5
439
330
2
100
AcDbEntity
  8
image
100
AcDbLine
 10
9.907648261135134
 20
5.802489844233384
 30
0.0
 11
9.907648261135134
 21
5.765538523456093
 31
0.0
  0
LINE
  5
43A
330
2
100
AcDbEntity
  8
image
100
AcDbLine
 10
10.01850222346701
 20
5.802489844233384
 30
0.0
 11
9.907648261135134
 21
5.802489844233384
 31
0.0
  0
LINE
  5
43B
330
2
100
AcDbEntity
  8
image
100
AcDbLine
 10
9.850198276997707
 20
6.224026350746584
 30
0.0
 11
9.850198276997707
 21
5.973127898576045
 31
0.0
  0
LINE
  5
43C
330
2
100
AcDbEntity
  8
image
100
AcDbLine
 10
9.909428317642307
 20
6.224026350746584
 30
0.0
 11
9.909428317642307
 21
5.973127898576045
 31
0.0
  0
ARC
  5
43D
330
2
100
AcDbEntity
  8
image
100
AcDbCircle
 10
9.924608247579
 20
5.920994334740235
 30
0.0
 40
0.9498126021764614
100
AcDbArc
 50
262.3355331415187
 51
277.664466858481
  0
LINE
  5
43E
330
2
100
AcDbEntity
  8
image
100
AcDbLine
 10
9.797930238859398
 20
5.181707655174839
 30
0.0
 11
9.8779302388594
 21
5.181707655174839
 31
0.0
  0
LINE
  5
43F
330
2
100
AcDbEntity
  8
image
100
AcDbLine
 10
9.778318638414601
 20
5.514269542170488
 30
0.0
 11
10.73905297862425
 21
5.514269542170488
 31
0.0
  0
ARC
  5
440
330
2
100
AcDbEntity
  8
image
100
AcDbCircle
 10
9.778318638414601
 20
5.551220862947786
 30
0.0
 40
0.0369513207772945
100
AcDbArc
 50
180.0
 51
270.0
  0
LWPOLYLINE
  5
441
330
2
100
AcDbEntity
  8
image
100
AcDbPolyline
 90
        4
 70
     0
 43
0.0
 10
9.797930238859398
 20
5.514269542170488
 10
9.797930238859398
 20
4.946972680932965
 42
-0.4142135623730951
 10
9.788786495971121
 20
4.937828938044688
 10
9.648706320634419
 20
4.937828938044688
  0
LINE
  5
442
330
2
100
AcDbEntity
  8
image
100
AcDbLine
 10
9.611754999857128
 20
4.974780258821994
 30
0.0
 11
9.611754999857128
 21
5.388635051527693
 31
0.0
  0
LINE
  5
443
330
2
100
AcDbEntity
  8
image
100
AcDbLine
 10
9.611754999857128
 20
4.987566996924854
 30
0.0
 11
9.518263138198124
 21
4.987566996924854
 31
0.0
  0
ARC
  5
444
330
2
100
AcDbEntity
  8
image
100
AcDbCircle
 10
9.648706320634419
 20
4.974780258821994
 30
0.0
 40
0.0369513207772945
100
AcDbArc
 50
180.0
 51
270.0
  0
LINE
  5
445
330
2
100
AcDbEntity
  8
image
100
AcDbLine
 10
9.611754999857128
 20
5.375848313424839
 30
0.0
 11
9.518263138198124
 21
5.375848313424839
 31
0.0
  0
ARC
  5
446
330
2
100
AcDbEntity
  8
image
100
AcDbCircle
 10
9.648706320634419
 20
5.388635051527693
 30
0.0
 40
0.0369513207772945
100
AcDbArc
 50
89.99999999999969
 51
180.0
  0
LINE
  5
447
330
2
100
AcDbEntity
  8
image
100
AcDbLine
 10
9.648706320634419
 20
5.425586372304984
 30
0.0
 11
9.797930238859398
 21
5.425586372304984
 31
0.0
  0
LINE
  5
448
330
2
100
AcDbEntity
  8
image
100
AcDbLine
 10
9.622281080597273
 20
5.679820737303977
 30
0.0
 11
9.669665113112957
 21
5.679820737303977
 31
0.0
  0
LINE
  5
449
330
2
100
AcDbEntity
  8
image
100
AcDbLine
 10
9.74136731763731
 20
5.573537276116546
 30
0.0
 11
9.74136731763731
 21
5.551220862947786
 31
0.0
  0
ARC
  5
44A
330
2
100
AcDbEntity
  8
image
100
AcDbCircle
 10
9.722891657248664
 20
5.573537276116567
 30
0.0
 40
0.0184756603886473
100
AcDbArc
 50
359.9999999999998
 51
66.30571927358838
  0
LINE
  5
44B
330
2
100
AcDbEntity
  8
image
100
AcDbLine
 10
9.702229061057392
 20
5.575052604042909
 30
0.0
 11
9.759842978025956
 21
5.606647844113723
 31
0.0
  0
LINE
  5
44C
330
2
100
AcDbEntity
  8
image
100
AcDbLine
 10
10.82049774967293
 20
5.425586372304984
 30
0.0
 11
10.75127383144796
 21
5.425586372304984
 31
0.0
  0
LINE
  5
44D
330
2
100
AcDbEntity
  8
image
100
AcDbLine
 10
10.68041757433623
 20
4.937828938044688
 30
0.0
 11
10.82049774967293
 21
4.937828938044688
 31
0.0
  0
ARC
  5
44E
330
2
100
AcDbEntity
  8
image
100
AcDbCircle
 10
10.73905297862425
 20
5.551220862947786
 30
0.0
 40
0.0369513207772945
100
AcDbArc
 50
270.0
 51
0.0
  0
LINE
  5
44F
330
2
100
AcDbEntity
  8
image
100
AcDbLine
 10
10.14952642792331
 20
4.92551988967466
 30
0.0
 11
10.36693574854229
 21
4.92551988967466
 31
0.0
  0
ARC
  5
450
330
2
100
AcDbEntity
  8
image
100
AcDbCircle
 10
10.2582310882328
 20
4.925212625834333
 30
0.0
 40
0.1215812912057411
100
AcDbArc
 50
23.16768142207863
 51
66.64339045708148
  0
ARC
  5
451
330
2
100
AcDbEntity
  8
image
100
AcDbCircle
 10
9.725588677678613
 20
7.031390180344175
 30
0.0
 40
2.077413260277443
100
AcDbArc
 50
279.0200653521828
 51
297.0792479580131
  0
LINE
  5
452
330
2
100
AcDbEntity
  8
image
100
AcDbLine
 10
10.0512862562986
 20
4.979667260148168
 30
0.0
 11
10.13345433414151
 21
4.979667260148168
 31
0.0
  0
ARC
  5
453
330
2
100
AcDbEntity
  8
image
100
AcDbCircle
 10
10.13345433414151
 20
4.963595166366367
 30
0.0
 40
0.0160720937818013
100
AcDbArc
 50
0.0
 51
90.0
  0
ARC
  5
454
330
2
100
AcDbEntity
  8
image
100
AcDbCircle
 10
10.2582310882328
 20
4.925212625834333
 30
0.0
 40
0.1215812912057411
100
AcDbArc
 50
141.7411440853695
 51
156.8323185779213
  0
LINE
  5
455
330
2
100
AcDbEntity
  8
image
100
AcDbLine
 10
10.14952642792331
 20
4.963595166366367
 30
0.0
 11
10.14952642792331
 21
4.92551988967466
 31
0.0
  0
LWPOLYLINE
  5
456
330
2
100
AcDbEntity
  8
image
100
AcDbPolyline
 90
        2
 70
     0
 43
0.0
 10
9.8779302388594
 20
5.514269542170488
 10
9.8779302388594
 20
5.181707655174839
  0
LINE
  5
457
330
2
100
AcDbEntity
  8
image
100
AcDbLine
 10
10.22167866389559
 20
5.181707655174839
 30
0.0
 11
10.3016786638956
 21
5.181707655174839
 31
0.0
  0
LWPOLYLINE
  5
458
330
2
100
AcDbEntity
  8
image
100
AcDbPolyline
 90
        2
 70
     0
 43
0.0
 10
10.22167866389559
 20
5.514269542170488
 10
10.22167866389559
 20
5.181707655174839
  0
LWPOLYLINE
  5
459
330
2
100
AcDbEntity
  8
image
100
AcDbPolyline
 90
        2
 70
     0
 43
0.0
 10
10.3016786638956
 20
5.514269542170488
 10
10.3016786638956
 20
5.181707655174839
  0
LINE
  5
45A
330
2
100
AcDbEntity
  8
image
100
AcDbLine
 10
10.67127383144796
 20
5.281133546267369
 30
0.0
 11
10.67127383144796
 21
4.946972680932965
 31
0.0
  0
LINE
  5
45B
330
2
100
AcDbEntity
  8
image
100
AcDbLine
 10
10.38300784232409
 20
4.979667260148168
 30
0.0
 11
10.67127383144796
 21
4.979667260148168
 31
0.0
  0
ARC
  5
45C
330
2
100
AcDbEntity
  8
image
100
AcDbCircle
 10
10.38300784232409
 20
4.963595166366367
 30
0.0
 40
0.0160720937818013
100
AcDbArc
 50
89.99999999999991
 51
180.0
  0
LINE
  5
45D
330
2
100
AcDbEntity
  8
image
100
AcDbLine
 10
10.36693574854229
 20
4.963595166366367
 30
0.0
 11
10.36693574854229
 21
4.92551988967466
 31
0.0
  0
ARC
  5
45E
330
2
100
AcDbEntity
  8
image
100
AcDbCircle
 10
10.68041757433623
 20
4.946972680932965
 30
0.0
 40
0.009143742888277
100
AcDbArc
 50
180.0000000000002
 51
270.0
  0
LINE
  5
45F
330
2
100
AcDbEntity
  8
image
100
AcDbLine
 10
10.67127383144795
 20
5.181707655174839
 30
0.0
 11
10.75127383144796
 21
5.181707655174839
 31
0.0
  0
LWPOLYLINE
  5
460
330
2
100
AcDbEntity
  8
image
100
AcDbPolyline
 90
        2
 70
     0
 43
0.0
 10
10.67127383144796
 20
5.514269542170488
 10
10.67127383144796
 20
5.281133546267369
  0
LWPOLYLINE
  5
461
330
2
100
AcDbEntity
  8
image
100
AcDbPolyline
 90
        2
 70
     0
 43
0.0
 10
10.75127383144796
 20
5.516367616628883
 10
10.75127383144796
 20
5.181707655174839
  0
LINE
  5
462
330
2
100
AcDbEntity
  8
image
100
AcDbLine
 10
10.79312261371936
 20
5.425586372304984
 30
0.0
 11
10.75127383144796
 21
5.425586372304984
 31
0.0
  0
LINE
  5
463
330
2
100
AcDbEntity
  8
image
100
AcDbLine
 10
10.26792363871376
 20
5.809880108388846
 30
0.0
 11
10.38801543123996
 21
5.809880108388846
 31
0.0
  0
LINE
  5
464
330
2
100
AcDbEntity
  8
image
100
AcDbLine
 10
10.26792363871376
 20
5.872697353710243
 30
0.0
 11
10.33258845007402
 21
5.872697353710243
 31
0.0
  0
LINE
  5
465
330
2
100
AcDbEntity
  8
image
100
AcDbLine
 10
10.08996148152705
 20
5.973127898576045
 30
0.0
 11
10.08996148152705
 21
5.830975801028998
 31
0.0
  0
LINE
  5
466
330
2
100
AcDbEntity
  8
image
100
AcDbLine
 10
10.18478316696485
 20
6.16091765577314
 30
0.0
 11
10.18478316696485
 21
5.872697353710243
 31
0.0
  0
LINE
  5
467
330
2
100
AcDbEntity
  8
image
100
AcDbLine
 10
10.2494479783251
 20
5.735977466834242
 30
0.0
 11
10.2494479783251
 21
5.948340074858059
 31
0.0
  0
LINE
  5
468
330
2
100
AcDbEntity
  8
image
100
AcDbLine
 10
10.26792363871376
 20
5.735977466834242
 30
0.0
 11
10.26792363871376
 21
5.948340074858059
 31
0.0
  0
LINE
  5
469
330
2
100
AcDbEntity
  8
image
100
AcDbLine
 10
10.18478316696485
 20
5.948340074858059
 30
0.0
 11
10.11987978268209
 21
5.855648435963836
 31
0.0
  0
LINE
  5
46A
330
2
100
AcDbEntity
  8
image
100
AcDbLine
 10
10.15891724242073
 20
5.809880108388846
 30
0.0
 11
10.05876690933607
 21
5.75205828662299
 31
0.0
  0
ARC
  5
46B
330
2
100
AcDbEntity
  8
image
100
AcDbCircle
 10
9.990788732884039
 20
5.615885674308039
 30
0.0
 40
0.1521972825592481
100
AcDbArc
 50
56.88865803962805
 51
100.4914770123314
  0
LINE
  5
46C
330
2
100
AcDbEntity
  8
image
100
AcDbLine
 10
9.963075242301078
 20
5.802489844233384
 30
0.0
 11
9.963075242301078
 21
5.765538523456093
 31
0.0
  0
LINE
  5
46D
330
2
100
AcDbEntity
  8
image
100
AcDbLine
 10
10.07392920463295
 20
5.74336773098971
 30
0.0
 11
10.07392920463295
 21
5.735977466834242
 31
0.0
  0
LINE
  5
46E
330
2
100
AcDbEntity
  8
image
100
AcDbLine
 10
10.01850222346701
 20
5.802489844233384
 30
0.0
 11
10.01850222346701
 21
5.765538523456093
 31
0.0
  0
LINE
  5
46F
330
2
100
AcDbEntity
  8
image
100
AcDbLine
 10
10.05250230872742
 20
5.830975801028998
 30
0.0
 11
10.05250230872742
 21
5.755009530547894
 31
0.0
  0
LINE
  5
470
330
2
100
AcDbEntity
  8
image
100
AcDbLine
 10
10.18478316696485
 20
5.872697353710243
 30
0.0
 11
10.2494479783251
 21
5.872697353710243
 31
0.0
  0
LINE
  5
471
330
2
100
AcDbEntity
  8
image
100
AcDbLine
 10
10.1293561857989
 20
5.809880108388846
 30
0.0
 11
10.2494479783251
 21
5.809880108388846
 31
0.0
  0
LINE
  5
472
330
2
100
AcDbEntity
  8
image
100
AcDbLine
 10
10.18478316696485
 20
5.872697353710243
 30
0.0
 11
10.1293561857989
 21
5.809880108388846
 31
0.0
  0
LINE
  5
473
330
2
100
AcDbEntity
  8
image
100
AcDbLine
 10
10.16630750657619
 20
5.809880108388846
 30
0.0
 11
10.15706967638187
 21
5.735977466834242
 31
0.0
  0
LINE
  5
474
330
2
100
AcDbEntity
  8
image
100
AcDbLine
 10
10.1293561857989
 20
5.809880108388846
 30
0.0
 11
10.12600571203827
 21
5.790878627463087
 31
0.0
  0
LWPOLYLINE
  5
475
330
2
100
AcDbEntity
  8
image
100
AcDbPolyline
 90
        5
 70
     0
 43
0.0
 10
10.11987978268209
 20
5.855648435963836
 10
10.1187904074174
 20
5.850414592179966
 10
10.12395960060906
 20
5.826185220937169
 10
10.12137500401323
 20
5.802561583975432
 10
10.1246927674297
 20
5.7901205985399
  0
LINE
  5
476
330
2
100
AcDbEntity
  8
image
100
AcDbLine
 10
10.04921121356357
 20
5.973127898576045
 30
0.0
 11
10.04921121356357
 21
6.224026350746584
 31
0.0
  0
LINE
  5
477
330
2
100
AcDbEntity
  8
image
100
AcDbLine
 10
9.98050436641583
 20
6.224026350746584
 30
0.0
 11
9.98050436641583
 21
5.973127898576045
 31
0.0
  0
LINE
  5
478
330
2
100
AcDbEntity
  8
image
100
AcDbLine
 10
10.03381140299597
 20
6.224026350746584
 30
0.0
 11
10.03381140299597
 21
5.973127898576045
 31
0.0
  0
LINE
  5
479
330
2
100
AcDbEntity
  8
image
100
AcDbLine
 10
10.2494479783251
 20
5.948340074858059
 30
0.0
 11
10.26792363871376
 21
5.948340074858059
 31
0.0
  0
LINE
  5
47A
330
2
100
AcDbEntity
  8
image
100
AcDbLine
 10
10.33258845007402
 20
6.16091765577314
 30
0.0
 11
10.33258845007402
 21
5.872697353710243
 31
0.0
  0
LINE
  5
47B
330
2
100
AcDbEntity
  8
image
100
AcDbLine
 10
10.33258845007402
 20
5.948340074858059
 30
0.0
 11
10.53771694971474
 21
5.802489844233384
 31
0.0
  0
LINE
  5
47C
330
2
100
AcDbEntity
  8
image
100
AcDbLine
 10
10.49886939357184
 20
5.802489844233384
 30
0.0
 11
10.60972335590373
 21
5.802489844233384
 31
0.0
  0
LINE
  5
47D
330
2
100
AcDbEntity
  8
image
100
AcDbLine
 10
10.4434424124059
 20
5.735977466834242
 30
0.0
 11
10.66515033706966
 21
5.735977466834242
 31
0.0
  0
ARC
  5
47E
330
2
100
AcDbEntity
  8
image
100
AcDbCircle
 10
10.58200986532075
 20
5.615885674308039
 30
0.0
 40
0.1521972825592481
100
AcDbArc
 50
56.88865803962805
 51
100.4914770123314
  0
LINE
  5
47F
330
2
100
AcDbEntity
  8
image
100
AcDbLine
 10
10.33258845007402
 20
5.872697353710243
 30
0.0
 11
10.38801543123996
 21
5.809880108388846
 31
0.0
  0
LINE
  5
480
330
2
100
AcDbEntity
  8
image
100
AcDbLine
 10
10.35106411046266
 20
5.809880108388846
 30
0.0
 11
10.36030194065699
 21
5.735977466834242
 31
0.0
  0
LINE
  5
481
330
2
100
AcDbEntity
  8
image
100
AcDbLine
 10
10.49886939357184
 20
5.802489844233384
 30
0.0
 11
10.49886939357184
 21
5.765538523456093
 31
0.0
  0
LINE
  5
482
330
2
100
AcDbEntity
  8
image
100
AcDbLine
 10
10.4434424124059
 20
5.74336773098971
 30
0.0
 11
10.4434424124059
 21
5.735977466834242
 31
0.0
  0
LINE
  5
483
330
2
100
AcDbEntity
  8
image
100
AcDbLine
 10
10.55429637473778
 20
5.802489844233384
 30
0.0
 11
10.55429637473778
 21
5.765538523456093
 31
0.0
  0
ARC
  5
484
330
2
100
AcDbEntity
  8
image
100
AcDbCircle
 10
10.52658288415481
 20
5.615885674308039
 30
0.0
 40
0.1521972825592481
100
AcDbArc
 50
79.50852298766861
 51
123.1113419603719
  0
LINE
  5
485
330
2
100
AcDbEntity
  8
image
100
AcDbLine
 10
10.35845437461813
 20
5.809880108388846
 30
0.0
 11
10.45860470770279
 21
5.75205828662299
 31
0.0
  0
LINE
  5
486
330
2
100
AcDbEntity
  8
image
100
AcDbLine
 10
10.38801543123996
 20
5.809880108388846
 30
0.0
 11
10.39136590500059
 21
5.790878627463087
 31
0.0
  0
LINE
  5
487
330
2
100
AcDbEntity
  8
image
100
AcDbLine
 10
10.77600429940155
 20
5.699026146056965
 30
0.0
 11
10.77600429940155
 21
5.551220862947786
 31
0.0
  0
ARC
  5
488
330
2
100
AcDbEntity
  8
image
100
AcDbCircle
 10
10.73905297862425
 20
5.699026146056965
 30
0.0
 40
0.0369513207772945
100
AcDbArc
 50
0.0
 51
90.0
  0
LINE
  5
489
330
2
100
AcDbEntity
  8
image
100
AcDbLine
 10
10.60972335590373
 20
5.802489844233384
 30
0.0
 11
10.60972335590373
 21
5.765538523456093
 31
0.0
  0
LINE
  5
48A
330
2
100
AcDbEntity
  8
image
100
AcDbLine
 10
10.66515033706966
 20
5.74336773098971
 30
0.0
 11
10.66515033706966
 21
5.735977466834242
 31
0.0
  0
LINE
  5
48B
330
2
100
AcDbEntity
  8
image
100
AcDbLine
 10
10.85744907045023
 20
5.388635051527693
 30
0.0
 11
10.85744907045023
 21
4.974780258821994
 31
0.0
  0
LINE
  5
48C
330
2
100
AcDbEntity
  8
image
100
AcDbLine
 10
10.85744907045023
 20
4.974780258821994
 30
0.0
 11
10.85744907045023
 21
5.388635051527693
 31
0.0
  0
LINE
  5
48D
330
2
100
AcDbEntity
  8
image
100
AcDbLine
 10
10.88467785818612
 20
5.34215471806889
 30
0.0
 11
10.88467785818612
 21
5.02350170532528
 31
0.0
  0
LINE
  5
48E
330
2
100
AcDbEntity
  8
image
100
AcDbLine
 10
11.23802521635132
 20
4.987566996924847
 30
0.0
 11
10.85744907045023
 21
4.987566996924847
 31
0.0
  0
ARC
  5
48F
330
2
100
AcDbEntity
  8
image
100
AcDbCircle
 10
10.82049774967293
 20
4.974780258821994
 30
0.0
 40
0.0369513207772945
100
AcDbArc
 50
270.0
 51
0.0
  0
LINE
  5
490
330
2
100
AcDbEntity
  8
image
100
AcDbLine
 10
11.23802521635132
 20
5.375848313424839
 30
0.0
 11
10.85744907045023
 21
5.375848313424839
 31
0.0
  0
ARC
  5
491
330
2
100
AcDbEntity
  8
image
100
AcDbCircle
 10
10.82049774967293
 20
5.388635051527693
 30
0.0
 40
0.0369513207772945
100
AcDbArc
 50
0.0
 51
90.00000000000019
  0
LINE
  5
492
330
2
100
AcDbEntity
  8
image
100
AcDbLine
 10
10.38487495949104
 20
6.16091765577314
 30
0.0
 11
10.38487495949104
 21
6.385088077975289
 31
0.0
  0
LINE
  5
493
330
2
100
AcDbEntity
  8
image
100
AcDbLine
 10
10.13249665754781
 20
6.16091765577314
 30
0.0
 11
10.13249665754781
 21
6.385088077975289
 31
0.0
  0
LINE
  5
494
330
2
100
AcDbEntity
  8
image
100
AcDbLine
 10
10.13249665754781
 20
6.16091765577314
 30
0.0
 11
10.38487495949104
 21
6.16091765577314
 31
0.0
  0
LINE
  5
495
330
2
100
AcDbEntity
  8
image
100
AcDbLine
 10
10.29868580851943
 20
6.385088077975296
 30
0.0
 11
10.50810722376617
 21
6.385088077975289
 31
0.0
  0
LINE
  5
496
330
2
100
AcDbEntity
  8
image
100
AcDbLine
 10
10.29868580851943
 20
6.523655530890152
 30
0.0
 11
10.50810722376617
 21
6.523655530890145
 31
0.0
  0
LINE
  5
497
330
2
100
AcDbEntity
  8
image
100
AcDbLine
 10
10.18410458280245
 20
6.597558172444735
 30
0.0
 11
10.33235759366315
 21
6.597558172444735
 31
0.0
  0
LINE
  5
498
330
2
100
AcDbEntity
  8
image
100
AcDbLine
 10
10.18410458280245
 20
6.523655530890145
 30
0.0
 11
10.18410458280245
 21
6.597558172444735
 31
0.0
  0
LINE
  5
499
330
2
100
AcDbEntity
  8
image
100
AcDbLine
 10
10.00926439327269
 20
6.385088077975289
 30
0.0
 11
10.21868580851943
 21
6.385088077975296
 31
0.0
  0
LINE
  5
49A
330
2
100
AcDbEntity
  8
image
100
AcDbLine
 10
10.00926439327269
 20
6.523655530890145
 30
0.0
 11
10.21868580851943
 21
6.523655530890152
 31
0.0
  0
LWPOLYLINE
  5
49B
330
2
100
AcDbEntity
  8
image
100
AcDbPolyline
 90
        2
 70
     0
 43
0.0
 10
10.00926439327269
 20
6.523655530890145
 10
10.00926439327269
 20
6.385088077975289
  0
LINE
  5
49C
330
2
100
AcDbEntity
  8
image
100
AcDbLine
 10
10.21868580851943
 20
6.425376013796949
 30
0.0
 11
10.29868580851943
 21
6.425376013796956
 31
0.0
  0
LINE
  5
49D
330
2
100
AcDbEntity
  8
image
100
AcDbLine
 10
10.21868580851943
 20
6.483367595068486
 30
0.0
 11
10.29868580851943
 21
6.483367595068486
 31
0.0
  0
LWPOLYLINE
  5
49E
330
2
100
AcDbEntity
  8
image
100
AcDbPolyline
 90
        2
 70
     0
 43
0.0
 10
10.29868580851943
 20
6.523655530890145
 10
10.29868580851943
 20
6.385088077975289
  0
LWPOLYLINE
  5
49F
330
2
100
AcDbEntity
  8
image
100
AcDbPolyline
 90
        2
 70
     0
 43
0.0
 10
10.21868580851943
 20
6.523655530890145
 10
10.21868580851943
 20
6.385088077975289
  0
LINE
  5
4A0
330
2
100
AcDbEntity
  8
image
100
AcDbLine
 10
10.33235759366315
 20
6.523655530890145
 30
0.0
 11
10.33235759366315
 21
6.597558172444735
 31
0.0
  0
LWPOLYLINE
  5
4A1
330
2
100
AcDbEntity
  8
image
100
AcDbPolyline
 90
        2
 70
     0
 43
0.0
 10
10.50810722376617
 20
6.523655530890145
 10
10.50810722376617
 20
6.385088077975289
  0
LINE
  5
4A3
330
2
100
AcDbEntity
  8
image
100
AcDbLine
 10
7.079984270584967
 20
6.661499522287858
 30
0.0
 11
7.542034220342285
 21
6.661499522287858
 31
0.0
  0
LINE
  5
4A4
330
2
100
AcDbEntity
  8
image
100
AcDbLine
 10
7.079984270584967
 20
6.675839003487222
 30
0.0
 11
7.542034220342285
 21
6.675839003487222
 31
0.0
  0
LINE
  5
4A5
330
2
100
AcDbEntity
  8
image
100
AcDbLine
 10
7.079984270584967
 20
6.647160041088493
 30
0.0
 11
7.13128774776492
 21
6.647160041088493
 31
0.0
  0
LINE
  5
4A6
330
2
100
AcDbEntity
  8
image
100
AcDbLine
 10
7.079984270584967
 20
6.647160041088493
 30
0.0
 11
7.079984270584967
 21
6.675839003487222
 31
0.0
  0
LINE
  5
4A7
330
2
100
AcDbEntity
  8
image
100
AcDbLine
 10
7.134155644004787
 20
6.72363727415178
 30
0.0
 11
7.134155644004787
 21
6.675839003487222
 31
0.0
  0
LINE
  5
4A8
330
2
100
AcDbEntity
  8
image
100
AcDbLine
 10
7.226565633956253
 20
6.72363727415178
 30
0.0
 11
7.226565633956253
 21
6.675839003487222
 31
0.0
  0
LINE
  5
4A9
330
2
100
AcDbEntity
  8
image
100
AcDbLine
 10
7.239311839466799
 20
6.72363727415178
 30
0.0
 11
7.239311839466799
 21
6.675839003487222
 31
0.0
  0
LINE
  5
4AA
330
2
100
AcDbEntity
  8
image
100
AcDbLine
 10
7.134155644004787
 20
6.72363727415178
 30
0.0
 11
7.239311839466799
 21
6.72363727415178
 31
0.0
  0
LINE
  5
4AB
330
2
100
AcDbEntity
  8
image
100
AcDbLine
 10
7.217483962529987
 20
6.567496256647583
 30
0.0
 11
7.13128774776492
 21
6.647160041088493
 31
0.0
  0
LINE
  5
4AC
330
2
100
AcDbEntity
  8
image
100
AcDbLine
 10
7.13128774776492
 20
6.647160041088493
 30
0.0
 11
7.13128774776492
 21
6.661499522287858
 31
0.0
  0
LINE
  5
4AD
330
2
100
AcDbEntity
  8
image
100
AcDbLine
 10
7.217483962529987
 20
6.567496256647583
 30
0.0
 11
7.217483962529989
 21
6.004591955788054
 31
0.0
  0
LINE
  5
4AE
330
2
100
AcDbEntity
  8
image
100
AcDbLine
 10
7.217483962529987
 20
6.567496256647583
 30
0.0
 11
7.404534528397258
 21
6.567496256647583
 31
0.0
  0
LINE
  5
4AF
330
2
100
AcDbEntity
  8
image
100
AcDbLine
 10
7.382706651460452
 20
6.72363727415178
 30
0.0
 11
7.500609052433011
 21
6.72363727415178
 31
0.0
  0
LINE
  5
4B0
330
2
100
AcDbEntity
  8
image
100
AcDbLine
 10
7.49073074316233
 20
6.647160041088493
 30
0.0
 11
7.542034220342285
 21
6.647160041088493
 31
0.0
  0
LINE
  5
4B1
330
2
100
AcDbEntity
  8
image
100
AcDbLine
 10
7.395452856970999
 20
6.72363727415178
 30
0.0
 11
7.395452856970999
 21
6.675839003487222
 31
0.0
  0
LINE
  5
4B2
330
2
100
AcDbEntity
  8
image
100
AcDbLine
 10
7.382706651460452
 20
6.72363727415178
 30
0.0
 11
7.382706651460452
 21
6.675839003487222
 31
0.0
  0
LINE
  5
4B3
330
2
100
AcDbEntity
  8
image
100
AcDbLine
 10
7.49073074316233
 20
6.647160041088493
 30
0.0
 11
7.49073074316233
 21
6.661499522287858
 31
0.0
  0
LINE
  5
4B4
330
2
100
AcDbEntity
  8
image
100
AcDbLine
 10
7.500609052433011
 20
6.72363727415178
 30
0.0
 11
7.500609052433011
 21
6.675839003487222
 31
0.0
  0
LINE
  5
4B5
330
2
100
AcDbEntity
  8
image
100
AcDbLine
 10
7.542034220342285
 20
6.675839003487222
 30
0.0
 11
7.542034220342285
 21
6.647160041088493
 31
0.0
  0
LINE
  5
4B6
330
2
100
AcDbEntity
  8
image
100
AcDbLine
 10
7.404534528397258
 20
6.567496256647583
 30
0.0
 11
7.49073074316233
 21
6.647160041088493
 31
0.0
  0
LINE
  5
4B7
330
2
100
AcDbEntity
  8
image
100
AcDbLine
 10
7.404534528397258
 20
6.567496256647583
 30
0.0
 11
7.40453452839726
 21
6.004591955788054
 31
0.0
  0
ARC
  5
4B8
330
2
100
AcDbEntity
  8
image
100
AcDbCircle
 10
7.311009245463624
 20
6.004591955788054
 30
0.0
 40
0.093525282933636
100
AcDbArc
 50
180.0
 51
0.0
  0
LINE
  5
4B9
330
2
100
AcDbEntity
  8
image
100
AcDbLine
 10
7.841240656673967
 20
6.823437745987153
 30
0.0
 11
7.841240656673968
 21
6.714075838176764
 31
0.0
  0
LINE
  5
4BA
330
2
100
AcDbEntity
  8
image
100
AcDbLine
 10
7.654190090806697
 20
6.823437745987153
 30
0.0
 11
7.654190090806697
 21
6.719437428034776
 31
0.0
  0
ARC
  5
4BB
330
2
100
AcDbEntity
  8
image
100
AcDbCircle
 10
7.747715373740334
 20
6.260533445127624
 30
0.0
 40
0.093525282933636
100
AcDbArc
 50
180.0
 51
0.0
  0
LINE
  5
4BC
330
2
100
AcDbEntity
  8
image
100
AcDbLine
 10
7.516690398861676
 20
6.903101530428063
 30
0.0
 11
7.567993876041629
 21
6.903101530428063
 31
0.0
  0
LINE
  5
4BD
330
2
100
AcDbEntity
  8
image
100
AcDbLine
 10
7.516690398861676
 20
6.931780492826792
 30
0.0
 11
7.978740348618995
 21
6.931780492826792
 31
0.0
  0
LINE
  5
4BE
330
2
100
AcDbEntity
  8
image
100
AcDbLine
 10
7.516690398861676
 20
6.917441011627428
 30
0.0
 11
7.978740348618995
 21
6.917441011627428
 31
0.0
  0
LINE
  5
4BF
330
2
100
AcDbEntity
  8
image
100
AcDbLine
 10
7.516690398861676
 20
6.903101530428063
 30
0.0
 11
7.516690398861676
 21
6.931780492826792
 31
0.0
  0
LINE
  5
4C0
330
2
100
AcDbEntity
  8
image
100
AcDbLine
 10
7.841240656673967
 20
6.823437745987153
 30
0.0
 11
7.92743687143904
 21
6.903101530428063
 31
0.0
  0
LINE
  5
4C1
330
2
100
AcDbEntity
  8
image
100
AcDbLine
 10
7.819412779737161
 20
6.97957876349135
 30
0.0
 11
7.93731518070972
 21
6.97957876349135
 31
0.0
  0
LINE
  5
4C2
330
2
100
AcDbEntity
  8
image
100
AcDbLine
 10
7.819412779737161
 20
6.97957876349135
 30
0.0
 11
7.819412779737161
 21
6.931780492826792
 31
0.0
  0
LINE
  5
4C3
330
2
100
AcDbEntity
  8
image
100
AcDbLine
 10
7.832158985247708
 20
6.97957876349135
 30
0.0
 11
7.832158985247708
 21
6.931780492826792
 31
0.0
  0
LINE
  5
4C4
330
2
100
AcDbEntity
  8
image
100
AcDbLine
 10
7.654190090806697
 20
6.823437745987153
 30
0.0
 11
7.841240656673967
 21
6.823437745987153
 31
0.0
  0
LINE
  5
4C5
330
2
100
AcDbEntity
  8
image
100
AcDbLine
 10
7.567993876041629
 20
6.903101530428063
 30
0.0
 11
7.567993876041629
 21
6.917441011627428
 31
0.0
  0
LINE
  5
4C6
330
2
100
AcDbEntity
  8
image
100
AcDbLine
 10
7.654190090806697
 20
6.823437745987153
 30
0.0
 11
7.567993876041629
 21
6.903101530428063
 31
0.0
  0
LINE
  5
4C7
330
2
100
AcDbEntity
  8
image
100
AcDbLine
 10
7.570861772281496
 20
6.97957876349135
 30
0.0
 11
7.676017967743508
 21
6.97957876349135
 31
0.0
  0
LINE
  5
4C8
330
2
100
AcDbEntity
  8
image
100
AcDbLine
 10
7.676017967743508
 20
6.97957876349135
 30
0.0
 11
7.676017967743508
 21
6.931780492826792
 31
0.0
  0
LINE
  5
4C9
330
2
100
AcDbEntity
  8
image
100
AcDbLine
 10
7.663271762232962
 20
6.97957876349135
 30
0.0
 11
7.663271762232962
 21
6.931780492826792
 31
0.0
  0
LINE
  5
4CA
330
2
100
AcDbEntity
  8
image
100
AcDbLine
 10
7.570861772281496
 20
6.97957876349135
 30
0.0
 11
7.570861772281496
 21
6.931780492826792
 31
0.0
  0
LINE
  5
4CB
330
2
100
AcDbEntity
  8
image
100
AcDbLine
 10
7.978740348618995
 20
6.931780492826792
 30
0.0
 11
7.978740348618995
 21
6.903101530428063
 31
0.0
  0
LINE
  5
4CC
330
2
100
AcDbEntity
  8
image
100
AcDbLine
 10
7.93731518070972
 20
6.97957876349135
 30
0.0
 11
7.93731518070972
 21
6.931780492826792
 31
0.0
  0
LINE
  5
4CD
330
2
100
AcDbEntity
  8
image
100
AcDbLine
 10
7.92743687143904
 20
6.903101530428063
 30
0.0
 11
7.92743687143904
 21
6.917441011627428
 31
0.0
  0
LINE
  5
4CE
330
2
100
AcDbEntity
  8
image
100
AcDbLine
 10
7.92743687143904
 20
6.903101530428063
 30
0.0
 11
7.978740348618995
 21
6.903101530428063
 31
0.0
  0
ARC
  5
4CF
330
2
100
AcDbEntity
  8
image
100
AcDbCircle
 10
3.527964221044302
 20
6.014779118861291
 30
0.0
 40
0.093525282933636
100
AcDbArc
 50
180.0
 51
0.0
  0
LINE
  5
4D0
330
2
100
AcDbEntity
  8
image
100
AcDbLine
 10
3.434438938110665
 20
6.57768341972082
 30
0.0
 11
3.621489503977936
 21
6.57768341972082
 31
0.0
  0
LINE
  5
4D1
330
2
100
AcDbEntity
  8
image
100
AcDbLine
 10
3.599661627041128
 20
6.733824437225017
 30
0.0
 11
3.717564028013689
 21
6.733824437225017
 31
0.0
  0
LINE
  5
4D2
330
2
100
AcDbEntity
  8
image
100
AcDbLine
 10
3.296939246165645
 20
6.671686685361095
 30
0.0
 11
3.758989195922963
 21
6.671686685361095
 31
0.0
  0
LINE
  5
4D3
330
2
100
AcDbEntity
  8
image
100
AcDbLine
 10
3.296939246165645
 20
6.686026166560459
 30
0.0
 11
3.758989195922963
 21
6.686026166560459
 31
0.0
  0
LINE
  5
4D4
330
2
100
AcDbEntity
  8
image
100
AcDbLine
 10
3.434438938110665
 20
6.57768341972082
 30
0.0
 11
3.434438938110665
 21
6.014779118861291
 31
0.0
  0
LINE
  5
4D5
330
2
100
AcDbEntity
  8
image
100
AcDbLine
 10
3.351110619585464
 20
6.733824437225017
 30
0.0
 11
3.351110619585464
 21
6.686026166560459
 31
0.0
  0
LINE
  5
4D6
330
2
100
AcDbEntity
  8
image
100
AcDbLine
 10
3.443520609536931
 20
6.733824437225017
 30
0.0
 11
3.443520609536931
 21
6.686026166560459
 31
0.0
  0
LINE
  5
4D7
330
2
100
AcDbEntity
  8
image
100
AcDbLine
 10
3.456266815047476
 20
6.733824437225017
 30
0.0
 11
3.456266815047476
 21
6.686026166560459
 31
0.0
  0
LINE
  5
4D8
330
2
100
AcDbEntity
  8
image
100
AcDbLine
 10
3.351110619585464
 20
6.733824437225017
 30
0.0
 11
3.456266815047476
 21
6.733824437225017
 31
0.0
  0
LINE
  5
4D9
330
2
100
AcDbEntity
  8
image
100
AcDbLine
 10
3.434438938110665
 20
6.57768341972082
 30
0.0
 11
3.348242723345598
 21
6.65734720416173
 31
0.0
  0
LINE
  5
4DA
330
2
100
AcDbEntity
  8
image
100
AcDbLine
 10
3.348242723345598
 20
6.65734720416173
 30
0.0
 11
3.348242723345598
 21
6.671686685361095
 31
0.0
  0
LINE
  5
4DB
330
2
100
AcDbEntity
  8
image
100
AcDbLine
 10
3.599661627041128
 20
6.733824437225017
 30
0.0
 11
3.599661627041128
 21
6.686026166560459
 31
0.0
  0
LINE
  5
4DC
330
2
100
AcDbEntity
  8
image
100
AcDbLine
 10
3.296939246165645
 20
6.65734720416173
 30
0.0
 11
3.296939246165645
 21
6.686026166560459
 31
0.0
  0
LINE
  5
4DD
330
2
100
AcDbEntity
  8
image
100
AcDbLine
 10
3.296939246165645
 20
6.65734720416173
 30
0.0
 11
3.348242723345598
 21
6.65734720416173
 31
0.0
  0
LINE
  5
4DE
330
2
100
AcDbEntity
  8
image
100
AcDbLine
 10
3.621489503977936
 20
6.57768341972082
 30
0.0
 11
3.621489503977936
 21
6.014779118861291
 31
0.0
  0
LINE
  5
4DF
330
2
100
AcDbEntity
  8
image
100
AcDbLine
 10
3.707685718743007
 20
6.65734720416173
 30
0.0
 11
3.758989195922963
 21
6.65734720416173
 31
0.0
  0
LINE
  5
4E0
330
2
100
AcDbEntity
  8
image
100
AcDbLine
 10
3.707685718743007
 20
6.65734720416173
 30
0.0
 11
3.707685718743007
 21
6.671686685361095
 31
0.0
  0
LINE
  5
4E1
330
2
100
AcDbEntity
  8
image
100
AcDbLine
 10
3.717564028013689
 20
6.733824437225017
 30
0.0
 11
3.717564028013689
 21
6.686026166560459
 31
0.0
  0
LINE
  5
4E2
330
2
100
AcDbEntity
  8
image
100
AcDbLine
 10
3.758989195922963
 20
6.686026166560459
 30
0.0
 11
3.758989195922963
 21
6.65734720416173
 31
0.0
  0
LINE
  5
4E3
330
2
100
AcDbEntity
  8
image
100
AcDbLine
 10
3.612407832551677
 20
6.733824437225017
 30
0.0
 11
3.612407832551677
 21
6.686026166560459
 31
0.0
  0
LINE
  5
4E4
330
2
100
AcDbEntity
  8
image
100
AcDbLine
 10
3.621489503977936
 20
6.57768341972082
 30
0.0
 11
3.707685718743007
 21
6.65734720416173
 31
0.0
  0
ARC
  5
4E5
330
2
100
AcDbEntity
  8
image
100
AcDbCircle
 10
2.770988000506618
 20
6.448915046521928
 30
0.0
 40
0.093525282933636
100
AcDbArc
 50
180.0
 51
0.0
  0
LINE
  5
4E6
330
2
100
AcDbEntity
  8
image
100
AcDbLine
 10
2.677462717572981
 20
7.011819347381457
 30
0.0
 11
2.864513283440252
 21
7.011819347381457
 31
0.0
  0
LINE
  5
4E7
330
2
100
AcDbEntity
  8
image
100
AcDbLine
 10
2.842685406503444
 20
7.167960364885654
 30
0.0
 11
2.960587807476005
 21
7.167960364885654
 31
0.0
  0
LINE
  5
4E8
330
2
100
AcDbEntity
  8
image
100
AcDbLine
 10
2.539963025627961
 20
7.105822613021732
 30
0.0
 11
3.002012975385279
 21
7.105822613021732
 31
0.0
  0
LINE
  5
4E9
330
2
100
AcDbEntity
  8
image
100
AcDbLine
 10
2.539963025627961
 20
7.120162094221097
 30
0.0
 11
3.002012975385279
 21
7.120162094221097
 31
0.0
  0
LINE
  5
4EA
330
2
100
AcDbEntity
  8
image
100
AcDbLine
 10
2.677462717572981
 20
7.011819347381457
 30
0.0
 11
2.677462717572981
 21
6.448915046521928
 31
0.0
  0
LINE
  5
4EB
330
2
100
AcDbEntity
  8
image
100
AcDbLine
 10
2.59413439904778
 20
7.167960364885654
 30
0.0
 11
2.59413439904778
 21
7.120162094221097
 31
0.0
  0
LINE
  5
4EC
330
2
100
AcDbEntity
  8
image
100
AcDbLine
 10
2.686544388999247
 20
7.167960364885654
 30
0.0
 11
2.686544388999247
 21
7.120162094221097
 31
0.0
  0
LINE
  5
4ED
330
2
100
AcDbEntity
  8
image
100
AcDbLine
 10
2.699290594509792
 20
7.167960364885654
 30
0.0
 11
2.699290594509792
 21
7.120162094221097
 31
0.0
  0
LINE
  5
4EE
330
2
100
AcDbEntity
  8
image
100
AcDbLine
 10
2.59413439904778
 20
7.167960364885654
 30
0.0
 11
2.699290594509792
 21
7.167960364885654
 31
0.0
  0
LINE
  5
4EF
330
2
100
AcDbEntity
  8
image
100
AcDbLine
 10
2.677462717572981
 20
7.011819347381457
 30
0.0
 11
2.591266502807914
 21
7.091483131822368
 31
0.0
  0
LINE
  5
4F0
330
2
100
AcDbEntity
  8
image
100
AcDbLine
 10
2.591266502807914
 20
7.091483131822368
 30
0.0
 11
2.591266502807914
 21
7.105822613021732
 31
0.0
  0
LINE
  5
4F1
330
2
100
AcDbEntity
  8
image
100
AcDbLine
 10
2.842685406503444
 20
7.167960364885654
 30
0.0
 11
2.842685406503444
 21
7.120162094221097
 31
0.0
  0
LINE
  5
4F2
330
2
100
AcDbEntity
  8
image
100
AcDbLine
 10
2.539963025627961
 20
7.091483131822368
 30
0.0
 11
2.539963025627961
 21
7.120162094221097
 31
0.0
  0
LINE
  5
4F3
330
2
100
AcDbEntity
  8
image
100
AcDbLine
 10
2.539963025627961
 20
7.091483131822368
 30
0.0
 11
2.591266502807914
 21
7.091483131822368
 31
0.0
  0
LINE
  5
4F4
330
2
100
AcDbEntity
  8
image
100
AcDbLine
 10
2.864513283440252
 20
7.011819347381457
 30
0.0
 11
2.864513283440252
 21
6.448915046521928
 31
0.0
  0
LINE
  5
4F5
330
2
100
AcDbEntity
  8
image
100
AcDbLine
 10
2.950709498205323
 20
7.091483131822368
 30
0.0
 11
3.002012975385279
 21
7.091483131822368
 31
0.0
  0
LINE
  5
4F6
330
2
100
AcDbEntity
  8
image
100
AcDbLine
 10
2.950709498205323
 20
7.091483131822368
 30
0.0
 11
2.950709498205323
 21
7.105822613021732
 31
0.0
  0
LINE
  5
4F7
330
2
100
AcDbEntity
  8
image
100
AcDbLine
 10
2.960587807476005
 20
7.167960364885654
 30
0.0
 11
2.960587807476005
 21
7.120162094221097
 31
0.0
  0
LINE
  5
4F8
330
2
100
AcDbEntity
  8
image
100
AcDbLine
 10
3.002012975385279
 20
7.120162094221097
 30
0.0
 11
3.002012975385279
 21
7.091483131822368
 31
0.0
  0
LINE
  5
4F9
330
2
100
AcDbEntity
  8
image
100
AcDbLine
 10
2.855431612013993
 20
7.167960364885654
 30
0.0
 11
2.855431612013993
 21
7.120162094221097
 31
0.0
  0
LINE
  5
4FA
330
2
100
AcDbEntity
  8
image
100
AcDbLine
 10
2.864513283440252
 20
7.011819347381457
 30
0.0
 11
2.950709498205323
 21
7.091483131822368
 31
0.0
  0
POLYLINE
  5
4FB
330
2
100
AcDbEntity
  8
image
100
AcDb2dPolyline
 66
     1
 10
0.0
 20
0.0
 30
0.0
 70
     4
 75
     6
  0
VERTEX
  5
4FC
330
4FB
100
AcDbEntity
  8
image
100
AcDbVertex
100
AcDb2dVertex
 10
6.090207757326153
 20
4.989040304111327
 30
0.0
 70
    16
  0
VERTEX
  5
4FD
330
4FB
100
AcDbEntity
  8
image
100
AcDbVertex
100
AcDb2dVertex
 10
6.090207757326153
 20
4.989040304111327
 30
0.0
 70
     8
  0
VERTEX
  5
4FE
330
4FB
100
AcDbEntity
  8
image
100
AcDbVertex
100
AcDb2dVertex
 10
6.110707559602587
 20
5.135372720946858
 30
0.0
 70
     8
  0
VERTEX
  5
4FF
330
4FB
100
AcDbEntity
  8
image
100
AcDbVertex
100
AcDb2dVertex
 10
6.128074065328522
 20
5.258269346617879
 30
0.0
 70
     8
  0
VERTEX
  5
500
330
4FB
100
AcDbEntity
  8
image
100
AcDbVertex
100
AcDb2dVertex
 10
6.14299488344988
 20
5.360932132768613
 30
0.0
 70
     8
  0
VERTEX
  5
501
330
4FB
100
AcDbEntity
  8
image
100
AcDbVertex
100
AcDb2dVertex
 10
6.15615762291258
 20
5.446563031043279
 30
0.0
 70
     8
  0
VERTEX
  5
502
330
4FB
100
AcDbEntity
  8
image
100
AcDbVertex
100
AcDb2dVertex
 10
6.168249892662549
 20
5.518363993086094
 30
0.0
 70
     8
  0
VERTEX
  5
503
330
4FB
100
AcDbEntity
  8
image
100
AcDbVertex
100
AcDb2dVertex
 10
6.179959301645711
 20
5.579536970541276
 30
0.0
 70
     8
  0
VERTEX
  5
504
330
4FB
100
AcDbEntity
  8
image
100
AcDbVertex
100
AcDb2dVertex
 10
6.191973458807986
 20
5.633283915053045
 30
0.0
 70
     8
  0
VERTEX
  5
505
330
4FB
100
AcDbEntity
  8
image
100
AcDbVertex
100
AcDb2dVertex
 10
6.2049799730953
 20
5.682806778265614
 30
0.0
 70
     8
  0
VERTEX
  5
506
330
4FB
100
AcDbEntity
  8
image
100
AcDbVertex
100
AcDb2dVertex
 10
6.219565547332969
 20
5.730814920934193
 30
0.0
 70
     8
  0
VERTEX
  5
507
330
4FB
100
AcDbEntity
  8
image
100
AcDbVertex
100
AcDb2dVertex
 10
6.235913259863893
 20
5.77804734025792
 30
0.0
 70
     8
  0
VERTEX
  5
508
330
4FB
100
AcDbEntity
  8
image
100
AcDbVertex
100
AcDb2dVertex
 10
6.254105282910369
 20
5.824750442546914
 30
0.0
 70
     8
  0
VERTEX
  5
509
330
4FB
100
AcDbEntity
  8
image
100
AcDbVertex
100
AcDb2dVertex
 10
6.27422378869469
 20
5.871170634111297
 30
0.0
 70
     8
  0
VERTEX
  5
50A
330
4FB
100
AcDbEntity
  8
image
100
AcDbVertex
100
AcDb2dVertex
 10
6.296350949439155
 20
5.917554321261196
 30
0.0
 70
     8
  0
VERTEX
  5
50B
330
4FB
100
AcDbEntity
  8
image
100
AcDbVertex
100
AcDb2dVertex
 10
6.320568937366052
 20
5.964147910306731
 30
0.0
 70
     8
  0
VERTEX
  5
50C
330
4FB
100
AcDbEntity
  8
image
100
AcDbVertex
100
AcDb2dVertex
 10
6.346959924697681
 20
6.011197807558023
 30
0.0
 70
     8
  0
VERTEX
  5
50D
330
4FB
100
AcDbEntity
  8
image
100
AcDbVertex
100
AcDb2dVertex
 10
6.375606083656338
 20
6.058950419325199
 30
0.0
 70
     8
  0
VERTEX
  5
50E
330
4FB
100
AcDbEntity
  8
image
100
AcDbVertex
100
AcDb2dVertex
 10
6.406481036282878
 20
6.107494601450785
 30
0.0
 70
     8
  0
VERTEX
  5
50F
330
4FB
100
AcDbEntity
  8
image
100
AcDbVertex
100
AcDb2dVertex
 10
6.439124203892411
 20
6.156289007906924
 30
0.0
 70
     8
  0
VERTEX
  5
510
330
4FB
100
AcDbEntity
  8
image
100
AcDbVertex
100
AcDb2dVertex
 10
6.472966457618612
 20
6.204634742198166
 30
0.0
 70
     8
  0
VERTEX
  5
511
330
4FB
100
AcDbEntity
  8
image
100
AcDbVertex
100
AcDb2dVertex
 10
6.507438668595153
 20
6.251832907829065
 30
0.0
 70
     8
  0
VERTEX
  5
512
330
4FB
100
AcDbEntity
  8
image
100
AcDbVertex
100
AcDb2dVertex
 10
6.541971707955706
 20
6.297184608304164
 30
0.0
 70
     8
  0
VERTEX
  5
513
330
4FB
100
AcDbEntity
  8
image
100
AcDbVertex
100
AcDb2dVertex
 10
6.575996446833944
 20
6.339990947128018
 30
0.0
 70
     8
  0
VERTEX
  5
514
330
4FB
100
AcDbEntity
  8
image
100
AcDbVertex
100
AcDb2dVertex
 10
6.608943756363542
 20
6.379553027805176
 30
0.0
 70
     8
  0
VERTEX
  5
515
330
4FB
100
AcDbEntity
  8
image
100
AcDbVertex
100
AcDb2dVertex
 10
6.64024450767817
 20
6.415171953840186
 30
0.0
 70
     8
  0
VERTEX
  5
516
330
4FB
100
AcDbEntity
  8
image
100
AcDbVertex
100
AcDb2dVertex
 10
6.669476129002577
 20
6.446353387843767
 30
0.0
 70
     8
  0
VERTEX
  5
517
330
4FB
100
AcDbEntity
  8
image
100
AcDbVertex
100
AcDb2dVertex
 10
6.696802276925803
 20
6.473421228851297
 30
0.0
 70
     8
  0
VERTEX
  5
518
330
4FB
100
AcDbEntity
  8
image
100
AcDbVertex
100
AcDb2dVertex
 10
6.722533165127964
 20
6.496903935004326
 30
0.0
 70
     8
  0
VERTEX
  5
519
330
4FB
100
AcDbEntity
  8
image
100
AcDbVertex
100
AcDb2dVertex
 10
6.746979007289178
 20
6.517329964444403
 30
0.0
 70
     8
  0
VERTEX
  5
51A
330
4FB
100
AcDbEntity
  8
image
100
AcDbVertex
100
AcDb2dVertex
 10
6.770450017089556
 20
6.535227775313071
 30
0.0
 70
     8
  0
VERTEX
  5
51B
330
4FB
100
AcDbEntity
  8
image
100
AcDbVertex
100
AcDb2dVertex
 10
6.793256408209217
 20
6.551125825751881
 30
0.0
 70
     8
  0
VERTEX
  5
51C
330
4FB
100
AcDbEntity
  8
image
100
AcDbVertex
100
AcDb2dVertex
 10
6.815708394328273
 20
6.565552573902383
 30
0.0
 70
     8
  0
VERTEX
  5
51D
330
4FB
100
AcDbEntity
  8
image
100
AcDbVertex
100
AcDb2dVertex
 10
6.838116189126843
 20
6.579036477906122
 30
0.0
 70
     8
  0
VERTEX
  5
51E
330
4FB
100
AcDbEntity
  8
image
100
AcDbVertex
100
AcDb2dVertex
 10
6.860712733647988
 20
6.592000277308194
 30
0.0
 70
     8
  0
VERTEX
  5
51F
330
4FB
100
AcDbEntity
  8
image
100
AcDbVertex
100
AcDb2dVertex
 10
6.883421878386553
 20
6.604443837267925
 30
0.0
 70
     8
  0
VERTEX
  5
520
330
4FB
100
AcDbEntity
  8
image
100
AcDbVertex
100
AcDb2dVertex
 10
6.906090201200338
 20
6.616261304348178
 30
0.0
 70
     8
  0
VERTEX
  5
521
330
4FB
100
AcDbEntity
  8
image
100
AcDbVertex
100
AcDb2dVertex
 10
6.928564279947135
 20
6.627346825111821
 30
0.0
 70
     8
  0
VERTEX
  5
522
330
4FB
100
AcDbEntity
  8
image
100
AcDbVertex
100
AcDb2dVertex
 10
6.950690692484739
 20
6.637594546121725
 30
0.0
 70
     8
  0
VERTEX
  5
523
330
4FB
100
AcDbEntity
  8
image
100
AcDbVertex
100
AcDb2dVertex
 10
6.972316016670946
 20
6.646898613940756
 30
0.0
 70
     8
  0
VERTEX
  5
524
330
4FB
100
AcDbEntity
  8
image
100
AcDbVertex
100
AcDb2dVertex
 10
6.993286830363551
 20
6.65515317513179
 30
0.0
 70
     8
  0
VERTEX
  5
525
330
4FB
100
AcDbEntity
  8
image
100
AcDbVertex
100
AcDb2dVertex
 10
7.013449711420348
 20
6.662252376257686
 30
0.0
 70
     8
  0
VERTEX
  5
526
330
4FB
100
AcDbEntity
  8
image
100
AcDbVertex
100
AcDb2dVertex
 10
7.032664712535233
 20
6.66812677420107
 30
0.0
 70
     8
  0
VERTEX
  5
527
330
4FB
100
AcDbEntity
  8
image
100
AcDbVertex
100
AcDb2dVertex
 10
7.050845785746506
 20
6.672852567123563
 30
0.0
 70
     8
  0
VERTEX
  5
528
330
4FB
100
AcDbEntity
  8
image
100
AcDbVertex
100
AcDb2dVertex
 10
7.067920357928571
 20
6.676542363506527
 30
0.0
 70
     8
  0
VERTEX
  5
529
330
4FB
100
AcDbEntity
  8
image
100
AcDbVertex
100
AcDb2dVertex
 10
7.083815855955826
 20
6.679308771831337
 30
0.0
 70
     8
  0
VERTEX
  5
52A
330
4FB
100
AcDbEntity
  8
image
100
AcDbVertex
100
AcDb2dVertex
 10
7.098459706702675
 20
6.681264400579362
 30
0.0
 70
     8
  0
VERTEX
  5
52B
330
4FB
100
AcDbEntity
  8
image
100
AcDbVertex
100
AcDb2dVertex
 10
7.111779337043516
 20
6.682521858231968
 30
0.0
 70
     8
  0
VERTEX
  5
52C
330
4FB
100
AcDbEntity
  8
image
100
AcDbVertex
100
AcDb2dVertex
 10
7.123702173852754
 20
6.683193753270529
 30
0.0
 70
     8
  0
VERTEX
  5
52D
330
4FB
100
AcDbEntity
  8
image
100
AcDbVertex
100
AcDb2dVertex
 10
7.134155644004787
 20
6.683392694176411
 30
0.0
 70
     8
  0
VERTEX
  5
52E
330
4FB
100
AcDbEntity
  8
image
100
AcDbVertex
100
AcDb2dVertex
 10
6.149662833415915
 20
5.41335398313139
 30
0.0
 70
    16
  0
VERTEX
  5
52F
330
4FB
100
AcDbEntity
  8
image
100
AcDbVertex
100
AcDb2dVertex
 10
6.187060335005051
 20
5.69370949458537
 30
0.0
 70
    16
  0
VERTEX
  5
530
330
4FB
100
AcDbEntity
  8
image
100
AcDbVertex
100
AcDb2dVertex
 10
6.350674415930248
 20
6.04882646384782
 30
0.0
 70
    16
  0
VERTEX
  5
531
330
4FB
100
AcDbEntity
  8
image
100
AcDbVertex
100
AcDb2dVertex
 10
6.663878503211989
 20
6.464687165974556
 30
0.0
 70
    16
  0
VERTEX
  5
532
330
4FB
100
AcDbEntity
  8
image
100
AcDbVertex
100
AcDb2dVertex
 10
6.835278617290812
 20
6.583456595295082
 30
0.0
 70
    16
  0
VERTEX
  5
533
330
4FB
100
AcDbEntity
  8
image
100
AcDbVertex
100
AcDb2dVertex
 10
7.023704162385815
 20
6.675705320281835
 30
0.0
 70
    16
  0
VERTEX
  5
534
330
4FB
100
AcDbEntity
  8
image
100
AcDbVertex
100
AcDb2dVertex
 10
7.10830338858728
 20
6.683392694176411
 30
0.0
 70
    16
  0
VERTEX
  5
535
330
4FB
100
AcDbEntity
  8
image
100
AcDbVertex
100
AcDb2dVertex
 10
7.134155644004787
 20
6.683392694176411
 30
0.0
 70
    16
  0
SEQEND
  5
536
330
4FB
100
AcDbEntity
  8
image
  0
POLYLINE
  5
537
330
2
100
AcDbEntity
  8
image
100
AcDb2dPolyline
 66
     1
 10
0.0
 20
0.0
 30
0.0
 70
     4
 75
     6
  0
VERTEX
  5
538
330
537
100
AcDbEntity
  8
image
100
AcDbVertex
100
AcDb2dVertex
 10
6.053551052700276
 20
4.994176662589715
 30
0.0
 70
    16
  0
VERTEX
  5
539
330
537
100
AcDbEntity
  8
image
100
AcDbVertex
100
AcDb2dVertex
 10
6.053551052700276
 20
4.994176662589715
 30
0.0
 70
     8
  0
VERTEX
  5
53A
330
537
100
AcDbEntity
  8
image
100
AcDbVertex
100
AcDb2dVertex
 10
6.074062407605321
 20
5.140590772125072
 30
0.0
 70
     8
  0
VERTEX
  5
53B
330
537
100
AcDbEntity
  8
image
100
AcDbVertex
100
AcDb2dVertex
 10
6.091477135141492
 20
5.263801916757284
 30
0.0
 70
     8
  0
VERTEX
  5
53C
330
537
100
AcDbEntity
  8
image
100
AcDbVertex
100
AcDb2dVertex
 10
6.10648411006497
 20
5.366980040437582
 30
0.0
 70
     8
  0
VERTEX
  5
53D
330
537
100
AcDbEntity
  8
image
100
AcDbVertex
100
AcDb2dVertex
 10
6.119772207131935
 20
5.453295087117187
 30
0.0
 70
     8
  0
VERTEX
  5
53E
330
537
100
AcDbEntity
  8
image
100
AcDbVertex
100
AcDb2dVertex
 10
6.132030301098565
 20
5.525917000747316
 30
0.0
 70
     8
  0
VERTEX
  5
53F
330
537
100
AcDbEntity
  8
image
100
AcDbVertex
100
AcDb2dVertex
 10
6.143947266721038
 20
5.588015725279198
 30
0.0
 70
     8
  0
VERTEX
  5
540
330
537
100
AcDbEntity
  8
image
100
AcDbVertex
100
AcDb2dVertex
 10
6.156211978755536
 20
5.642761204664058
 30
0.0
 70
     8
  0
VERTEX
  5
541
330
537
100
AcDbEntity
  8
image
100
AcDbVertex
100
AcDb2dVertex
 10
6.169513311958233
 20
5.693323382853112
 30
0.0
 70
     8
  0
VERTEX
  5
542
330
537
100
AcDbEntity
  8
image
100
AcDbVertex
100
AcDb2dVertex
 10
6.184438719707959
 20
5.742384524035767
 30
0.0
 70
     8
  0
VERTEX
  5
543
330
537
100
AcDbEntity
  8
image
100
AcDbVertex
100
AcDb2dVertex
 10
6.201169969874117
 20
5.790676173354157
 30
0.0
 70
     8
  0
VERTEX
  5
544
330
537
100
AcDbEntity
  8
image
100
AcDbVertex
100
AcDb2dVertex
 10
6.219787408948761
 20
5.838442196188591
 30
0.0
 70
     8
  0
VERTEX
  5
545
330
537
100
AcDbEntity
  8
image
100
AcDbVertex
100
AcDb2dVertex
 10
6.240371383423939
 20
5.885926457919378
 30
0.0
 70
     8
  0
VERTEX
  5
546
330
537
100
AcDbEntity
  8
image
100
AcDbVertex
100
AcDb2dVertex
 10
6.263002239791708
 20
5.933372823926834
 30
0.0
 70
     8
  0
VERTEX
  5
547
330
537
100
AcDbEntity
  8
image
100
AcDbVertex
100
AcDb2dVertex
 10
6.287760324544116
 20
5.981025159591272
 30
0.0
 70
     8
  0
VERTEX
  5
548
330
537
100
AcDbEntity
  8
image
100
AcDbVertex
100
AcDb2dVertex
 10
6.314725984173215
 20
6.029127330293
 30
0.0
 70
     8
  0
VERTEX
  5
549
330
537
100
AcDbEntity
  8
image
100
AcDbVertex
100
AcDb2dVertex
 10
6.343979565171059
 20
6.077923201412332
 30
0.0
 70
     8
  0
VERTEX
  5
54A
330
537
100
AcDbEntity
  8
image
100
AcDbVertex
100
AcDb2dVertex
 10
6.375492921296954
 20
6.1274987927166
 30
0.0
 70
     8
  0
VERTEX
  5
54B
330
537
100
AcDbEntity
  8
image
100
AcDbVertex
100
AcDb2dVertex
 10
6.408803935379241
 20
6.177308741521244
 30
0.0
 70
     8
  0
VERTEX
  5
54C
330
537
100
AcDbEntity
  8
image
100
AcDbVertex
100
AcDb2dVertex
 10
6.443341997513513
 20
6.226649839528711
 30
0.0
 70
     8
  0
VERTEX
  5
54D
330
537
100
AcDbEntity
  8
image
100
AcDbVertex
100
AcDb2dVertex
 10
6.478536497795367
 20
6.274818878441461
 30
0.0
 70
     8
  0
VERTEX
  5
54E
330
537
100
AcDbEntity
  8
image
100
AcDbVertex
100
AcDb2dVertex
 10
6.513816826320397
 20
6.321112649961946
 30
0.0
 70
     8
  0
VERTEX
  5
54F
330
537
100
AcDbEntity
  8
image
100
AcDbVertex
100
AcDb2dVertex
 10
6.5486123731842
 20
6.364827945792622
 30
0.0
 70
     8
  0
VERTEX
  5
550
330
537
100
AcDbEntity
  8
image
100
AcDbVertex
100
AcDb2dVertex
 10
6.58235252848237
 20
6.405261557635945
 30
0.0
 70
     8
  0
VERTEX
  5
551
330
537
100
AcDbEntity
  8
image
100
AcDbVertex
100
AcDb2dVertex
 10
6.614466682310505
 20
6.441710277194374
 30
0.0
 70
     8
  0
VERTEX
  5
552
330
537
100
AcDbEntity
  8
image
100
AcDbVertex
100
AcDb2dVertex
 10
6.644531101072091
 20
6.473676886915349
 30
0.0
 70
     8
  0
VERTEX
  5
553
330
537
100
AcDbEntity
  8
image
100
AcDbVertex
100
AcDb2dVertex
 10
6.6727095564022
 20
6.50148813222631
 30
0.0
 70
     8
  0
VERTEX
  5
554
330
537
100
AcDbEntity
  8
image
100
AcDbVertex
100
AcDb2dVertex
 10
6.699312696243799
 20
6.52567674929968
 30
0.0
 70
     8
  0
VERTEX
  5
555
330
537
100
AcDbEntity
  8
image
100
AcDbVertex
100
AcDb2dVertex
 10
6.72465116853985
 20
6.546775474307882
 30
0.0
 70
     8
  0
VERTEX
  5
556
330
537
100
AcDbEntity
  8
image
100
AcDbVertex
100
AcDb2dVertex
 10
6.749035621233318
 20
6.565317043423348
 30
0.0
 70
     8
  0
VERTEX
  5
557
330
537
100
AcDbEntity
  8
image
100
AcDbVertex
100
AcDb2dVertex
 10
6.77277670226717
 20
6.581834192818497
 30
0.0
 70
     8
  0
VERTEX
  5
558
330
537
100
AcDbEntity
  8
image
100
AcDbVertex
100
AcDb2dVertex
 10
6.796185059584368
 20
6.59685965866576
 30
0.0
 70
     8
  0
VERTEX
  5
559
330
537
100
AcDbEntity
  8
image
100
AcDbVertex
100
AcDb2dVertex
 10
6.819571341127881
 20
6.610926177137564
 30
0.0
 70
     8
  0
VERTEX
  5
55A
330
537
100
AcDbEntity
  8
image
100
AcDbVertex
100
AcDb2dVertex
 10
6.843169702592343
 20
6.624459298089391
 30
0.0
 70
     8
  0
VERTEX
  5
55B
330
537
100
AcDbEntity
  8
image
100
AcDbVertex
100
AcDb2dVertex
 10
6.86690833067907
 20
6.637455826108979
 30
0.0
 70
     8
  0
VERTEX
  5
55C
330
537
100
AcDbEntity
  8
image
100
AcDbVertex
100
AcDb2dVertex
 10
6.890638919841052
 20
6.649805379467128
 30
0.0
 70
     8
  0
VERTEX
  5
55D
330
537
100
AcDbEntity
  8
image
100
AcDbVertex
100
AcDb2dVertex
 10
6.914213164531279
 20
6.66139757643463
 30
0.0
 70
     8
  0
VERTEX
  5
55E
330
537
100
AcDbEntity
  8
image
100
AcDbVertex
100
AcDb2dVertex
 10
6.937482759202739
 20
6.672122035282288
 30
0.0
 70
     8
  0
VERTEX
  5
55F
330
537
100
AcDbEntity
  8
image
100
AcDbVertex
100
AcDb2dVertex
 10
6.96029939830842
 20
6.681868374280899
 30
0.0
 70
     8
  0
VERTEX
  5
560
330
537
100
AcDbEntity
  8
image
100
AcDbVertex
100
AcDb2dVertex
 10
6.982514776301311
 20
6.690526211701257
 30
0.0
 70
     8
  0
VERTEX
  5
561
330
537
100
AcDbEntity
  8
image
100
AcDbVertex
100
AcDb2dVertex
 10
7.0039805876344
 20
6.697985165814159
 30
0.0
 70
     8
  0
VERTEX
  5
562
330
537
100
AcDbEntity
  8
image
100
AcDbVertex
100
AcDb2dVertex
 10
7.024554834633921
 20
6.70417226956269
 30
0.0
 70
     8
  0
VERTEX
  5
563
330
537
100
AcDbEntity
  8
image
100
AcDbVertex
100
AcDb2dVertex
 10
7.044120751119068
 20
6.709164214579057
 30
0.0
 70
     8
  0
VERTEX
  5
564
330
537
100
AcDbEntity
  8
image
100
AcDbVertex
100
AcDb2dVertex
 10
7.062567878782283
 20
6.713075107167757
 30
0.0
 70
     8
  0
VERTEX
  5
565
330
537
100
AcDbEntity
  8
image
100
AcDbVertex
100
AcDb2dVertex
 10
7.079785759316008
 20
6.716019053633281
 30
0.0
 70
     8
  0
VERTEX
  5
566
330
537
100
AcDbEntity
  8
image
100
AcDbVertex
100
AcDb2dVertex
 10
7.09566393441268
 20
6.718110160280126
 30
0.0
 70
     8
  0
VERTEX
  5
567
330
537
100
AcDbEntity
  8
image
100
AcDbVertex
100
AcDb2dVertex
 10
7.110091945764741
 20
6.719462533412784
 30
0.0
 70
     8
  0
VERTEX
  5
568
330
537
100
AcDbEntity
  8
image
100
AcDbVertex
100
AcDb2dVertex
 10
7.12295933506463
 20
6.720190279335749
 30
0.0
 70
     8
  0
VERTEX
  5
569
330
537
100
AcDbEntity
  8
image
100
AcDbVertex
100
AcDb2dVertex
 10
7.134155644004787
 20
6.720407504353516
 30
0.0
 70
     8
  0
VERTEX
  5
56A
330
537
100
AcDbEntity
  8
image
100
AcDbVertex
100
AcDb2dVertex
 10
6.112989168722158
 20
5.418369302511489
 30
0.0
 70
    16
  0
VERTEX
  5
56B
330
537
100
AcDbEntity
  8
image
100
AcDbVertex
100
AcDb2dVertex
 10
6.151108022098169
 20
5.704132526795294
 30
0.0
 70
    16
  0
VERTEX
  5
56C
330
537
100
AcDbEntity
  8
image
100
AcDbVertex
100
AcDb2dVertex
 10
6.318718041322574
 20
6.067922499567899
 30
0.0
 70
    16
  0
VERTEX
  5
56D
330
537
100
AcDbEntity
  8
image
100
AcDbVertex
100
AcDb2dVertex
 10
6.637897203637882
 20
6.491716683407098
 30
0.0
 70
    16
  0
VERTEX
  5
56E
330
537
100
AcDbEntity
  8
image
100
AcDbVertex
100
AcDb2dVertex
 10
6.816493237988918
 20
6.615472429969944
 30
0.0
 70
    16
  0
VERTEX
  5
56F
330
537
100
AcDbEntity
  8
image
100
AcDbVertex
100
AcDb2dVertex
 10
7.01355789117373
 20
6.711950659538498
 30
0.0
 70
    16
  0
VERTEX
  5
570
330
537
100
AcDbEntity
  8
image
100
AcDbVertex
100
AcDb2dVertex
 10
7.106625112472951
 20
6.720407504353516
 30
0.0
 70
    16
  0
VERTEX
  5
571
330
537
100
AcDbEntity
  8
image
100
AcDbVertex
100
AcDb2dVertex
 10
7.134155644004787
 20
6.720407504353516
 30
0.0
 70
    16
  0
SEQEND
  5
572
330
537
100
AcDbEntity
  8
image
  0
POLYLINE
  5
573
330
2
100
AcDbEntity
  8
image
100
AcDb2dPolyline
 66
     1
 10
0.0
 20
0.0
 30
0.0
 70
     4
 75
     6
  0
VERTEX
  5
574
330
573
100
AcDbEntity
  8
image
100
AcDbVertex
100
AcDb2dVertex
 10
7.500609052433011
 20
6.683105183783897
 30
0.0
 70
    16
  0
VERTEX
  5
575
330
573
100
AcDbEntity
  8
image
100
AcDbVertex
100
AcDb2dVertex
 10
7.500609052433011
 20
6.683105183783897
 30
0.0
 70
     8
  0
VERTEX
  5
576
330
573
100
AcDbEntity
  8
image
100
AcDbVertex
100
AcDb2dVertex
 10
7.522798246005711
 20
6.683126867366162
 30
0.0
 70
     8
  0
VERTEX
  5
577
330
573
100
AcDbEntity
  8
image
100
AcDbVertex
100
AcDb2dVertex
 10
7.547698231990647
 20
6.683151465054454
 30
0.0
 70
     8
  0
VERTEX
  5
578
330
573
100
AcDbEntity
  8
image
100
AcDbVertex
100
AcDb2dVertex
 10
7.575446572256252
 20
6.683118297261025
 30
0.0
 70
     8
  0
VERTEX
  5
579
330
573
100
AcDbEntity
  8
image
100
AcDbVertex
100
AcDb2dVertex
 10
7.606180828670959
 20
6.682966684398131
 30
0.0
 70
     8
  0
VERTEX
  5
57A
330
573
100
AcDbEntity
  8
image
100
AcDbVertex
100
AcDb2dVertex
 10
7.6400385631032
 20
6.682635946878022
 30
0.0
 70
     8
  0
VERTEX
  5
57B
330
573
100
AcDbEntity
  8
image
100
AcDbVertex
100
AcDb2dVertex
 10
7.677157337421411
 20
6.68206540511295
 30
0.0
 70
     8
  0
VERTEX
  5
57C
330
573
100
AcDbEntity
  8
image
100
AcDbVertex
100
AcDb2dVertex
 10
7.71767471349402
 20
6.681194379515165
 30
0.0
 70
     8
  0
VERTEX
  5
57D
330
573
100
AcDbEntity
  8
image
100
AcDbVertex
100
AcDb2dVertex
 10
7.761728253189463
 20
6.679962190496922
 30
0.0
 70
     8
  0
VERTEX
  5
57E
330
573
100
AcDbEntity
  8
image
100
AcDbVertex
100
AcDb2dVertex
 10
7.809347925830156
 20
6.678320559334604
 30
0.0
 70
     8
  0
VERTEX
  5
57F
330
573
100
AcDbEntity
  8
image
100
AcDbVertex
100
AcDb2dVertex
 10
7.860133330554434
 20
6.676270810761106
 30
0.0
 70
     8
  0
VERTEX
  5
580
330
573
100
AcDbEntity
  8
image
100
AcDbVertex
100
AcDb2dVertex
 10
7.913576473954622
 20
6.673826670373454
 30
0.0
 70
     8
  0
VERTEX
  5
581
330
573
100
AcDbEntity
  8
image
100
AcDbVertex
100
AcDb2dVertex
 10
7.969169362623039
 20
6.671001863768676
 30
0.0
 70
     8
  0
VERTEX
  5
582
330
573
100
AcDbEntity
  8
image
100
AcDbVertex
100
AcDb2dVertex
 10
8.026404003152006
 20
6.667810116543797
 30
0.0
 70
     8
  0
VERTEX
  5
583
330
573
100
AcDbEntity
  8
image
100
AcDbVertex
100
AcDb2dVertex
 10
8.084772402133843
 20
6.664265154295843
 30
0.0
 70
     8
  0
VERTEX
  5
584
330
573
100
AcDbEntity
  8
image
100
AcDbVertex
100
AcDb2dVertex
 10
8.143766566160874
 20
6.660380702621846
 30
0.0
 70
     8
  0
VERTEX
  5
585
330
573
100
AcDbEntity
  8
image
100
AcDbVertex
100
AcDb2dVertex
 10
8.202878501825413
 20
6.656170487118824
 30
0.0
 70
     8
  0
VERTEX
  5
586
330
573
100
AcDbEntity
  8
image
100
AcDbVertex
100
AcDb2dVertex
 10
8.26170114052816
 20
6.651639445045972
 30
0.0
 70
     8
  0
VERTEX
  5
587
330
573
100
AcDbEntity
  8
image
100
AcDbVertex
100
AcDb2dVertex
 10
8.320231112903279
 20
6.646757360311127
 30
0.0
 70
     8
  0
VERTEX
  5
588
330
573
100
AcDbEntity
  8
image
100
AcDbVertex
100
AcDb2dVertex
 10
8.378565974393314
 20
6.641485228484295
 30
0.0
 70
     8
  0
VERTEX
  5
589
330
573
100
AcDbEntity
  8
image
100
AcDbVertex
100
AcDb2dVertex
 10
8.436803280440809
 20
6.635784045135476
 30
0.0
 70
     8
  0
VERTEX
  5
58A
330
573
100
AcDbEntity
  8
image
100
AcDbVertex
100
AcDb2dVertex
 10
8.495040586488306
 20
6.62961480583467
 30
0.0
 70
     8
  0
VERTEX
  5
58B
330
573
100
AcDbEntity
  8
image
100
AcDbVertex
100
AcDb2dVertex
 10
8.553375447978341
 20
6.622938506151886
 30
0.0
 70
     8
  0
VERTEX
  5
58C
330
573
100
AcDbEntity
  8
image
100
AcDbVertex
100
AcDb2dVertex
 10
8.611905420353462
 20
6.61571614165712
 30
0.0
 70
     8
  0
VERTEX
  5
58D
330
573
100
AcDbEntity
  8
image
100
AcDbVertex
100
AcDb2dVertex
 10
8.670728059056207
 20
6.607908707920376
 30
0.0
 70
     8
  0
VERTEX
  5
58E
330
573
100
AcDbEntity
  8
image
100
AcDbVertex
100
AcDb2dVertex
 10
8.729862875216912
 20
6.599498327969406
 30
0.0
 70
     8
  0
VERTEX
  5
58F
330
573
100
AcDbEntity
  8
image
100
AcDbVertex
100
AcDb2dVertex
 10
8.789017202717094
 20
6.590551634662958
 30
0.0
 70
     8
  0
VERTEX
  5
590
330
573
100
AcDbEntity
  8
image
100
AcDbVertex
100
AcDb2dVertex
 10
8.847820331126055
 20
6.581156388317531
 30
0.0
 70
     8
  0
VERTEX
  5
591
330
573
100
AcDbEntity
  8
image
100
AcDbVertex
100
AcDb2dVertex
 10
8.905901550013105
 20
6.571400349249614
 30
0.0
 70
     8
  0
VERTEX
  5
592
330
573
100
AcDbEntity
  8
image
100
AcDbVertex
100
AcDb2dVertex
 10
8.962890148947552
 20
6.561371277775709
 30
0.0
 70
     8
  0
VERTEX
  5
593
330
573
100
AcDbEntity
  8
image
100
AcDbVertex
100
AcDb2dVertex
 10
9.018415417498705
 20
6.551156934212308
 30
0.0
 70
     8
  0
VERTEX
  5
594
330
573
100
AcDbEntity
  8
image
100
AcDbVertex
100
AcDb2dVertex
 10
9.072106645235866
 20
6.540845078875911
 30
0.0
 70
     8
  0
VERTEX
  5
595
330
573
100
AcDbEntity
  8
image
100
AcDbVertex
100
AcDb2dVertex
 10
9.123593121728347
 20
6.530523472083011
 30
0.0
 70
     8
  0
VERTEX
  5
596
330
573
100
AcDbEntity
  8
image
100
AcDbVertex
100
AcDb2dVertex
 10
9.172590310447997
 20
6.520255496284416
 30
0.0
 70
     8
  0
VERTEX
  5
597
330
573
100
AcDbEntity
  8
image
100
AcDbVertex
100
AcDb2dVertex
 10
9.219158370476822
 20
6.510007022468151
 30
0.0
 70
     8
  0
VERTEX
  5
598
330
573
100
AcDbEntity
  8
image
100
AcDbVertex
100
AcDb2dVertex
 10
9.263443634799376
 20
6.499719543756551
 30
0.0
 70
     8
  0
VERTEX
  5
599
330
573
100
AcDbEntity
  8
image
100
AcDbVertex
100
AcDb2dVertex
 10
9.30559243640021
 20
6.489334553271955
 30
0.0
 70
     8
  0
VERTEX
  5
59A
330
573
100
AcDbEntity
  8
image
100
AcDbVertex
100
AcDb2dVertex
 10
9.345751108263876
 20
6.478793544136699
 30
0.0
 70
     8
  0
VERTEX
  5
59B
330
573
100
AcDbEntity
  8
image
100
AcDbVertex
100
AcDb2dVertex
 10
9.384065983374922
 20
6.468038009473115
 30
0.0
 70
     8
  0
VERTEX
  5
59C
330
573
100
AcDbEntity
  8
image
100
AcDbVertex
100
AcDb2dVertex
 10
9.420683394717904
 20
6.457009442403542
 30
0.0
 70
     8
  0
VERTEX
  5
59D
330
573
100
AcDbEntity
  8
image
100
AcDbVertex
100
AcDb2dVertex
 10
9.45574967527737
 20
6.445649336050315
 30
0.0
 70
     8
  0
VERTEX
  5
59E
330
573
100
AcDbEntity
  8
image
100
AcDbVertex
100
AcDb2dVertex
 10
9.489372948876654
 20
6.433904871691506
 30
0.0
 70
     8
  0
VERTEX
  5
59F
330
573
100
AcDbEntity
  8
image
100
AcDbVertex
100
AcDb2dVertex
 10
9.521508502694222
 20
6.421745983228131
 30
0.0
 70
     8
  0
VERTEX
  5
5A0
330
573
100
AcDbEntity
  8
image
100
AcDbVertex
100
AcDb2dVertex
 10
9.552073414747326
 20
6.409148292716938
 30
0.0
 70
     8
  0
VERTEX
  5
5A1
330
573
100
AcDbEntity
  8
image
100
AcDbVertex
100
AcDb2dVertex
 10
9.58098476305321
 20
6.396087422214677
 30
0.0
 70
     8
  0
VERTEX
  5
5A2
330
573
100
AcDbEntity
  8
image
100
AcDbVertex
100
AcDb2dVertex
 10
9.608159625629124
 20
6.382538993778101
 30
0.0
 70
     8
  0
VERTEX
  5
5A3
330
573
100
AcDbEntity
  8
image
100
AcDbVertex
100
AcDb2dVertex
 10
9.633515080492317
 20
6.368478629463965
 30
0.0
 70
     8
  0
VERTEX
  5
5A4
330
573
100
AcDbEntity
  8
image
100
AcDbVertex
100
AcDb2dVertex
 10
9.656968205660039
 20
6.353881951329007
 30
0.0
 70
     8
  0
VERTEX
  5
5A5
330
573
100
AcDbEntity
  8
image
100
AcDbVertex
100
AcDb2dVertex
 10
9.678436079149536
 20
6.338724581429993
 30
0.0
 70
     8
  0
VERTEX
  5
5A6
330
573
100
AcDbEntity
  8
image
100
AcDbVertex
100
AcDb2dVertex
 10
9.697829275257987
 20
6.323040092966639
 30
0.0
 70
     8
  0
VERTEX
  5
5A7
330
573
100
AcDbEntity
  8
image
100
AcDbVertex
100
AcDb2dVertex
 10
9.715032353402287
 20
6.307093863710594
 30
0.0
 70
     8
  0
VERTEX
  5
5A8
330
573
100
AcDbEntity
  8
image
100
AcDbVertex
100
AcDb2dVertex
 10
9.729923369279257
 20
6.29120922257648
 30
0.0
 70
     8
  0
VERTEX
  5
5A9
330
573
100
AcDbEntity
  8
image
100
AcDbVertex
100
AcDb2dVertex
 10
9.742380378585719
 20
6.275709498478917
 30
0.0
 70
     8
  0
VERTEX
  5
5AA
330
573
100
AcDbEntity
  8
image
100
AcDbVertex
100
AcDb2dVertex
 10
9.752281437018499
 20
6.260918020332525
 30
0.0
 70
     8
  0
VERTEX
  5
5AB
330
573
100
AcDbEntity
  8
image
100
AcDbVertex
100
AcDb2dVertex
 10
9.75950460027442
 20
6.247158117051924
 30
0.0
 70
     8
  0
VERTEX
  5
5AC
330
573
100
AcDbEntity
  8
image
100
AcDbVertex
100
AcDb2dVertex
 10
9.7639279240503
 20
6.234753117551736
 30
0.0
 70
     8
  0
VERTEX
  5
5AD
330
573
100
AcDbEntity
  8
image
100
AcDbVertex
100
AcDb2dVertex
 10
9.765429464042966
 20
6.224026350746584
 30
0.0
 70
     8
  0
VERTEX
  5
5AE
330
573
100
AcDbEntity
  8
image
100
AcDbVertex
100
AcDb2dVertex
 10
7.556288122626948
 20
6.683105183783897
 30
0.0
 70
    16
  0
VERTEX
  5
5AF
330
573
100
AcDbEntity
  8
image
100
AcDbVertex
100
AcDb2dVertex
 10
7.722541847949285
 20
6.684461849251125
 30
0.0
 70
    16
  0
VERTEX
  5
5B0
330
573
100
AcDbEntity
  8
image
100
AcDbVertex
100
AcDb2dVertex
 10
8.207040867373859
 20
6.659498894926763
 30
0.0
 70
    16
  0
VERTEX
  5
5B1
330
573
100
AcDbEntity
  8
image
100
AcDbVertex
100
AcDb2dVertex
 10
8.666565693507761
 20
6.614565493754774
 30
0.0
 70
    16
  0
VERTEX
  5
5B2
330
573
100
AcDbEntity
  8
image
100
AcDbVertex
100
AcDb2dVertex
 10
9.151064712932335
 20
6.529691377576398
 30
0.0
 70
    16
  0
VERTEX
  5
5B3
330
573
100
AcDbEntity
  8
image
100
AcDbVertex
100
AcDb2dVertex
 10
9.470734185132986
 20
6.449809828437711
 30
0.0
 70
    16
  0
VERTEX
  5
5B4
330
573
100
AcDbEntity
  8
image
100
AcDbVertex
100
AcDb2dVertex
 10
9.700496598199936
 20
6.344965324974662
 30
0.0
 70
    16
  0
VERTEX
  5
5B5
330
573
100
AcDbEntity
  8
image
100
AcDbVertex
100
AcDb2dVertex
 10
9.765429464042966
 20
6.250106015153949
 30
0.0
 70
    16
  0
VERTEX
  5
5B6
330
573
100
AcDbEntity
  8
image
100
AcDbVertex
100
AcDb2dVertex
 10
9.765429464042966
 20
6.224026350746584
 30
0.0
 70
    16
  0
SEQEND
  5
5B7
330
573
100
AcDbEntity
  8
image
  0
POLYLINE
  5
5B8
330
2
100
AcDbEntity
  8
image
100
AcDb2dPolyline
 66
     1
 10
0.0
 20
0.0
 30
0.0
 70
     4
 75
     6
  0
VERTEX
  5
5B9
330
5B8
100
AcDbEntity
  8
image
100
AcDbVertex
100
AcDb2dVertex
 10
7.500609052433011
 20
6.720119993961002
 30
0.0
 70
    16
  0
VERTEX
  5
5BA
330
5B8
100
AcDbEntity
  8
image
100
AcDbVertex
100
AcDb2dVertex
 10
7.500609052433011
 20
6.720119993961002
 30
0.0
 70
     8
  0
VERTEX
  5
5BB
330
5B8
100
AcDbEntity
  8
image
100
AcDbVertex
100
AcDb2dVertex
 10
7.522769972946445
 20
6.720141815666718
 30
0.0
 70
     8
  0
VERTEX
  5
5BC
330
5B8
100
AcDbEntity
  8
image
100
AcDbVertex
100
AcDb2dVertex
 10
7.547694184993124
 20
6.720166651144992
 30
0.0
 70
     8
  0
VERTEX
  5
5BD
330
5B8
100
AcDbEntity
  8
image
100
AcDbVertex
100
AcDb2dVertex
 10
7.575512918758377
 20
6.720133555937504
 30
0.0
 70
     8
  0
VERTEX
  5
5BE
330
5B8
100
AcDbEntity
  8
image
100
AcDbVertex
100
AcDb2dVertex
 10
7.606357404427539
 20
6.719981585585937
 30
0.0
 70
     8
  0
VERTEX
  5
5BF
330
5B8
100
AcDbEntity
  8
image
100
AcDbVertex
100
AcDb2dVertex
 10
7.640358872185938
 20
6.71964979563198
 30
0.0
 70
     8
  0
VERTEX
  5
5C0
330
5B8
100
AcDbEntity
  8
image
100
AcDbVertex
100
AcDb2dVertex
 10
7.677648552218906
 20
6.719077241617316
 30
0.0
 70
     8
  0
VERTEX
  5
5C1
330
5B8
100
AcDbEntity
  8
image
100
AcDbVertex
100
AcDb2dVertex
 10
7.718357674711771
 20
6.718202979083624
 30
0.0
 70
     8
  0
VERTEX
  5
5C2
330
5B8
100
AcDbEntity
  8
image
100
AcDbVertex
100
AcDb2dVertex
 10
7.762617469849869
 20
6.716966063572591
 30
0.0
 70
     8
  0
VERTEX
  5
5C3
330
5B8
100
AcDbEntity
  8
image
100
AcDbVertex
100
AcDb2dVertex
 10
7.810452555916153
 20
6.715317993418651
 30
0.0
 70
     8
  0
VERTEX
  5
5C4
330
5B8
100
AcDbEntity
  8
image
100
AcDbVertex
100
AcDb2dVertex
 10
7.86146110358409
 20
6.713260038127248
 30
0.0
 70
     8
  0
VERTEX
  5
5C5
330
5B8
100
AcDbEntity
  8
image
100
AcDbVertex
100
AcDb2dVertex
 10
7.915134671624771
 20
6.710805909996576
 30
0.0
 70
     8
  0
VERTEX
  5
5C6
330
5B8
100
AcDbEntity
  8
image
100
AcDbVertex
100
AcDb2dVertex
 10
7.970964818809289
 20
6.707969321324824
 30
0.0
 70
     8
  0
VERTEX
  5
5C7
330
5B8
100
AcDbEntity
  8
image
100
AcDbVertex
100
AcDb2dVertex
 10
8.028443103908731
 20
6.704763984410188
 30
0.0
 70
     8
  0
VERTEX
  5
5C8
330
5B8
100
AcDbEntity
  8
image
100
AcDbVertex
100
AcDb2dVertex
 10
8.087061085694195
 20
6.701203611550859
 30
0.0
 70
     8
  0
VERTEX
  5
5C9
330
5B8
100
AcDbEntity
  8
image
100
AcDbVertex
100
AcDb2dVertex
 10
8.146310322936766
 20
6.697301915045034
 30
0.0
 70
     8
  0
VERTEX
  5
5CA
330
5B8
100
AcDbEntity
  8
image
100
AcDbVertex
100
AcDb2dVertex
 10
8.20568237440754
 20
6.693072607190906
 30
0.0
 70
     8
  0
VERTEX
  5
5CB
330
5B8
100
AcDbEntity
  8
image
100
AcDbVertex
100
AcDb2dVertex
 10
8.264769846274223
 20
6.688520571153446
 30
0.0
 70
     8
  0
VERTEX
  5
5CC
330
5B8
100
AcDbEntity
  8
image
100
AcDbVertex
100
AcDb2dVertex
 10
8.323569534290996
 20
6.683615373564766
 30
0.0
 70
     8
  0
VERTEX
  5
5CD
330
5B8
100
AcDbEntity
  8
image
100
AcDbVertex
100
AcDb2dVertex
 10
8.382179281608646
 20
6.678317751923749
 30
0.0
 70
     8
  0
VERTEX
  5
5CE
330
5B8
100
AcDbEntity
  8
image
100
AcDbVertex
100
AcDb2dVertex
 10
8.440696931377971
 20
6.672588443729292
 30
0.0
 70
     8
  0
VERTEX
  5
5CF
330
5B8
100
AcDbEntity
  8
image
100
AcDbVertex
100
AcDb2dVertex
 10
8.499220326749767
 20
6.666388186480279
 30
0.0
 70
     8
  0
VERTEX
  5
5D0
330
5B8
100
AcDbEntity
  8
image
100
AcDbVertex
100
AcDb2dVertex
 10
8.557847310874823
 20
6.659677717675602
 30
0.0
 70
     8
  0
VERTEX
  5
5D1
330
5B8
100
AcDbEntity
  8
image
100
AcDbVertex
100
AcDb2dVertex
 10
8.616675726903935
 20
6.652417774814146
 30
0.0
 70
     8
  0
VERTEX
  5
5D2
330
5B8
100
AcDbEntity
  8
image
100
AcDbVertex
100
AcDb2dVertex
 10
8.675803417987896
 20
6.644569095394807
 30
0.0
 70
     8
  0
VERTEX
  5
5D3
330
5B8
100
AcDbEntity
  8
image
100
AcDbVertex
100
AcDb2dVertex
 10
8.735250607953606
 20
6.636113449702513
 30
0.0
 70
     8
  0
VERTEX
  5
5D4
330
5B8
100
AcDbEntity
  8
image
100
AcDbVertex
100
AcDb2dVertex
 10
8.794727043332374
 20
6.627116739166385
 30
0.0
 70
     8
  0
VERTEX
  5
5D5
330
5B8
100
AcDbEntity
  8
image
100
AcDbVertex
100
AcDb2dVertex
 10
8.853864851331618
 20
6.617665898001586
 30
0.0
 70
     8
  0
VERTEX
  5
5D6
330
5B8
100
AcDbEntity
  8
image
100
AcDbVertex
100
AcDb2dVertex
 10
8.912296159158753
 20
6.607847860423284
 30
0.0
 70
     8
  0
VERTEX
  5
5D7
330
5B8
100
AcDbEntity
  8
image
100
AcDbVertex
100
AcDb2dVertex
 10
8.969653094021197
 20
6.597749560646633
 30
0.0
 70
     8
  0
VERTEX
  5
5D8
330
5B8
100
AcDbEntity
  8
image
100
AcDbVertex
100
AcDb2dVertex
 10
9.025567783126362
 20
6.587457932886806
 30
0.0
 70
     8
  0
VERTEX
  5
5D9
330
5B8
100
AcDbEntity
  8
image
100
AcDbVertex
100
AcDb2dVertex
 10
9.079672353681669
 20
6.577059911358961
 30
0.0
 70
     8
  0
VERTEX
  5
5DA
330
5B8
100
AcDbEntity
  8
image
100
AcDbVertex
100
AcDb2dVertex
 10
9.131598932894533
 20
6.566642430278267
 30
0.0
 70
     8
  0
VERTEX
  5
5DB
330
5B8
100
AcDbEntity
  8
image
100
AcDbVertex
100
AcDb2dVertex
 10
9.181067295811253
 20
6.556266925441924
 30
0.0
 70
     8
  0
VERTEX
  5
5DC
330
5B8
100
AcDbEntity
  8
image
100
AcDbVertex
100
AcDb2dVertex
 10
9.228147808833675
 20
6.545892838975319
 30
0.0
 70
     8
  0
VERTEX
  5
5DD
330
5B8
100
AcDbEntity
  8
image
100
AcDbVertex
100
AcDb2dVertex
 10
9.272998486202528
 20
6.535454114585878
 30
0.0
 70
     8
  0
VERTEX
  5
5DE
330
5B8
100
AcDbEntity
  8
image
100
AcDbVertex
100
AcDb2dVertex
 10
9.31577734215854
 20
6.524884695981022
 30
0.0
 70
     8
  0
VERTEX
  5
5DF
330
5B8
100
AcDbEntity
  8
image
100
AcDbVertex
100
AcDb2dVertex
 10
9.356642390942443
 20
6.51411852686818
 30
0.0
 70
     8
  0
VERTEX
  5
5E0
330
5B8
100
AcDbEntity
  8
image
100
AcDbVertex
100
AcDb2dVertex
 10
9.395751646794964
 20
6.503089550954776
 30
0.0
 70
     8
  0
VERTEX
  5
5E1
330
5B8
100
AcDbEntity
  8
image
100
AcDbVertex
100
AcDb2dVertex
 10
9.433263123956836
 20
6.491731711948236
 30
0.0
 70
     8
  0
VERTEX
  5
5E2
330
5B8
100
AcDbEntity
  8
image
100
AcDbVertex
100
AcDb2dVertex
 10
9.469334836668783
 20
6.479978953555985
 30
0.0
 70
     8
  0
VERTEX
  5
5E3
330
5B8
100
AcDbEntity
  8
image
100
AcDbVertex
100
AcDb2dVertex
 10
9.504084022756773
 20
6.467766731191311
 30
0.0
 70
     8
  0
VERTEX
  5
5E4
330
5B8
100
AcDbEntity
  8
image
100
AcDbVertex
100
AcDb2dVertex
 10
9.537464814387703
 20
6.455036547090944
 30
0.0
 70
     8
  0
VERTEX
  5
5E5
330
5B8
100
AcDbEntity
  8
image
100
AcDbVertex
100
AcDb2dVertex
 10
9.569390567313709
 20
6.441731415197477
 30
0.0
 70
     8
  0
VERTEX
  5
5E6
330
5B8
100
AcDbEntity
  8
image
100
AcDbVertex
100
AcDb2dVertex
 10
9.599774637286921
 20
6.427794349453503
 30
0.0
 70
     8
  0
VERTEX
  5
5E7
330
5B8
100
AcDbEntity
  8
image
100
AcDbVertex
100
AcDb2dVertex
 10
9.628530380059475
 20
6.413168363801617
 30
0.0
 70
     8
  0
VERTEX
  5
5E8
330
5B8
100
AcDbEntity
  8
image
100
AcDbVertex
100
AcDb2dVertex
 10
9.655571151383503
 20
6.39779647218441
 30
0.0
 70
     8
  0
VERTEX
  5
5E9
330
5B8
100
AcDbEntity
  8
image
100
AcDbVertex
100
AcDb2dVertex
 10
9.680810307011139
 20
6.381621688544473
 30
0.0
 70
     8
  0
VERTEX
  5
5EA
330
5B8
100
AcDbEntity
  8
image
100
AcDbVertex
100
AcDb2dVertex
 10
9.704161202694516
 20
6.364587026824402
 30
0.0
 70
     8
  0
VERTEX
  5
5EB
330
5B8
100
AcDbEntity
  8
image
100
AcDbVertex
100
AcDb2dVertex
 10
9.725517371087713
 20
6.346700951270413
 30
0.0
 70
     8
  0
VERTEX
  5
5EC
330
5B8
100
AcDbEntity
  8
image
100
AcDbVertex
100
AcDb2dVertex
 10
9.744693052452587
 20
6.328233727343231
 30
0.0
 70
     8
  0
VERTEX
  5
5ED
330
5B8
100
AcDbEntity
  8
image
100
AcDbVertex
100
AcDb2dVertex
 10
9.761482663952945
 20
6.309521070807203
 30
0.0
 70
     8
  0
VERTEX
  5
5EE
330
5B8
100
AcDbEntity
  8
image
100
AcDbVertex
100
AcDb2dVertex
 10
9.775680622752588
 20
6.29089869742668
 30
0.0
 70
     8
  0
VERTEX
  5
5EF
330
5B8
100
AcDbEntity
  8
image
100
AcDbVertex
100
AcDb2dVertex
 10
9.787081346015318
 20
6.272702322966004
 30
0.0
 70
     8
  0
VERTEX
  5
5F0
330
5B8
100
AcDbEntity
  8
image
100
AcDbVertex
100
AcDb2dVertex
 10
9.795479250904939
 20
6.255267663189531
 30
0.0
 70
     8
  0
VERTEX
  5
5F1
330
5B8
100
AcDbEntity
  8
image
100
AcDbVertex
100
AcDb2dVertex
 10
9.800668754585258
 20
6.238930433861607
 30
0.0
 70
     8
  0
VERTEX
  5
5F2
330
5B8
100
AcDbEntity
  8
image
100
AcDbVertex
100
AcDb2dVertex
 10
9.802444274220073
 20
6.224026350746584
 30
0.0
 70
     8
  0
VERTEX
  5
5F3
330
5B8
100
AcDbEntity
  8
image
100
AcDbVertex
100
AcDb2dVertex
 10
7.556137100811467
 20
6.720119993961002
 30
0.0
 70
    16
  0
VERTEX
  5
5F4
330
5B8
100
AcDbEntity
  8
image
100
AcDbVertex
100
AcDb2dVertex
 10
7.723343839657218
 20
6.721484436219604
 30
0.0
 70
    16
  0
VERTEX
  5
5F5
330
5B8
100
AcDbEntity
  8
image
100
AcDbVertex
100
AcDb2dVertex
 10
8.209795729081747
 20
6.696420863725428
 30
0.0
 70
    16
  0
VERTEX
  5
5F6
330
5B8
100
AcDbEntity
  8
image
100
AcDbVertex
100
AcDb2dVertex
 10
8.671567490461034
 20
6.651267752024114
 30
0.0
 70
    16
  0
VERTEX
  5
5F7
330
5B8
100
AcDbEntity
  8
image
100
AcDbVertex
100
AcDb2dVertex
 10
9.158754817001497
 20
6.565922700546948
 30
0.0
 70
    16
  0
VERTEX
  5
5F8
330
5B8
100
AcDbEntity
  8
image
100
AcDbVertex
100
AcDb2dVertex
 10
9.483006838900172
 20
6.48489602745769
 30
0.0
 70
    16
  0
VERTEX
  5
5F9
330
5B8
100
AcDbEntity
  8
image
100
AcDbVertex
100
AcDb2dVertex
 10
9.725226847410517
 20
6.37436691095819
 30
0.0
 70
    16
  0
VERTEX
  5
5FA
330
5B8
100
AcDbEntity
  8
image
100
AcDbVertex
100
AcDb2dVertex
 10
9.802444274220073
 20
6.261561296756703
 30
0.0
 70
    16
  0
VERTEX
  5
5FB
330
5B8
100
AcDbEntity
  8
image
100
AcDbVertex
100
AcDb2dVertex
 10
9.802444274220073
 20
6.224026350746584
 30
0.0
 70
    16
  0
SEQEND
  5
5FC
330
5B8
100
AcDbEntity
  8
image
  0
POLYLINE
  5
5FD
330
2
100
AcDbEntity
  8
image
100
AcDb2dPolyline
 66
     1
 10
0.0
 20
0.0
 30
0.0
 70
     4
 75
     6
  0
VERTEX
  5
5FE
330
5FD
100
AcDbEntity
  8
image
100
AcDbVertex
100
AcDb2dVertex
 10
6.031062254107025
 20
4.989040304111327
 30
0.0
 70
    16
  0
VERTEX
  5
5FF
330
5FD
100
AcDbEntity
  8
image
100
AcDbVertex
100
AcDb2dVertex
 10
6.031062254107025
 20
4.989040304111327
 30
0.0
 70
     8
  0
VERTEX
  5
600
330
5FD
100
AcDbEntity
  8
image
100
AcDbVertex
100
AcDb2dVertex
 10
6.046735971671218
 20
5.089328122685387
 30
0.0
 70
     8
  0
VERTEX
  5
601
330
5FD
100
AcDbEntity
  8
image
100
AcDbVertex
100
AcDb2dVertex
 10
6.061160518427456
 20
5.182290041405277
 30
0.0
 70
     8
  0
VERTEX
  5
602
330
5FD
100
AcDbEntity
  8
image
100
AcDbVertex
100
AcDb2dVertex
 10
6.074570577730767
 20
5.268360275629241
 30
0.0
 70
     8
  0
VERTEX
  5
603
330
5FD
100
AcDbEntity
  8
image
100
AcDbVertex
100
AcDb2dVertex
 10
6.087200832936176
 20
5.34797304071553
 30
0.0
 70
     8
  0
VERTEX
  5
604
330
5FD
100
AcDbEntity
  8
image
100
AcDbVertex
100
AcDb2dVertex
 10
6.099285967398708
 20
5.421562552022383
 30
0.0
 70
     8
  0
VERTEX
  5
605
330
5FD
100
AcDbEntity
  8
image
100
AcDbVertex
100
AcDb2dVertex
 10
6.111060664473393
 20
5.489563024908047
 30
0.0
 70
     8
  0
VERTEX
  5
606
330
5FD
100
AcDbEntity
  8
image
100
AcDbVertex
100
AcDb2dVertex
 10
6.122759607515254
 20
5.552408674730767
 30
0.0
 70
     8
  0
VERTEX
  5
607
330
5FD
100
AcDbEntity
  8
image
100
AcDbVertex
100
AcDb2dVertex
 10
6.134617479879318
 20
5.610533716848792
 30
0.0
 70
     8
  0
VERTEX
  5
608
330
5FD
100
AcDbEntity
  8
image
100
AcDbVertex
100
AcDb2dVertex
 10
6.146889867672067
 20
5.664447584784021
 30
0.0
 70
     8
  0
VERTEX
  5
609
330
5FD
100
AcDbEntity
  8
image
100
AcDbVertex
100
AcDb2dVertex
 10
6.15991596800578
 20
5.714960584713015
 30
0.0
 70
     8
  0
VERTEX
  5
60A
330
5FD
100
AcDbEntity
  8
image
100
AcDbVertex
100
AcDb2dVertex
 10
6.174055880744198
 20
5.762958240975986
 30
0.0
 70
     8
  0
VERTEX
  5
60B
330
5FD
100
AcDbEntity
  8
image
100
AcDbVertex
100
AcDb2dVertex
 10
6.189669705751057
 20
5.809326077913148
 30
0.0
 70
     8
  0
VERTEX
  5
60C
330
5FD
100
AcDbEntity
  8
image
100
AcDbVertex
100
AcDb2dVertex
 10
6.207117542890095
 20
5.854949619864715
 30
0.0
 70
     8
  0
VERTEX
  5
60D
330
5FD
100
AcDbEntity
  8
image
100
AcDbVertex
100
AcDb2dVertex
 10
6.226759492025047
 20
5.900714391170904
 30
0.0
 70
     8
  0
VERTEX
  5
60E
330
5FD
100
AcDbEntity
  8
image
100
AcDbVertex
100
AcDb2dVertex
 10
6.248955653019651
 20
5.947505916171923
 30
0.0
 70
     8
  0
VERTEX
  5
60F
330
5FD
100
AcDbEntity
  8
image
100
AcDbVertex
100
AcDb2dVertex
 10
6.274066125737645
 20
5.996209719207996
 30
0.0
 70
     8
  0
VERTEX
  5
610
330
5FD
100
AcDbEntity
  8
image
100
AcDbVertex
100
AcDb2dVertex
 10
6.302321888250919
 20
6.047431631709788
 30
0.0
 70
     8
  0
VERTEX
  5
611
330
5FD
100
AcDbEntity
  8
image
100
AcDbVertex
100
AcDb2dVertex
 10
6.333437431463988
 20
6.100658713469783
 30
0.0
 70
     8
  0
VERTEX
  5
612
330
5FD
100
AcDbEntity
  8
image
100
AcDbVertex
100
AcDb2dVertex
 10
6.366998124489521
 20
6.155098331370925
 30
0.0
 70
     8
  0
VERTEX
  5
613
330
5FD
100
AcDbEntity
  8
image
100
AcDbVertex
100
AcDb2dVertex
 10
6.402589336440188
 20
6.20995785229616
 30
0.0
 70
     8
  0
VERTEX
  5
614
330
5FD
100
AcDbEntity
  8
image
100
AcDbVertex
100
AcDb2dVertex
 10
6.439796436428657
 20
6.264444643128424
 30
0.0
 70
     8
  0
VERTEX
  5
615
330
5FD
100
AcDbEntity
  8
image
100
AcDbVertex
100
AcDb2dVertex
 10
6.478204793567597
 20
6.317766070750661
 30
0.0
 70
     8
  0
VERTEX
  5
616
330
5FD
100
AcDbEntity
  8
image
100
AcDbVertex
100
AcDb2dVertex
 10
6.517399776969678
 20
6.369129502045815
 30
0.0
 70
     8
  0
VERTEX
  5
617
330
5FD
100
AcDbEntity
  8
image
100
AcDbVertex
100
AcDb2dVertex
 10
6.556966755747568
 20
6.417742303896822
 30
0.0
 70
     8
  0
VERTEX
  5
618
330
5FD
100
AcDbEntity
  8
image
100
AcDbVertex
100
AcDb2dVertex
 10
6.596522248954139
 20
6.462978077853836
 30
0.0
 70
     8
  0
VERTEX
  5
619
330
5FD
100
AcDbEntity
  8
image
100
AcDbVertex
100
AcDb2dVertex
 10
6.635807375403077
 20
6.504875364135809
 30
0.0
 70
     8
  0
VERTEX
  5
61A
330
5FD
100
AcDbEntity
  8
image
100
AcDbVertex
100
AcDb2dVertex
 10
6.674594403848269
 20
6.543638937628909
 30
0.0
 70
     8
  0
VERTEX
  5
61B
330
5FD
100
AcDbEntity
  8
image
100
AcDbVertex
100
AcDb2dVertex
 10
6.712655603043602
 20
6.579473573219289
 30
0.0
 70
     8
  0
VERTEX
  5
61C
330
5FD
100
AcDbEntity
  8
image
100
AcDbVertex
100
AcDb2dVertex
 10
6.749763241742966
 20
6.612584045793116
 30
0.0
 70
     8
  0
VERTEX
  5
61D
330
5FD
100
AcDbEntity
  8
image
100
AcDbVertex
100
AcDb2dVertex
 10
6.785689588700249
 20
6.643175130236553
 30
0.0
 70
     8
  0
VERTEX
  5
61E
330
5FD
100
AcDbEntity
  8
image
100
AcDbVertex
100
AcDb2dVertex
 10
6.820206912669334
 20
6.671451601435762
 30
0.0
 70
     8
  0
VERTEX
  5
61F
330
5FD
100
AcDbEntity
  8
image
100
AcDbVertex
100
AcDb2dVertex
 10
6.853087482404115
 20
6.697618234276902
 30
0.0
 70
     8
  0
VERTEX
  5
620
330
5FD
100
AcDbEntity
  8
image
100
AcDbVertex
100
AcDb2dVertex
 10
6.884251146674376
 20
6.721878460891179
 30
0.0
 70
     8
  0
VERTEX
  5
621
330
5FD
100
AcDbEntity
  8
image
100
AcDbVertex
100
AcDb2dVertex
 10
6.914208074313503
 20
6.744430342389968
 30
0.0
 70
     8
  0
VERTEX
  5
622
330
5FD
100
AcDbEntity
  8
image
100
AcDbVertex
100
AcDb2dVertex
 10
6.943616014170782
 20
6.765470597129681
 30
0.0
 70
     8
  0
VERTEX
  5
623
330
5FD
100
AcDbEntity
  8
image
100
AcDbVertex
100
AcDb2dVertex
 10
6.9731327150955
 20
6.785195943466742
 30
0.0
 70
     8
  0
VERTEX
  5
624
330
5FD
100
AcDbEntity
  8
image
100
AcDbVertex
100
AcDb2dVertex
 10
7.003415925936939
 20
6.803803099757566
 30
0.0
 70
     8
  0
VERTEX
  5
625
330
5FD
100
AcDbEntity
  8
image
100
AcDbVertex
100
AcDb2dVertex
 10
7.035123395544388
 20
6.821488784358571
 30
0.0
 70
     8
  0
VERTEX
  5
626
330
5FD
100
AcDbEntity
  8
image
100
AcDbVertex
100
AcDb2dVertex
 10
7.06891287276713
 20
6.838449715626168
 30
0.0
 70
     8
  0
VERTEX
  5
627
330
5FD
100
AcDbEntity
  8
image
100
AcDbVertex
100
AcDb2dVertex
 10
7.105442106454452
 20
6.854882611916782
 30
0.0
 70
     8
  0
VERTEX
  5
628
330
5FD
100
AcDbEntity
  8
image
100
AcDbVertex
100
AcDb2dVertex
 10
7.145360299951125
 20
6.870880655617927
 30
0.0
 70
     8
  0
VERTEX
  5
629
330
5FD
100
AcDbEntity
  8
image
100
AcDbVertex
100
AcDb2dVertex
 10
7.189282474583869
 20
6.886122885241533
 30
0.0
 70
     8
  0
VERTEX
  5
62A
330
5FD
100
AcDbEntity
  8
image
100
AcDbVertex
100
AcDb2dVertex
 10
7.237815106174895
 20
6.900184803330631
 30
0.0
 70
     8
  0
VERTEX
  5
62B
330
5FD
100
AcDbEntity
  8
image
100
AcDbVertex
100
AcDb2dVertex
 10
7.291564670546408
 20
6.912641912428249
 30
0.0
 70
     8
  0
VERTEX
  5
62C
330
5FD
100
AcDbEntity
  8
image
100
AcDbVertex
100
AcDb2dVertex
 10
7.351137643520617
 20
6.923069715077417
 30
0.0
 70
     8
  0
VERTEX
  5
62D
330
5FD
100
AcDbEntity
  8
image
100
AcDbVertex
100
AcDb2dVertex
 10
7.41714050091973
 20
6.931043713821168
 30
0.0
 70
     8
  0
VERTEX
  5
62E
330
5FD
100
AcDbEntity
  8
image
100
AcDbVertex
100
AcDb2dVertex
 10
7.490179718565954
 20
6.936139411202532
 30
0.0
 70
     8
  0
VERTEX
  5
62F
330
5FD
100
AcDbEntity
  8
image
100
AcDbVertex
100
AcDb2dVertex
 10
7.570861772281496
 20
6.937932309764534
 30
0.0
 70
     8
  0
VERTEX
  5
630
330
5FD
100
AcDbEntity
  8
image
100
AcDbVertex
100
AcDb2dVertex
 10
6.074733002782169
 20
5.266628322655044
 30
0.0
 70
    16
  0
VERTEX
  5
631
330
5FD
100
AcDbEntity
  8
image
100
AcDbVertex
100
AcDb2dVertex
 10
6.130418944655533
 20
5.656255235210952
 30
0.0
 70
    16
  0
VERTEX
  5
632
330
5FD
100
AcDbEntity
  8
image
100
AcDbVertex
100
AcDb2dVertex
 10
6.239139068808301
 20
5.966366493871849
 30
0.0
 70
    16
  0
VERTEX
  5
633
330
5FD
100
AcDbEntity
  8
image
100
AcDbVertex
100
AcDb2dVertex
 10
6.55742153453713
 20
6.455537104549634
 30
0.0
 70
    16
  0
VERTEX
  5
634
330
5FD
100
AcDbEntity
  8
image
100
AcDbVertex
100
AcDb2dVertex
 10
6.872975327528582
 20
6.717938911310564
 30
0.0
 70
    16
  0
VERTEX
  5
635
330
5FD
100
AcDbEntity
  8
image
100
AcDbVertex
100
AcDb2dVertex
 10
7.069202049773229
 20
6.858416655869522
 30
0.0
 70
    16
  0
VERTEX
  5
636
330
5FD
100
AcDbEntity
  8
image
100
AcDbVertex
100
AcDb2dVertex
 10
7.344980091327883
 20
6.937932309764534
 30
0.0
 70
    16
  0
VERTEX
  5
637
330
5FD
100
AcDbEntity
  8
image
100
AcDbVertex
100
AcDb2dVertex
 10
7.570861772281496
 20
6.937932309764534
 30
0.0
 70
    16
  0
SEQEND
  5
638
330
5FD
100
AcDbEntity
  8
image
  0
POLYLINE
  5
639
330
2
100
AcDbEntity
  8
image
100
AcDb2dPolyline
 66
     1
 10
0.0
 20
0.0
 30
0.0
 70
     4
 75
     6
  0
VERTEX
  5
63A
330
639
100
AcDbEntity
  8
image
100
AcDbVertex
100
AcDb2dVertex
 10
5.994497175867758
 20
4.994792801464964
 30
0.0
 70
    16
  0
VERTEX
  5
63B
330
639
100
AcDbEntity
  8
image
100
AcDbVertex
100
AcDb2dVertex
 10
5.994497175867758
 20
4.994792801464964
 30
0.0
 70
     8
  0
VERTEX
  5
63C
330
639
100
AcDbEntity
  8
image
100
AcDbVertex
100
AcDb2dVertex
 10
6.010168851401849
 20
5.095071288905536
 30
0.0
 70
     8
  0
VERTEX
  5
63D
330
639
100
AcDbEntity
  8
image
100
AcDbVertex
100
AcDb2dVertex
 10
6.024618028932033
 20
5.188186731925828
 30
0.0
 70
     8
  0
VERTEX
  5
63E
330
639
100
AcDbEntity
  8
image
100
AcDbVertex
100
AcDb2dVertex
 10
6.03807995568713
 20
5.274555953004945
 30
0.0
 70
     8
  0
VERTEX
  5
63F
330
639
100
AcDbEntity
  8
image
100
AcDbVertex
100
AcDb2dVertex
 10
6.050789878895965
 20
5.354595774621991
 30
0.0
 70
     8
  0
VERTEX
  5
640
330
639
100
AcDbEntity
  8
image
100
AcDbVertex
100
AcDb2dVertex
 10
6.06298304578736
 20
5.428723019256064
 30
0.0
 70
     8
  0
VERTEX
  5
641
330
639
100
AcDbEntity
  8
image
100
AcDbVertex
100
AcDb2dVertex
 10
6.074894703590137
 20
5.497354509386269
 30
0.0
 70
     8
  0
VERTEX
  5
642
330
639
100
AcDbEntity
  8
image
100
AcDbVertex
100
AcDb2dVertex
 10
6.086760099533119
 20
5.560907067491712
 30
0.0
 70
     8
  0
VERTEX
  5
643
330
639
100
AcDbEntity
  8
image
100
AcDbVertex
100
AcDb2dVertex
 10
6.098814480845129
 20
5.619797516051495
 30
0.0
 70
     8
  0
VERTEX
  5
644
330
639
100
AcDbEntity
  8
image
100
AcDbVertex
100
AcDb2dVertex
 10
6.111314180509738
 20
5.674520199384343
 30
0.0
 70
     8
  0
VERTEX
  5
645
330
639
100
AcDbEntity
  8
image
100
AcDbVertex
100
AcDb2dVertex
 10
6.124599874529513
 20
5.725879549167473
 30
0.0
 70
     8
  0
VERTEX
  5
646
330
639
100
AcDbEntity
  8
image
100
AcDbVertex
100
AcDb2dVertex
 10
6.139033324661768
 20
5.77475751891772
 30
0.0
 70
     8
  0
VERTEX
  5
647
330
639
100
AcDbEntity
  8
image
100
AcDbVertex
100
AcDb2dVertex
 10
6.154976292663821
 20
5.822036062151926
 30
0.0
 70
     8
  0
VERTEX
  5
648
330
639
100
AcDbEntity
  8
image
100
AcDbVertex
100
AcDb2dVertex
 10
6.172790540292986
 20
5.868597132386927
 30
0.0
 70
     8
  0
VERTEX
  5
649
330
639
100
AcDbEntity
  8
image
100
AcDbVertex
100
AcDb2dVertex
 10
6.192837829306578
 20
5.915322683139564
 30
0.0
 70
     8
  0
VERTEX
  5
64A
330
639
100
AcDbEntity
  8
image
100
AcDbVertex
100
AcDb2dVertex
 10
6.215479921461913
 20
5.963094667926672
 30
0.0
 70
     8
  0
VERTEX
  5
64B
330
639
100
AcDbEntity
  8
image
100
AcDbVertex
100
AcDb2dVertex
 10
6.241078578516304
 20
6.012795040265093
 30
0.0
 70
     8
  0
VERTEX
  5
64C
330
639
100
AcDbEntity
  8
image
100
AcDbVertex
100
AcDb2dVertex
 10
6.269865200199484
 20
6.065025095263738
 30
0.0
 70
     8
  0
VERTEX
  5
64D
330
639
100
AcDbEntity
  8
image
100
AcDbVertex
100
AcDb2dVertex
 10
6.301549738130834
 20
6.119263494399842
 30
0.0
 70
     8
  0
VERTEX
  5
64E
330
639
100
AcDbEntity
  8
image
100
AcDbVertex
100
AcDb2dVertex
 10
6.335711781902155
 20
6.17470824074271
 30
0.0
 70
     8
  0
VERTEX
  5
64F
330
639
100
AcDbEntity
  8
image
100
AcDbVertex
100
AcDb2dVertex
 10
6.371930921105246
 20
6.230557337361648
 30
0.0
 70
     8
  0
VERTEX
  5
650
330
639
100
AcDbEntity
  8
image
100
AcDbVertex
100
AcDb2dVertex
 10
6.409786745331903
 20
6.286008787325968
 30
0.0
 70
     8
  0
VERTEX
  5
651
330
639
100
AcDbEntity
  8
image
100
AcDbVertex
100
AcDb2dVertex
 10
6.448858844173924
 20
6.340260593704975
 30
0.0
 70
     8
  0
VERTEX
  5
652
330
639
100
AcDbEntity
  8
image
100
AcDbVertex
100
AcDb2dVertex
 10
6.488726807223113
 20
6.392510759567976
 30
0.0
 70
     8
  0
VERTEX
  5
653
330
639
100
AcDbEntity
  8
image
100
AcDbVertex
100
AcDb2dVertex
 10
6.528970224071262
 20
6.441957287984276
 30
0.0
 70
     8
  0
VERTEX
  5
654
330
639
100
AcDbEntity
  8
image
100
AcDbVertex
100
AcDb2dVertex
 10
6.569201148472338
 20
6.487967292483634
 30
0.0
 70
     8
  0
VERTEX
  5
655
330
639
100
AcDbEntity
  8
image
100
AcDbVertex
100
AcDb2dVertex
 10
6.609161490828967
 20
6.530584328437583
 30
0.0
 70
     8
  0
VERTEX
  5
656
330
639
100
AcDbEntity
  8
image
100
AcDbVertex
100
AcDb2dVertex
 10
6.648625625705939
 20
6.570021061678112
 30
0.0
 70
     8
  0
VERTEX
  5
657
330
639
100
AcDbEntity
  8
image
100
AcDbVertex
100
AcDb2dVertex
 10
6.687367927668047
 20
6.6064901580372
 30
0.0
 70
     8
  0
VERTEX
  5
658
330
639
100
AcDbEntity
  8
image
100
AcDbVertex
100
AcDb2dVertex
 10
6.725162771280078
 20
6.640204283346832
 30
0.0
 70
     8
  0
VERTEX
  5
659
330
639
100
AcDbEntity
  8
image
100
AcDbVertex
100
AcDb2dVertex
 10
6.76178453110683
 20
6.671376103438991
 30
0.0
 70
     8
  0
VERTEX
  5
65A
330
639
100
AcDbEntity
  8
image
100
AcDbVertex
100
AcDb2dVertex
 10
6.797007581713087
 20
6.700218284145666
 30
0.0
 70
     8
  0
VERTEX
  5
65B
330
639
100
AcDbEntity
  8
image
100
AcDbVertex
100
AcDb2dVertex
 10
6.830606297663644
 20
6.726943491298833
 30
0.0
 70
     8
  0
VERTEX
  5
65C
330
639
100
AcDbEntity
  8
image
100
AcDbVertex
100
AcDb2dVertex
 10
6.86250538046708
 20
6.751761825543503
 30
0.0
 70
     8
  0
VERTEX
  5
65D
330
639
100
AcDbEntity
  8
image
100
AcDbVertex
100
AcDb2dVertex
 10
6.893230839407127
 20
6.774873126776768
 30
0.0
 70
     8
  0
VERTEX
  5
65E
330
639
100
AcDbEntity
  8
image
100
AcDbVertex
100
AcDb2dVertex
 10
6.923459010711304
 20
6.796474669708732
 30
0.0
 70
     8
  0
VERTEX
  5
65F
330
639
100
AcDbEntity
  8
image
100
AcDbVertex
100
AcDb2dVertex
 10
6.953866230607133
 20
6.816763729049512
 30
0.0
 70
     8
  0
VERTEX
  5
660
330
639
100
AcDbEntity
  8
image
100
AcDbVertex
100
AcDb2dVertex
 10
6.985128835322132
 20
6.83593757950922
 30
0.0
 70
     8
  0
VERTEX
  5
661
330
639
100
AcDbEntity
  8
image
100
AcDbVertex
100
AcDb2dVertex
 10
7.017923161083821
 20
6.854193495797964
 30
0.0
 70
     8
  0
VERTEX
  5
662
330
639
100
AcDbEntity
  8
image
100
AcDbVertex
100
AcDb2dVertex
 10
7.052925544119721
 20
6.871728752625863
 30
0.0
 70
     8
  0
VERTEX
  5
663
330
639
100
AcDbEntity
  8
image
100
AcDbVertex
100
AcDb2dVertex
 10
7.090812320657352
 20
6.888740624703022
 30
0.0
 70
     8
  0
VERTEX
  5
664
330
639
100
AcDbEntity
  8
image
100
AcDbVertex
100
AcDb2dVertex
 10
7.132244117404621
 20
6.905319512529466
 30
0.0
 70
     8
  0
VERTEX
  5
665
330
639
100
AcDbEntity
  8
image
100
AcDbVertex
100
AcDb2dVertex
 10
7.177818722990986
 20
6.921128319764861
 30
0.0
 70
     8
  0
VERTEX
  5
666
330
639
100
AcDbEntity
  8
image
100
AcDbVertex
100
AcDb2dVertex
 10
7.228118216526292
 20
6.935723075858788
 30
0.0
 70
     8
  0
VERTEX
  5
667
330
639
100
AcDbEntity
  8
image
100
AcDbVertex
100
AcDb2dVertex
 10
7.283724677120382
 20
6.948659810260824
 30
0.0
 70
     8
  0
VERTEX
  5
668
330
639
100
AcDbEntity
  8
image
100
AcDbVertex
100
AcDb2dVertex
 10
7.345220183883103
 20
6.959494552420547
 30
0.0
 70
     8
  0
VERTEX
  5
669
330
639
100
AcDbEntity
  8
image
100
AcDbVertex
100
AcDb2dVertex
 10
7.4131868159243
 20
6.96778333178754
 30
0.0
 70
     8
  0
VERTEX
  5
66A
330
639
100
AcDbEntity
  8
image
100
AcDbVertex
100
AcDb2dVertex
 10
7.488206652353815
 20
6.973082177811377
 30
0.0
 70
     8
  0
VERTEX
  5
66B
330
639
100
AcDbEntity
  8
image
100
AcDbVertex
100
AcDb2dVertex
 10
7.570861772281496
 20
6.974947119941639
 30
0.0
 70
     8
  0
VERTEX
  5
66C
330
639
100
AcDbEntity
  8
image
100
AcDbVertex
100
AcDb2dVertex
 10
6.038127416611722
 20
5.27212333607051
 30
0.0
 70
    16
  0
VERTEX
  5
66D
330
639
100
AcDbEntity
  8
image
100
AcDbVertex
100
AcDb2dVertex
 10
6.094289333134724
 20
5.665080578094773
 30
0.0
 70
    16
  0
VERTEX
  5
66E
330
639
100
AcDbEntity
  8
image
100
AcDbVertex
100
AcDb2dVertex
 10
6.205683094181656
 20
5.982818068871502
 30
0.0
 70
    16
  0
VERTEX
  5
66F
330
639
100
AcDbEntity
  8
image
100
AcDbVertex
100
AcDb2dVertex
 10
6.529449761236476
 20
6.480417388009776
 30
0.0
 70
    16
  0
VERTEX
  5
670
330
639
100
AcDbEntity
  8
image
100
AcDbVertex
100
AcDb2dVertex
 10
6.850339205300011
 20
6.747256106995049
 30
0.0
 70
    16
  0
VERTEX
  5
671
330
639
100
AcDbEntity
  8
image
100
AcDbVertex
100
AcDb2dVertex
 10
7.052831203545345
 20
6.892219131803035
 30
0.0
 70
    16
  0
VERTEX
  5
672
330
639
100
AcDbEntity
  8
image
100
AcDbVertex
100
AcDb2dVertex
 10
7.339750337490265
 20
6.974947119941639
 30
0.0
 70
    16
  0
VERTEX
  5
673
330
639
100
AcDbEntity
  8
image
100
AcDbVertex
100
AcDb2dVertex
 10
7.570861772281496
 20
6.974947119941639
 30
0.0
 70
    16
  0
SEQEND
  5
674
330
639
100
AcDbEntity
  8
image
  0
POLYLINE
  5
675
330
2
100
AcDbEntity
  8
image
100
AcDb2dPolyline
 66
     1
 10
0.0
 20
0.0
 30
0.0
 70
     4
 75
     6
  0
VERTEX
  5
676
330
675
100
AcDbEntity
  8
image
100
AcDbVertex
100
AcDb2dVertex
 10
7.93731518070972
 20
6.940915580019243
 30
0.0
 70
    16
  0
VERTEX
  5
677
330
675
100
AcDbEntity
  8
image
100
AcDbVertex
100
AcDb2dVertex
 10
7.93731518070972
 20
6.940915580019243
 30
0.0
 70
     8
  0
VERTEX
  5
678
330
675
100
AcDbEntity
  8
image
100
AcDbVertex
100
AcDb2dVertex
 10
7.967376528964406
 20
6.940452532173793
 30
0.0
 70
     8
  0
VERTEX
  5
679
330
675
100
AcDbEntity
  8
image
100
AcDbVertex
100
AcDb2dVertex
 10
7.996254778797073
 20
6.93899967740765
 30
0.0
 70
     8
  0
VERTEX
  5
67A
330
675
100
AcDbEntity
  8
image
100
AcDbVertex
100
AcDb2dVertex
 10
8.025423580267325
 20
6.936461448876123
 30
0.0
 70
     8
  0
VERTEX
  5
67B
330
675
100
AcDbEntity
  8
image
100
AcDbVertex
100
AcDb2dVertex
 10
8.056356583434769
 20
6.932742279734522
 30
0.0
 70
     8
  0
VERTEX
  5
67C
330
675
100
AcDbEntity
  8
image
100
AcDbVertex
100
AcDb2dVertex
 10
8.090527438359004
 20
6.927746603138157
 30
0.0
 70
     8
  0
VERTEX
  5
67D
330
675
100
AcDbEntity
  8
image
100
AcDbVertex
100
AcDb2dVertex
 10
8.129409795099633
 20
6.921378852242341
 30
0.0
 70
     8
  0
VERTEX
  5
67E
330
675
100
AcDbEntity
  8
image
100
AcDbVertex
100
AcDb2dVertex
 10
8.174477303716265
 20
6.913543460202379
 30
0.0
 70
     8
  0
VERTEX
  5
67F
330
675
100
AcDbEntity
  8
image
100
AcDbVertex
100
AcDb2dVertex
 10
8.2272036142685
 20
6.90414486017358
 30
0.0
 70
     8
  0
VERTEX
  5
680
330
675
100
AcDbEntity
  8
image
100
AcDbVertex
100
AcDb2dVertex
 10
8.288521475936882
 20
6.893146627197523
 30
0.0
 70
     8
  0
VERTEX
  5
681
330
675
100
AcDbEntity
  8
image
100
AcDbVertex
100
AcDb2dVertex
 10
8.357200034385737
 20
6.880748903860794
 30
0.0
 70
     8
  0
VERTEX
  5
682
330
675
100
AcDbEntity
  8
image
100
AcDbVertex
100
AcDb2dVertex
 10
8.431467534400333
 20
6.86721097463625
 30
0.0
 70
     8
  0
VERTEX
  5
683
330
675
100
AcDbEntity
  8
image
100
AcDbVertex
100
AcDb2dVertex
 10
8.509552220765932
 20
6.852792123996749
 30
0.0
 70
     8
  0
VERTEX
  5
684
330
675
100
AcDbEntity
  8
image
100
AcDbVertex
100
AcDb2dVertex
 10
8.589682338267802
 20
6.837751636415141
 30
0.0
 70
     8
  0
VERTEX
  5
685
330
675
100
AcDbEntity
  8
image
100
AcDbVertex
100
AcDb2dVertex
 10
8.67008613169121
 20
6.822348796364284
 30
0.0
 70
     8
  0
VERTEX
  5
686
330
675
100
AcDbEntity
  8
image
100
AcDbVertex
100
AcDb2dVertex
 10
8.74899184582142
 20
6.806842888317031
 30
0.0
 70
     8
  0
VERTEX
  5
687
330
675
100
AcDbEntity
  8
image
100
AcDbVertex
100
AcDb2dVertex
 10
8.824627725443697
 20
6.791493196746237
 30
0.0
 70
     8
  0
VERTEX
  5
688
330
675
100
AcDbEntity
  8
image
100
AcDbVertex
100
AcDb2dVertex
 10
8.895616658354834
 20
6.776484415435881
 30
0.0
 70
     8
  0
VERTEX
  5
689
330
675
100
AcDbEntity
  8
image
100
AcDbVertex
100
AcDb2dVertex
 10
8.962160104397714
 20
6.76170287541446
 30
0.0
 70
     8
  0
VERTEX
  5
68A
330
675
100
AcDbEntity
  8
image
100
AcDbVertex
100
AcDb2dVertex
 10
9.024854166426743
 20
6.746960317021592
 30
0.0
 70
     8
  0
VERTEX
  5
68B
330
675
100
AcDbEntity
  8
image
100
AcDbVertex
100
AcDb2dVertex
 10
9.084294947296333
 20
6.732068480596897
 30
0.0
 70
     8
  0
VERTEX
  5
68C
330
675
100
AcDbEntity
  8
image
100
AcDbVertex
100
AcDb2dVertex
 10
9.141078549860891
 20
6.716839106479994
 30
0.0
 70
     8
  0
VERTEX
  5
68D
330
675
100
AcDbEntity
  8
image
100
AcDbVertex
100
AcDb2dVertex
 10
9.195801076974822
 20
6.701083935010508
 30
0.0
 70
     8
  0
VERTEX
  5
68E
330
675
100
AcDbEntity
  8
image
100
AcDbVertex
100
AcDb2dVertex
 10
9.249058631492538
 20
6.684614706528051
 30
0.0
 70
     8
  0
VERTEX
  5
68F
330
675
100
AcDbEntity
  8
image
100
AcDbVertex
100
AcDb2dVertex
 10
9.301447316268443
 20
6.667243161372251
 30
0.0
 70
     8
  0
VERTEX
  5
690
330
675
100
AcDbEntity
  8
image
100
AcDbVertex
100
AcDb2dVertex
 10
9.353364028076967
 20
6.648857563197594
 30
0.0
 70
     8
  0
VERTEX
  5
691
330
675
100
AcDbEntity
  8
image
100
AcDbVertex
100
AcDb2dVertex
 10
9.404408839372603
 20
6.62965226891805
 30
0.0
 70
     8
  0
VERTEX
  5
692
330
675
100
AcDbEntity
  8
image
100
AcDbVertex
100
AcDb2dVertex
 10
9.453982616529867
 20
6.609898158762458
 30
0.0
 70
     8
  0
VERTEX
  5
693
330
675
100
AcDbEntity
  8
image
100
AcDbVertex
100
AcDb2dVertex
 10
9.501486225923269
 20
6.589866112959658
 30
0.0
 70
     8
  0
VERTEX
  5
694
330
675
100
AcDbEntity
  8
image
100
AcDbVertex
100
AcDb2dVertex
 10
9.546320533927326
 20
6.569827011738492
 30
0.0
 70
     8
  0
VERTEX
  5
695
330
675
100
AcDbEntity
  8
image
100
AcDbVertex
100
AcDb2dVertex
 10
9.587886406916549
 20
6.550051735327798
 30
0.0
 70
     8
  0
VERTEX
  5
696
330
675
100
AcDbEntity
  8
image
100
AcDbVertex
100
AcDb2dVertex
 10
9.625584711265451
 20
6.530811163956411
 30
0.0
 70
     8
  0
VERTEX
  5
697
330
675
100
AcDbEntity
  8
image
100
AcDbVertex
100
AcDb2dVertex
 10
9.65881631334855
 20
6.512376177853177
 30
0.0
 70
     8
  0
VERTEX
  5
698
330
675
100
AcDbEntity
  8
image
100
AcDbVertex
100
AcDb2dVertex
 10
9.687179095793972
 20
6.494929152451643
 30
0.0
 70
     8
  0
VERTEX
  5
699
330
675
100
AcDbEntity
  8
image
100
AcDbVertex
100
AcDb2dVertex
 10
9.711059006244314
 20
6.478298444004202
 30
0.0
 70
     8
  0
VERTEX
  5
69A
330
675
100
AcDbEntity
  8
image
100
AcDbVertex
100
AcDb2dVertex
 10
9.731039008595791
 20
6.462223903967956
 30
0.0
 70
     8
  0
VERTEX
  5
69B
330
675
100
AcDbEntity
  8
image
100
AcDbVertex
100
AcDb2dVertex
 10
9.747702066744617
 20
6.446445383800011
 30
0.0
 70
     8
  0
VERTEX
  5
69C
330
675
100
AcDbEntity
  8
image
100
AcDbVertex
100
AcDb2dVertex
 10
9.761631144587003
 20
6.430702734957467
 30
0.0
 70
     8
  0
VERTEX
  5
69D
330
675
100
AcDbEntity
  8
image
100
AcDbVertex
100
AcDb2dVertex
 10
9.773409206019165
 20
6.414735808897429
 30
0.0
 70
     8
  0
VERTEX
  5
69E
330
675
100
AcDbEntity
  8
image
100
AcDbVertex
100
AcDb2dVertex
 10
9.783619214937317
 20
6.398284457077
 30
0.0
 70
     8
  0
VERTEX
  5
69F
330
675
100
AcDbEntity
  8
image
100
AcDbVertex
100
AcDb2dVertex
 10
9.79284413523767
 20
6.381088530953277
 30
0.0
 70
     8
  0
VERTEX
  5
6A0
330
675
100
AcDbEntity
  8
image
100
AcDbVertex
100
AcDb2dVertex
 10
9.801540032148752
 20
6.362963131453785
 30
0.0
 70
     8
  0
VERTEX
  5
6A1
330
675
100
AcDbEntity
  8
image
100
AcDbVertex
100
AcDb2dVertex
 10
9.809655376228326
 20
6.344024357387656
 30
0.0
 70
     8
  0
VERTEX
  5
6A2
330
675
100
AcDbEntity
  8
image
100
AcDbVertex
100
AcDb2dVertex
 10
9.817011739366471
 20
6.324463557034448
 30
0.0
 70
     8
  0
VERTEX
  5
6A3
330
675
100
AcDbEntity
  8
image
100
AcDbVertex
100
AcDb2dVertex
 10
9.823430693453264
 20
6.304472078673718
 30
0.0
 70
     8
  0
VERTEX
  5
6A4
330
675
100
AcDbEntity
  8
image
100
AcDbVertex
100
AcDb2dVertex
 10
9.828733810378786
 20
6.28424127058501
 30
0.0
 70
     8
  0
VERTEX
  5
6A5
330
675
100
AcDbEntity
  8
image
100
AcDbVertex
100
AcDb2dVertex
 10
9.832742662033108
 20
6.263962481047883
 30
0.0
 70
     8
  0
VERTEX
  5
6A6
330
675
100
AcDbEntity
  8
image
100
AcDbVertex
100
AcDb2dVertex
 10
9.835278820306312
 20
6.243827058341892
 30
0.0
 70
     8
  0
VERTEX
  5
6A7
330
675
100
AcDbEntity
  8
image
100
AcDbVertex
100
AcDb2dVertex
 10
9.836163857088473
 20
6.224026350746584
 30
0.0
 70
     8
  0
VERTEX
  5
6A8
330
675
100
AcDbEntity
  8
image
100
AcDbVertex
100
AcDb2dVertex
 10
8.020366151782329
 20
6.940915580019243
 30
0.0
 70
    16
  0
VERTEX
  5
6A9
330
675
100
AcDbEntity
  8
image
100
AcDbVertex
100
AcDb2dVertex
 10
8.129790792986298
 20
6.921838458397829
 30
0.0
 70
    16
  0
VERTEX
  5
6AA
330
675
100
AcDbEntity
  8
image
100
AcDbVertex
100
AcDb2dVertex
 10
8.878404682485459
 20
6.787061186620231
 30
0.0
 70
    16
  0
VERTEX
  5
6AB
330
675
100
AcDbEntity
  8
image
100
AcDbVertex
100
AcDb2dVertex
 10
9.30435682973405
 20
6.678875975598664
 30
0.0
 70
    16
  0
VERTEX
  5
6AC
330
675
100
AcDbEntity
  8
image
100
AcDbVertex
100
AcDb2dVertex
 10
9.712851896189004
 20
6.500893879218619
 30
0.0
 70
    16
  0
VERTEX
  5
6AD
330
675
100
AcDbEntity
  8
image
100
AcDbVertex
100
AcDb2dVertex
 10
9.79713346560123
 20
6.391805574645921
 30
0.0
 70
    16
  0
VERTEX
  5
6AE
330
675
100
AcDbEntity
  8
image
100
AcDbVertex
100
AcDb2dVertex
 10
9.836163857088473
 20
6.276211863493553
 30
0.0
 70
    16
  0
VERTEX
  5
6AF
330
675
100
AcDbEntity
  8
image
100
AcDbVertex
100
AcDb2dVertex
 10
9.836163857088473
 20
6.224026350746584
 30
0.0
 70
    16
  0
SEQEND
  5
6B0
330
675
100
AcDbEntity
  8
image
  0
POLYLINE
  5
6B1
330
2
100
AcDbEntity
  8
image
100
AcDb2dPolyline
 66
     1
 10
0.0
 20
0.0
 30
0.0
 70
     4
 75
     6
  0
VERTEX
  5
6B2
330
6B1
100
AcDbEntity
  8
image
100
AcDbVertex
100
AcDb2dVertex
 10
7.93731518070972
 20
6.977930390196348
 30
0.0
 70
    16
  0
VERTEX
  5
6B3
330
6B1
100
AcDbEntity
  8
image
100
AcDbVertex
100
AcDb2dVertex
 10
7.93731518070972
 20
6.977930390196348
 30
0.0
 70
     8
  0
VERTEX
  5
6B4
330
6B1
100
AcDbEntity
  8
image
100
AcDbVertex
100
AcDb2dVertex
 10
7.968505566523948
 20
6.977454790046149
 30
0.0
 70
     8
  0
VERTEX
  5
6B5
330
6B1
100
AcDbEntity
  8
image
100
AcDbVertex
100
AcDb2dVertex
 10
7.998376853164106
 20
6.975967278822611
 30
0.0
 70
     8
  0
VERTEX
  5
6B6
330
6B1
100
AcDbEntity
  8
image
100
AcDbVertex
100
AcDb2dVertex
 10
8.02841431519009
 20
6.97337679036633
 30
0.0
 70
     8
  0
VERTEX
  5
6B7
330
6B1
100
AcDbEntity
  8
image
100
AcDbVertex
100
AcDb2dVertex
 10
8.060103227161789
 20
6.969592258517902
 30
0.0
 70
     8
  0
VERTEX
  5
6B8
330
6B1
100
AcDbEntity
  8
image
100
AcDbVertex
100
AcDb2dVertex
 10
8.094928863639104
 20
6.964522617117914
 30
0.0
 70
     8
  0
VERTEX
  5
6B9
330
6B1
100
AcDbEntity
  8
image
100
AcDbVertex
100
AcDb2dVertex
 10
8.134376499181925
 20
6.958076800006967
 30
0.0
 70
     8
  0
VERTEX
  5
6BA
330
6B1
100
AcDbEntity
  8
image
100
AcDbVertex
100
AcDb2dVertex
 10
8.179931408350142
 20
6.950163741025647
 30
0.0
 70
     8
  0
VERTEX
  5
6BB
330
6B1
100
AcDbEntity
  8
image
100
AcDbVertex
100
AcDb2dVertex
 10
8.233078865703657
 20
6.940692374014556
 30
0.0
 70
     8
  0
VERTEX
  5
6BC
330
6B1
100
AcDbEntity
  8
image
100
AcDbVertex
100
AcDb2dVertex
 10
8.294763355558899
 20
6.929629564240073
 30
0.0
 70
     8
  0
VERTEX
  5
6BD
330
6B1
100
AcDbEntity
  8
image
100
AcDbVertex
100
AcDb2dVertex
 10
8.363766201258496
 20
6.917173902671748
 30
0.0
 70
     8
  0
VERTEX
  5
6BE
330
6B1
100
AcDbEntity
  8
image
100
AcDbVertex
100
AcDb2dVertex
 10
8.438327935901607
 20
6.903581911704936
 30
0.0
 70
     8
  0
VERTEX
  5
6BF
330
6B1
100
AcDbEntity
  8
image
100
AcDbVertex
100
AcDb2dVertex
 10
8.516689092587402
 20
6.889110113734975
 30
0.0
 70
     8
  0
VERTEX
  5
6C0
330
6B1
100
AcDbEntity
  8
image
100
AcDbVertex
100
AcDb2dVertex
 10
8.597090204415042
 20
6.874015031157217
 30
0.0
 70
     8
  0
VERTEX
  5
6C1
330
6B1
100
AcDbEntity
  8
image
100
AcDbVertex
100
AcDb2dVertex
 10
8.677771804483693
 20
6.858553186367
 30
0.0
 70
     8
  0
VERTEX
  5
6C2
330
6B1
100
AcDbEntity
  8
image
100
AcDbVertex
100
AcDb2dVertex
 10
8.75697442589252
 20
6.842981101759672
 30
0.0
 70
     8
  0
VERTEX
  5
6C3
330
6B1
100
AcDbEntity
  8
image
100
AcDbVertex
100
AcDb2dVertex
 10
8.832938601740687
 20
6.827555299730576
 30
0.0
 70
     8
  0
VERTEX
  5
6C4
330
6B1
100
AcDbEntity
  8
image
100
AcDbVertex
100
AcDb2dVertex
 10
8.904298919197165
 20
6.812457157231822
 30
0.0
 70
     8
  0
VERTEX
  5
6C5
330
6B1
100
AcDbEntity
  8
image
100
AcDbVertex
100
AcDb2dVertex
 10
8.97126618171014
 20
6.797567469442544
 30
0.0
 70
     8
  0
VERTEX
  5
6C6
330
6B1
100
AcDbEntity
  8
image
100
AcDbVertex
100
AcDb2dVertex
 10
9.0344452467976
 20
6.782691886098632
 30
0.0
 70
     8
  0
VERTEX
  5
6C7
330
6B1
100
AcDbEntity
  8
image
100
AcDbVertex
100
AcDb2dVertex
 10
9.094440971977538
 20
6.767636056935987
 30
0.0
 70
     8
  0
VERTEX
  5
6C8
330
6B1
100
AcDbEntity
  8
image
100
AcDbVertex
100
AcDb2dVertex
 10
9.151858214767944
 20
6.752205631690504
 30
0.0
 70
     8
  0
VERTEX
  5
6C9
330
6B1
100
AcDbEntity
  8
image
100
AcDbVertex
100
AcDb2dVertex
 10
9.207301832686809
 20
6.736206260098079
 30
0.0
 70
     8
  0
VERTEX
  5
6CA
330
6B1
100
AcDbEntity
  8
image
100
AcDbVertex
100
AcDb2dVertex
 10
9.261376683252123
 20
6.719443591894602
 30
0.0
 70
     8
  0
VERTEX
  5
6CB
330
6B1
100
AcDbEntity
  8
image
100
AcDbVertex
100
AcDb2dVertex
 10
9.314687623981878
 20
6.701723276815975
 30
0.0
 70
     8
  0
VERTEX
  5
6CC
330
6B1
100
AcDbEntity
  8
image
100
AcDbVertex
100
AcDb2dVertex
 10
9.367635871735597
 20
6.682927364395897
 30
0.0
 70
     8
  0
VERTEX
  5
6CD
330
6B1
100
AcDbEntity
  8
image
100
AcDbVertex
100
AcDb2dVertex
 10
9.419808080738945
 20
6.663243503359325
 30
0.0
 70
     8
  0
VERTEX
  5
6CE
330
6B1
100
AcDbEntity
  8
image
100
AcDbVertex
100
AcDb2dVertex
 10
9.470587264559121
 20
6.642935742229013
 30
0.0
 70
     8
  0
VERTEX
  5
6CF
330
6B1
100
AcDbEntity
  8
image
100
AcDbVertex
100
AcDb2dVertex
 10
9.51935643676332
 20
6.622268129527725
 30
0.0
 70
     8
  0
VERTEX
  5
6D0
330
6B1
100
AcDbEntity
  8
image
100
AcDbVertex
100
AcDb2dVertex
 10
9.565498610918741
 20
6.601504713778219
 30
0.0
 70
     8
  0
VERTEX
  5
6D1
330
6B1
100
AcDbEntity
  8
image
100
AcDbVertex
100
AcDb2dVertex
 10
9.608396800592583
 20
6.580909543503253
 30
0.0
 70
     8
  0
VERTEX
  5
6D2
330
6B1
100
AcDbEntity
  8
image
100
AcDbVertex
100
AcDb2dVertex
 10
9.647434019352044
 20
6.56074666722559
 30
0.0
 70
     8
  0
VERTEX
  5
6D3
330
6B1
100
AcDbEntity
  8
image
100
AcDbVertex
100
AcDb2dVertex
 10
9.681993280764322
 20
6.541280133467992
 30
0.0
 70
     8
  0
VERTEX
  5
6D4
330
6B1
100
AcDbEntity
  8
image
100
AcDbVertex
100
AcDb2dVertex
 10
9.711656991471253
 20
6.522687402947745
 30
0.0
 70
     8
  0
VERTEX
  5
6D5
330
6B1
100
AcDbEntity
  8
image
100
AcDbVertex
100
AcDb2dVertex
 10
9.736805130413241
 20
6.504799585160252
 30
0.0
 70
     8
  0
VERTEX
  5
6D6
330
6B1
100
AcDbEntity
  8
image
100
AcDbVertex
100
AcDb2dVertex
 10
9.75801706960533
 20
6.487361201795454
 30
0.0
 70
     8
  0
VERTEX
  5
6D7
330
6B1
100
AcDbEntity
  8
image
100
AcDbVertex
100
AcDb2dVertex
 10
9.775872181062558
 20
6.470116774543281
 30
0.0
 70
     8
  0
VERTEX
  5
6D8
330
6B1
100
AcDbEntity
  8
image
100
AcDbVertex
100
AcDb2dVertex
 10
9.79094983679997
 20
6.452810825093667
 30
0.0
 70
     8
  0
VERTEX
  5
6D9
330
6B1
100
AcDbEntity
  8
image
100
AcDbVertex
100
AcDb2dVertex
 10
9.803829408832609
 20
6.435187875136548
 30
0.0
 70
     8
  0
VERTEX
  5
6DA
330
6B1
100
AcDbEntity
  8
image
100
AcDbVertex
100
AcDb2dVertex
 10
9.815090269175517
 20
6.416992446361859
 30
0.0
 70
     8
  0
VERTEX
  5
6DB
330
6B1
100
AcDbEntity
  8
image
100
AcDbVertex
100
AcDb2dVertex
 10
9.825311789843734
 20
6.397969060459537
 30
0.0
 70
     8
  0
VERTEX
  5
6DC
330
6B1
100
AcDbEntity
  8
image
100
AcDbVertex
100
AcDb2dVertex
 10
9.834944409841682
 20
6.377937841133782
 30
0.0
 70
     8
  0
VERTEX
  5
6DD
330
6B1
100
AcDbEntity
  8
image
100
AcDbVertex
100
AcDb2dVertex
 10
9.843922836131273
 20
6.357021320145907
 30
0.0
 70
     8
  0
VERTEX
  5
6DE
330
6B1
100
AcDbEntity
  8
image
100
AcDbVertex
100
AcDb2dVertex
 10
9.852052842663798
 20
6.335417631271489
 30
0.0
 70
     8
  0
VERTEX
  5
6DF
330
6B1
100
AcDbEntity
  8
image
100
AcDbVertex
100
AcDb2dVertex
 10
9.859140203390547
 20
6.313324908286112
 30
0.0
 70
     8
  0
VERTEX
  5
6E0
330
6B1
100
AcDbEntity
  8
image
100
AcDbVertex
100
AcDb2dVertex
 10
9.864990692262809
 20
6.290941284965352
 30
0.0
 70
     8
  0
VERTEX
  5
6E1
330
6B1
100
AcDbEntity
  8
image
100
AcDbVertex
100
AcDb2dVertex
 10
9.869410083231874
 20
6.26846489508479
 30
0.0
 70
     8
  0
VERTEX
  5
6E2
330
6B1
100
AcDbEntity
  8
image
100
AcDbVertex
100
AcDb2dVertex
 10
9.872204150249036
 20
6.246093872420008
 30
0.0
 70
     8
  0
VERTEX
  5
6E3
330
6B1
100
AcDbEntity
  8
image
100
AcDbVertex
100
AcDb2dVertex
 10
9.87317866726558
 20
6.224026350746584
 30
0.0
 70
     8
  0
VERTEX
  5
6E4
330
6B1
100
AcDbEntity
  8
image
100
AcDbVertex
100
AcDb2dVertex
 10
8.02356858583299
 20
6.977930390196348
 30
0.0
 70
    16
  0
VERTEX
  5
6E5
330
6B1
100
AcDbEntity
  8
image
100
AcDbVertex
100
AcDb2dVertex
 10
8.136248756421661
 20
6.958285698699167
 30
0.0
 70
    16
  0
VERTEX
  5
6E6
330
6B1
100
AcDbEntity
  8
image
100
AcDbVertex
100
AcDb2dVertex
 10
8.886249667996628
 20
6.823258713345726
 30
0.0
 70
    16
  0
VERTEX
  5
6E7
330
6B1
100
AcDbEntity
  8
image
100
AcDbVertex
100
AcDb2dVertex
 10
9.316384182035951
 20
6.714011246301392
 30
0.0
 70
    16
  0
VERTEX
  5
6E8
330
6B1
100
AcDbEntity
  8
image
100
AcDbVertex
100
AcDb2dVertex
 10
9.736339347750837
 20
6.531035962344549
 30
0.0
 70
    16
  0
VERTEX
  5
6E9
330
6B1
100
AcDbEntity
  8
image
100
AcDbVertex
100
AcDb2dVertex
 10
9.83021811154663
 20
6.409525705128359
 30
0.0
 70
    16
  0
VERTEX
  5
6EA
330
6B1
100
AcDbEntity
  8
image
100
AcDbVertex
100
AcDb2dVertex
 10
9.87317866726558
 20
6.282292288308941
 30
0.0
 70
    16
  0
VERTEX
  5
6EB
330
6B1
100
AcDbEntity
  8
image
100
AcDbVertex
100
AcDb2dVertex
 10
9.87317866726558
 20
6.224026350746584
 30
0.0
 70
    16
  0
SEQEND
  5
6EC
330
6B1
100
AcDbEntity
  8
image
  0
POLYLINE
  5
6ED
330
2
100
AcDbEntity
  8
image
 62
     5
100
AcDb2dPolyline
 66
     1
 10
0.0
 20
0.0
 30
0.0
 70
     4
 40
0.037
 41
0.037
 75
     6
  0
VERTEX
  5
6EE
330
6ED
100
AcDbEntity
  8
image
 62
     5
100
AcDbVertex
100
AcDb2dVertex
 10
5.737780050754079
 20
4.733991496124737
 30
0.0
 70
    16
  0
VERTEX
  5
6EF
330
6ED
100
AcDbEntity
  8
image
 62
     5
100
AcDbVertex
100
AcDb2dVertex
 10
5.737780050754079
 20
4.733991496124739
 30
0.0
 70
     8
  0
VERTEX
  5
6F0
330
6ED
100
AcDbEntity
  8
image
 62
     5
100
AcDbVertex
100
AcDb2dVertex
 10
5.724394616942807
 20
4.86192949297828
 30
0.0
 70
     8
  0
VERTEX
  5
6F1
330
6ED
100
AcDbEntity
  8
image
 62
     5
100
AcDbVertex
100
AcDb2dVertex
 10
5.703535676296985
 20
4.992900665153246
 30
0.0
 70
     8
  0
VERTEX
  5
6F2
330
6ED
100
AcDbEntity
  8
image
 62
     5
100
AcDbVertex
100
AcDb2dVertex
 10
5.676063181696235
 20
5.124890226240175
 30
0.0
 70
     8
  0
VERTEX
  5
6F3
330
6ED
100
AcDbEntity
  8
image
 62
     5
100
AcDbVertex
100
AcDb2dVertex
 10
5.642837086020172
 20
5.255883389829602
 30
0.0
 70
     8
  0
VERTEX
  5
6F4
330
6ED
100
AcDbEntity
  8
image
 62
     5
100
AcDbVertex
100
AcDb2dVertex
 10
5.604717342148417
 20
5.383865369512054
 30
0.0
 70
     8
  0
VERTEX
  5
6F5
330
6ED
100
AcDbEntity
  8
image
 62
     5
100
AcDbVertex
100
AcDb2dVertex
 10
5.562563902960588
 20
5.506821378878072
 30
0.0
 70
     8
  0
VERTEX
  5
6F6
330
6ED
100
AcDbEntity
  8
image
 62
     5
100
AcDbVertex
100
AcDb2dVertex
 10
5.517236721336304
 20
5.62273663151819
 30
0.0
 70
     8
  0
VERTEX
  5
6F7
330
6ED
100
AcDbEntity
  8
image
 62
     5
100
AcDbVertex
100
AcDb2dVertex
 10
5.469595750155182
 20
5.72959634102294
 30
0.0
 70
     8
  0
VERTEX
  5
6F8
330
6ED
100
AcDbEntity
  8
image
 62
     5
100
AcDbVertex
100
AcDb2dVertex
 10
5.420307824665136
 20
5.82591479444768
 30
0.0
 70
     8
  0
VERTEX
  5
6F9
330
6ED
100
AcDbEntity
  8
image
 62
     5
100
AcDbVertex
100
AcDb2dVertex
 10
5.369267309587254
 20
5.912322572707068
 30
0.0
 70
     8
  0
VERTEX
  5
6FA
330
6ED
100
AcDbEntity
  8
image
 62
     5
100
AcDbVertex
100
AcDb2dVertex
 10
5.316175452010919
 20
5.989979330180585
 30
0.0
 70
     8
  0
VERTEX
  5
6FB
330
6ED
100
AcDbEntity
  8
image
 62
     5
100
AcDbVertex
100
AcDb2dVertex
 10
5.260733499025513
 20
6.060044721247706
 30
0.0
 70
     8
  0
VERTEX
  5
6FC
330
6ED
100
AcDbEntity
  8
image
 62
     5
100
AcDbVertex
100
AcDb2dVertex
 10
5.202642697720418
 20
6.123678400287914
 30
0.0
 70
     8
  0
VERTEX
  5
6FD
330
6ED
100
AcDbEntity
  8
image
 62
     5
100
AcDbVertex
100
AcDb2dVertex
 10
5.141604295185017
 20
6.182040021680684
 30
0.0
 70
     8
  0
VERTEX
  5
6FE
330
6ED
100
AcDbEntity
  8
image
 62
     5
100
AcDbVertex
100
AcDb2dVertex
 10
5.077319538508693
 20
6.2362892398055
 30
0.0
 70
     8
  0
VERTEX
  5
6FF
330
6ED
100
AcDbEntity
  8
image
 62
     5
100
AcDbVertex
100
AcDb2dVertex
 10
5.009489674780829
 20
6.287585709041838
 30
0.0
 70
     8
  0
VERTEX
  5
700
330
6ED
100
AcDbEntity
  8
image
 62
     5
100
AcDbVertex
100
AcDb2dVertex
 10
4.937994916822236
 20
6.336851219362035
 30
0.0
 70
     8
  0
VERTEX
  5
701
330
6ED
100
AcDbEntity
  8
image
 62
     5
100
AcDbVertex
100
AcDb2dVertex
 10
4.863431340379462
 20
6.384056103109852
 30
0.0
 70
     8
  0
VERTEX
  5
702
330
6ED
100
AcDbEntity
  8
image
 62
     5
100
AcDbVertex
100
AcDb2dVertex
 10
4.786573986930481
 20
6.42893282822191
 30
0.0
 70
     8
  0
VERTEX
  5
703
330
6ED
100
AcDbEntity
  8
image
 62
     5
100
AcDbVertex
100
AcDb2dVertex
 10
4.708197897953271
 20
6.471213862634819
 30
0.0
 70
     8
  0
VERTEX
  5
704
330
6ED
100
AcDbEntity
  8
image
 62
     5
100
AcDbVertex
100
AcDb2dVertex
 10
4.629078114925808
 20
6.510631674285203
 30
0.0
 70
     8
  0
VERTEX
  5
705
330
6ED
100
AcDbEntity
  8
image
 62
     5
100
AcDbVertex
100
AcDb2dVertex
 10
4.549989679326066
 20
6.546918731109681
 30
0.0
 70
     8
  0
VERTEX
  5
706
330
6ED
100
AcDbEntity
  8
image
 62
     5
100
AcDbVertex
100
AcDb2dVertex
 10
4.471707632632026
 20
6.579807501044864
 30
0.0
 70
     8
  0
VERTEX
  5
707
330
6ED
100
AcDbEntity
  8
image
 62
     5
100
AcDbVertex
100
AcDb2dVertex
 10
4.395007016321659
 20
6.609030452027376
 30
0.0
 70
     8
  0
VERTEX
  5
708
330
6ED
100
AcDbEntity
  8
image
 62
     5
100
AcDbVertex
100
AcDb2dVertex
 10
4.320245343496003
 20
6.634380959360836
 30
0.0
 70
     8
  0
VERTEX
  5
709
330
6ED
100
AcDbEntity
  8
image
 62
     5
100
AcDbVertex
100
AcDb2dVertex
 10
4.24611001374832
 20
6.655896027816897
 30
0.0
 70
     8
  0
VERTEX
  5
70A
330
6ED
100
AcDbEntity
  8
image
 62
     5
100
AcDbVertex
100
AcDb2dVertex
 10
4.170870898294931
 20
6.673673569534219
 30
0.0
 70
     8
  0
VERTEX
  5
70B
330
6ED
100
AcDbEntity
  8
image
 62
     5
100
AcDbVertex
100
AcDb2dVertex
 10
4.092797868352159
 20
6.687811496651455
 30
0.0
 70
     8
  0
VERTEX
  5
70C
330
6ED
100
AcDbEntity
  8
image
 62
     5
100
AcDbVertex
100
AcDb2dVertex
 10
4.010160795136328
 20
6.698407721307269
 30
0.0
 70
     8
  0
VERTEX
  5
70D
330
6ED
100
AcDbEntity
  8
image
 62
     5
100
AcDbVertex
100
AcDb2dVertex
 10
3.921229549863759
 20
6.705560155640316
 30
0.0
 70
     8
  0
VERTEX
  5
70E
330
6ED
100
AcDbEntity
  8
image
 62
     5
100
AcDbVertex
100
AcDb2dVertex
 10
3.824274003750772
 20
6.709366711789254
 30
0.0
 70
     8
  0
VERTEX
  5
70F
330
6ED
100
AcDbEntity
  8
image
 62
     5
100
AcDbVertex
100
AcDb2dVertex
 10
3.717564028013689
 20
6.709925301892738
 30
0.0
 70
     8
  0
VERTEX
  5
710
330
6ED
100
AcDbEntity
  8
image
 62
     5
100
AcDbVertex
100
AcDb2dVertex
 10
5.712814638929745
 20
5.069324332719421
 30
0.0
 70
    16
  0
VERTEX
  5
711
330
6ED
100
AcDbEntity
  8
image
 62
     5
100
AcDbVertex
100
AcDb2dVertex
 10
5.485103341378843
 20
5.847679856167818
 30
0.0
 70
    16
  0
VERTEX
  5
712
330
6ED
100
AcDbEntity
  8
image
 62
     5
100
AcDbVertex
100
AcDb2dVertex
 10
5.050490847710521
 20
6.306712050471144
 30
0.0
 70
    16
  0
VERTEX
  5
713
330
6ED
100
AcDbEntity
  8
image
 62
     5
100
AcDbVertex
100
AcDb2dVertex
 10
4.369871316464041
 20
6.65098619619864
 30
0.0
 70
    16
  0
VERTEX
  5
714
330
6ED
100
AcDbEntity
  8
image
 62
     5
100
AcDbVertex
100
AcDb2dVertex
 10
4.016667761730194
 20
6.712679316665241
 30
0.0
 70
    16
  0
VERTEX
  5
715
330
6ED
100
AcDbEntity
  8
image
 62
     5
100
AcDbVertex
100
AcDb2dVertex
 10
3.717564028013689
 20
6.709925301892738
 30
0.0
 70
    16
  0
SEQEND
  5
716
330
6ED
100
AcDbEntity
  8
image
 62
     5
  0
POLYLINE
  5
717
330
2
100
AcDbEntity
  8
image
 62
     5
100
AcDb2dPolyline
 66
     1
 10
0.0
 20
0.0
 30
0.0
 70
     4
 40
0.037
 41
0.037
 75
     6
  0
VERTEX
  5
718
330
717
100
AcDbEntity
  8
image
 62
     5
100
AcDbVertex
100
AcDb2dVertex
 10
5.787933451464223
 20
4.733991496124737
 30
0.0
 70
    16
  0
VERTEX
  5
719
330
717
100
AcDbEntity
  8
image
 62
     5
100
AcDbVertex
100
AcDb2dVertex
 10
5.787933451464223
 20
4.733991496124739
 30
0.0
 70
     8
  0
VERTEX
  5
71A
330
717
100
AcDbEntity
  8
image
 62
     5
100
AcDbVertex
100
AcDb2dVertex
 10
5.776027037080092
 20
4.891679290368156
 30
0.0
 70
     8
  0
VERTEX
  5
71B
330
717
100
AcDbEntity
  8
image
 62
     5
100
AcDbVertex
100
AcDb2dVertex
 10
5.760712210621018
 20
5.03224297478507
 30
0.0
 70
     8
  0
VERTEX
  5
71C
330
717
100
AcDbEntity
  8
image
 62
     5
100
AcDbVertex
100
AcDb2dVertex
 10
5.742350088110508
 20
5.157649802358495
 30
0.0
 70
     8
  0
VERTEX
  5
71D
330
717
100
AcDbEntity
  8
image
 62
     5
100
AcDbVertex
100
AcDb2dVertex
 10
5.721301785572068
 20
5.269867026071427
 30
0.0
 70
     8
  0
VERTEX
  5
71E
330
717
100
AcDbEntity
  8
image
 62
     5
100
AcDbVertex
100
AcDb2dVertex
 10
5.697928419029204
 20
5.370861898906877
 30
0.0
 70
     8
  0
VERTEX
  5
71F
330
717
100
AcDbEntity
  8
image
 62
     5
100
AcDbVertex
100
AcDb2dVertex
 10
5.672591104505422
 20
5.462601673847839
 30
0.0
 70
     8
  0
VERTEX
  5
720
330
717
100
AcDbEntity
  8
image
 62
     5
100
AcDbVertex
100
AcDb2dVertex
 10
5.64565095802423
 20
5.547053603877326
 30
0.0
 70
     8
  0
VERTEX
  5
721
330
717
100
AcDbEntity
  8
image
 62
     5
100
AcDbVertex
100
AcDb2dVertex
 10
5.617469095609132
 20
5.62618494197834
 30
0.0
 70
     8
  0
VERTEX
  5
722
330
717
100
AcDbEntity
  8
image
 62
     5
100
AcDbVertex
100
AcDb2dVertex
 10
5.588284421062421
 20
5.701668249715037
 30
0.0
 70
     8
  0
VERTEX
  5
723
330
717
100
AcDbEntity
  8
image
 62
     5
100
AcDbVertex
100
AcDb2dVertex
 10
5.557846989301517
 20
5.773997322976192
 30
0.0
 70
     8
  0
VERTEX
  5
724
330
717
100
AcDbEntity
  8
image
 62
     5
100
AcDbVertex
100
AcDb2dVertex
 10
5.525784643022632
 20
5.843371266231731
 30
0.0
 70
     8
  0
VERTEX
  5
725
330
717
100
AcDbEntity
  8
image
 62
     5
100
AcDbVertex
100
AcDb2dVertex
 10
5.491725224921972
 20
5.90998918395158
 30
0.0
 70
     8
  0
VERTEX
  5
726
330
717
100
AcDbEntity
  8
image
 62
     5
100
AcDbVertex
100
AcDb2dVertex
 10
5.455296577695745
 20
5.974050180605672
 30
0.0
 70
     8
  0
VERTEX
  5
727
330
717
100
AcDbEntity
  8
image
 62
     5
100
AcDbVertex
100
AcDb2dVertex
 10
5.416126544040159
 20
6.035753360663928
 30
0.0
 70
     8
  0
VERTEX
  5
728
330
717
100
AcDbEntity
  8
image
 62
     5
100
AcDbVertex
100
AcDb2dVertex
 10
5.373842966651423
 20
6.095297828596276
 30
0.0
 70
     8
  0
VERTEX
  5
729
330
717
100
AcDbEntity
  8
image
 62
     5
100
AcDbVertex
100
AcDb2dVertex
 10
5.328073688225745
 20
6.152882688872644
 30
0.0
 70
     8
  0
VERTEX
  5
72A
330
717
100
AcDbEntity
  8
image
 62
     5
100
AcDbVertex
100
AcDb2dVertex
 10
5.278510324837173
 20
6.208708792507735
 30
0.0
 70
     8
  0
VERTEX
  5
72B
330
717
100
AcDbEntity
  8
image
 62
     5
100
AcDbVertex
100
AcDb2dVertex
 10
5.225099586071141
 20
6.262983976695338
 30
0.0
 70
     8
  0
VERTEX
  5
72C
330
717
100
AcDbEntity
  8
image
 62
     5
100
AcDbVertex
100
AcDb2dVertex
 10
5.167851954890918
 20
6.315917825174018
 30
0.0
 70
     8
  0
VERTEX
  5
72D
330
717
100
AcDbEntity
  8
image
 62
     5
100
AcDbVertex
100
AcDb2dVertex
 10
5.106777914259773
 20
6.36771992168234
 30
0.0
 70
     8
  0
VERTEX
  5
72E
330
717
100
AcDbEntity
  8
image
 62
     5
100
AcDbVertex
100
AcDb2dVertex
 10
5.04188794714098
 20
6.418599849958869
 30
0.0
 70
     8
  0
VERTEX
  5
72F
330
717
100
AcDbEntity
  8
image
 62
     5
100
AcDbVertex
100
AcDb2dVertex
 10
4.973192536497813
 20
6.46876719374217
 30
0.0
 70
     8
  0
VERTEX
  5
730
330
717
100
AcDbEntity
  8
image
 62
     5
100
AcDbVertex
100
AcDb2dVertex
 10
4.90070216529354
 20
6.518431536770805
 30
0.0
 70
     8
  0
VERTEX
  5
731
330
717
100
AcDbEntity
  8
image
 62
     5
100
AcDbVertex
100
AcDb2dVertex
 10
4.824427316491433
 20
6.56780246278334
 30
0.0
 70
     8
  0
VERTEX
  5
732
330
717
100
AcDbEntity
  8
image
 62
     5
100
AcDbVertex
100
AcDb2dVertex
 10
4.744469328524203
 20
6.616998735898299
 30
0.0
 70
     8
  0
VERTEX
  5
733
330
717
100
AcDbEntity
  8
image
 62
     5
100
AcDbVertex
100
AcDb2dVertex
 10
4.661292961702304
 20
6.665775841754019
 30
0.0
 70
     8
  0
VERTEX
  5
734
330
717
100
AcDbEntity
  8
image
 62
     5
100
AcDbVertex
100
AcDb2dVertex
 10
4.575453831805631
 20
6.713798446368798
 30
0.0
 70
     8
  0
VERTEX
  5
735
330
717
100
AcDbEntity
  8
image
 62
     5
100
AcDbVertex
100
AcDb2dVertex
 10
4.487507554614079
 20
6.76073121576093
 30
0.0
 70
     8
  0
VERTEX
  5
736
330
717
100
AcDbEntity
  8
image
 62
     5
100
AcDbVertex
100
AcDb2dVertex
 10
4.398009745907539
 20
6.806238815948713
 30
0.0
 70
     8
  0
VERTEX
  5
737
330
717
100
AcDbEntity
  8
image
 62
     5
100
AcDbVertex
100
AcDb2dVertex
 10
4.307516021465906
 20
6.849985912950447
 30
0.0
 70
     8
  0
VERTEX
  5
738
330
717
100
AcDbEntity
  8
image
 62
     5
100
AcDbVertex
100
AcDb2dVertex
 10
4.216581997069073
 20
6.891637172784424
 30
0.0
 70
     8
  0
VERTEX
  5
739
330
717
100
AcDbEntity
  8
image
 62
     5
100
AcDbVertex
100
AcDb2dVertex
 10
4.125763288496936
 20
6.93085726146894
 30
0.0
 70
     8
  0
VERTEX
  5
73A
330
717
100
AcDbEntity
  8
image
 62
     5
100
AcDbVertex
100
AcDb2dVertex
 10
4.035559600535431
 20
6.967349268753093
 30
0.0
 70
     8
  0
VERTEX
  5
73B
330
717
100
AcDbEntity
  8
image
 62
     5
100
AcDbVertex
100
AcDb2dVertex
 10
3.946246993994679
 20
7.000969979309161
 30
0.0
 70
     8
  0
VERTEX
  5
73C
330
717
100
AcDbEntity
  8
image
 62
     5
100
AcDbVertex
100
AcDb2dVertex
 10
3.858045618690845
 20
7.031614601540233
 30
0.0
 70
     8
  0
VERTEX
  5
73D
330
717
100
AcDbEntity
  8
image
 62
     5
100
AcDbVertex
100
AcDb2dVertex
 10
3.771175624440091
 20
7.059178343849389
 30
0.0
 70
     8
  0
VERTEX
  5
73E
330
717
100
AcDbEntity
  8
image
 62
     5
100
AcDbVertex
100
AcDb2dVertex
 10
3.685857161058582
 20
7.083556414639708
 30
0.0
 70
     8
  0
VERTEX
  5
73F
330
717
100
AcDbEntity
  8
image
 62
     5
100
AcDbVertex
100
AcDb2dVertex
 10
3.602310378362484
 20
7.104644022314275
 30
0.0
 70
     8
  0
VERTEX
  5
740
330
717
100
AcDbEntity
  8
image
 62
     5
100
AcDbVertex
100
AcDb2dVertex
 10
3.520755426167958
 20
7.122336375276169
 30
0.0
 70
     8
  0
VERTEX
  5
741
330
717
100
AcDbEntity
  8
image
 62
     5
100
AcDbVertex
100
AcDb2dVertex
 10
3.441412454291172
 20
7.136528681928474
 30
0.0
 70
     8
  0
VERTEX
  5
742
330
717
100
AcDbEntity
  8
image
 62
     5
100
AcDbVertex
100
AcDb2dVertex
 10
3.364595108366299
 20
7.147179765426578
 30
0.0
 70
     8
  0
VERTEX
  5
743
330
717
100
AcDbEntity
  8
image
 62
     5
100
AcDbVertex
100
AcDb2dVertex
 10
3.290991017299549
 20
7.154502907935107
 30
0.0
 70
     8
  0
VERTEX
  5
744
330
717
100
AcDbEntity
  8
image
 62
     5
100
AcDbVertex
100
AcDb2dVertex
 10
3.221381305815142
 20
7.158775006370991
 30
0.0
 70
     8
  0
VERTEX
  5
745
330
717
100
AcDbEntity
  8
image
 62
     5
100
AcDbVertex
100
AcDb2dVertex
 10
3.156547098637301
 20
7.160272957651166
 30
0.0
 70
     8
  0
VERTEX
  5
746
330
717
100
AcDbEntity
  8
image
 62
     5
100
AcDbVertex
100
AcDb2dVertex
 10
3.097269520490246
 20
7.159273658692558
 30
0.0
 70
     8
  0
VERTEX
  5
747
330
717
100
AcDbEntity
  8
image
 62
     5
100
AcDbVertex
100
AcDb2dVertex
 10
3.044329696098198
 20
7.156054006412102
 30
0.0
 70
     8
  0
VERTEX
  5
748
330
717
100
AcDbEntity
  8
image
 62
     5
100
AcDbVertex
100
AcDb2dVertex
 10
2.998508750185377
 20
7.150890897726732
 30
0.0
 70
     8
  0
VERTEX
  5
749
330
717
100
AcDbEntity
  8
image
 62
     5
100
AcDbVertex
100
AcDb2dVertex
 10
2.960587807476005
 20
7.144061229553376
 30
0.0
 70
     8
  0
VERTEX
  5
74A
330
717
100
AcDbEntity
  8
image
 62
     5
100
AcDbVertex
100
AcDb2dVertex
 10
5.761048554560691
 20
5.179073096527403
 30
0.0
 70
    16
  0
VERTEX
  5
74B
330
717
100
AcDbEntity
  8
image
 62
     5
100
AcDbVertex
100
AcDb2dVertex
 10
5.62686216132005
 20
5.661953890730018
 30
0.0
 70
    16
  0
VERTEX
  5
74C
330
717
100
AcDbEntity
  8
image
 62
     5
100
AcDbVertex
100
AcDb2dVertex
 10
5.369224177193581
 20
6.171661389523869
 30
0.0
 70
    16
  0
VERTEX
  5
74D
330
717
100
AcDbEntity
  8
image
 62
     5
100
AcDbVertex
100
AcDb2dVertex
 10
4.864683259260089
 20
6.568696684410376
 30
0.0
 70
    16
  0
VERTEX
  5
74E
330
717
100
AcDbEntity
  8
image
 62
     5
100
AcDbVertex
100
AcDb2dVertex
 10
4.118606684714662
 20
6.960366649534677
 30
0.0
 70
    16
  0
VERTEX
  5
74F
330
717
100
AcDbEntity
  8
image
 62
     5
100
AcDbVertex
100
AcDb2dVertex
 10
3.415469732862876
 20
7.174980286264556
 30
0.0
 70
    16
  0
VERTEX
  5
750
330
717
100
AcDbEntity
  8
image
 62
     5
100
AcDbVertex
100
AcDb2dVertex
 10
3.05048265067487
 20
7.16424962674014
 30
0.0
 70
    16
  0
VERTEX
  5
751
330
717
100
AcDbEntity
  8
image
 62
     5
100
AcDbVertex
100
AcDb2dVertex
 10
2.960587807476005
 20
7.144061229553376
 30
0.0
 70
    16
  0
SEQEND
  5
752
330
717
100
AcDbEntity
  8
image
 62
     5
  0
LWPOLYLINE
  5
753
330
2
100
AcDbEntity
  8
image
 62
     8
100
AcDbPolyline
 90
        2
 70
     0
 43
0.09
 10
1.125440391389092
 20
9.963759201968942
 10
1.135711966549247
 20
8.012934551140993
  0
POLYLINE
  5
754
330
2
100
AcDbEntity
  8
image
 62
     5
100
AcDb2dPolyline
 66
     1
 10
0.0
 20
0.0
 30
0.0
 70
     4
 40
0.037
 41
0.037
 75
     6
  0
VERTEX
  5
755
330
754
100
AcDbEntity
  8
image
 62
     5
100
AcDbVertex
100
AcDb2dVertex
 10
1.165818758105229
 20
8.013500162333656
 30
0.0
 70
    16
  0
VERTEX
  5
756
330
754
100
AcDbEntity
  8
image
 62
     5
100
AcDbVertex
100
AcDb2dVertex
 10
1.165818758105229
 20
8.013500162333656
 30
0.0
 70
     8
  0
VERTEX
  5
757
330
754
100
AcDbEntity
  8
image
 62
     5
100
AcDbVertex
100
AcDb2dVertex
 10
1.1772685893706
 20
7.935370388893556
 30
0.0
 70
     8
  0
VERTEX
  5
758
330
754
100
AcDbEntity
  8
image
 62
     5
100
AcDbVertex
100
AcDb2dVertex
 10
1.189081105480814
 20
7.870732287884123
 30
0.0
 70
     8
  0
VERTEX
  5
759
330
754
100
AcDbEntity
  8
image
 62
     5
100
AcDbVertex
100
AcDb2dVertex
 10
1.201242499600287
 20
7.817635261077146
 30
0.0
 70
     8
  0
VERTEX
  5
75A
330
754
100
AcDbEntity
  8
image
 62
     5
100
AcDbVertex
100
AcDb2dVertex
 10
1.213738964893441
 20
7.774128710244426
 30
0.0
 70
     8
  0
VERTEX
  5
75B
330
754
100
AcDbEntity
  8
image
 62
     5
100
AcDbVertex
100
AcDb2dVertex
 10
1.226556694524693
 20
7.738262037157753
 30
0.0
 70
     8
  0
VERTEX
  5
75C
330
754
100
AcDbEntity
  8
image
 62
     5
100
AcDbVertex
100
AcDb2dVertex
 10
1.239681881658461
 20
7.708084643588929
 30
0.0
 70
     8
  0
VERTEX
  5
75D
330
754
100
AcDbEntity
  8
image
 62
     5
100
AcDbVertex
100
AcDb2dVertex
 10
1.253100719459168
 20
7.681645931309748
 30
0.0
 70
     8
  0
VERTEX
  5
75E
330
754
100
AcDbEntity
  8
image
 62
     5
100
AcDbVertex
100
AcDb2dVertex
 10
1.266799401091229
 20
7.65699530209201
 30
0.0
 70
     8
  0
VERTEX
  5
75F
330
754
100
AcDbEntity
  8
image
 62
     5
100
AcDbVertex
100
AcDb2dVertex
 10
1.280785511592672
 20
7.632513105481002
 30
0.0
 70
     8
  0
VERTEX
  5
760
330
754
100
AcDbEntity
  8
image
 62
     5
100
AcDbVertex
100
AcDb2dVertex
 10
1.295152203495956
 20
7.607903482116007
 30
0.0
 70
     8
  0
VERTEX
  5
761
330
754
100
AcDbEntity
  8
image
 62
     5
100
AcDbVertex
100
AcDb2dVertex
 10
1.310014021207149
 20
7.583201520409804
 30
0.0
 70
     8
  0
VERTEX
  5
762
330
754
100
AcDbEntity
  8
image
 62
     5
100
AcDbVertex
100
AcDb2dVertex
 10
1.325485509132316
 20
7.55844230877517
 30
0.0
 70
     8
  0
VERTEX
  5
763
330
754
100
AcDbEntity
  8
image
 62
     5
100
AcDbVertex
100
AcDb2dVertex
 10
1.341681211677527
 20
7.53366093562488
 30
0.0
 70
     8
  0
VERTEX
  5
764
330
754
100
AcDbEntity
  8
image
 62
     5
100
AcDbVertex
100
AcDb2dVertex
 10
1.358715673248846
 20
7.508892489371714
 30
0.0
 70
     8
  0
VERTEX
  5
765
330
754
100
AcDbEntity
  8
image
 62
     5
100
AcDbVertex
100
AcDb2dVertex
 10
1.376703438252339
 20
7.484172058428452
 30
0.0
 70
     8
  0
VERTEX
  5
766
330
754
100
AcDbEntity
  8
image
 62
     5
100
AcDbVertex
100
AcDb2dVertex
 10
1.395759051094077
 20
7.459534731207867
 30
0.0
 70
     8
  0
VERTEX
  5
767
330
754
100
AcDbEntity
  8
image
 62
     5
100
AcDbVertex
100
AcDb2dVertex
 10
1.415932394087447
 20
7.435057148274598
 30
0.0
 70
     8
  0
VERTEX
  5
768
330
754
100
AcDbEntity
  8
image
 62
     5
100
AcDbVertex
100
AcDb2dVertex
 10
1.437014701175132
 20
7.410982158800734
 30
0.0
 70
     8
  0
VERTEX
  5
769
330
754
100
AcDbEntity
  8
image
 62
     5
100
AcDbVertex
100
AcDb2dVertex
 10
1.45873254420714
 20
7.387594164110222
 30
0.0
 70
     8
  0
VERTEX
  5
76A
330
754
100
AcDbEntity
  8
image
 62
     5
100
AcDbVertex
100
AcDb2dVertex
 10
1.480812495033474
 20
7.365177565527002
 30
0.0
 70
     8
  0
VERTEX
  5
76B
330
754
100
AcDbEntity
  8
image
 62
     5
100
AcDbVertex
100
AcDb2dVertex
 10
1.502981125504141
 20
7.34401676437502
 30
0.0
 70
     8
  0
VERTEX
  5
76C
330
754
100
AcDbEntity
  8
image
 62
     5
100
AcDbVertex
100
AcDb2dVertex
 10
1.524965007469146
 20
7.324396161978228
 30
0.0
 70
     8
  0
VERTEX
  5
76D
330
754
100
AcDbEntity
  8
image
 62
     5
100
AcDbVertex
100
AcDb2dVertex
 10
1.546490712778495
 20
7.306600159660568
 30
0.0
 70
     8
  0
VERTEX
  5
76E
330
754
100
AcDbEntity
  8
image
 62
     5
100
AcDbVertex
100
AcDb2dVertex
 10
1.567284813282195
 20
7.29091315874599
 30
0.0
 70
     8
  0
VERTEX
  5
76F
330
754
100
AcDbEntity
  8
image
 62
     5
100
AcDbVertex
100
AcDb2dVertex
 10
1.587160096917943
 20
7.277527222453276
 30
0.0
 70
     8
  0
VERTEX
  5
770
330
754
100
AcDbEntity
  8
image
 62
     5
100
AcDbVertex
100
AcDb2dVertex
 10
1.606274215974221
 20
7.266265061580572
 30
0.0
 70
     8
  0
VERTEX
  5
771
330
754
100
AcDbEntity
  8
image
 62
     5
100
AcDbVertex
100
AcDb2dVertex
 10
1.624871038827204
 20
7.256857048820865
 30
0.0
 70
     8
  0
VERTEX
  5
772
330
754
100
AcDbEntity
  8
image
 62
     5
100
AcDbVertex
100
AcDb2dVertex
 10
1.64319443385306
 20
7.249033556867143
 30
0.0
 70
     8
  0
VERTEX
  5
773
330
754
100
AcDbEntity
  8
image
 62
     5
100
AcDbVertex
100
AcDb2dVertex
 10
1.661488269427969
 20
7.242524958412388
 30
0.0
 70
     8
  0
VERTEX
  5
774
330
754
100
AcDbEntity
  8
image
 62
     5
100
AcDbVertex
100
AcDb2dVertex
 10
1.679996413928098
 20
7.237061626149589
 30
0.0
 70
     8
  0
VERTEX
  5
775
330
754
100
AcDbEntity
  8
image
 62
     5
100
AcDbVertex
100
AcDb2dVertex
 10
1.698962735729627
 20
7.232373932771732
 30
0.0
 70
     8
  0
VERTEX
  5
776
330
754
100
AcDbEntity
  8
image
 62
     5
100
AcDbVertex
100
AcDb2dVertex
 10
1.718631103208726
 20
7.228192250971801
 30
0.0
 70
     8
  0
VERTEX
  5
777
330
754
100
AcDbEntity
  8
image
 62
     5
100
AcDbVertex
100
AcDb2dVertex
 10
1.739215824940841
 20
7.224286966673133
 30
0.0
 70
     8
  0
VERTEX
  5
778
330
754
100
AcDbEntity
  8
image
 62
     5
100
AcDbVertex
100
AcDb2dVertex
 10
1.760812970298517
 20
7.220588518720461
 30
0.0
 70
     8
  0
VERTEX
  5
779
330
754
100
AcDbEntity
  8
image
 62
     5
100
AcDbVertex
100
AcDb2dVertex
 10
1.783489048853565
 20
7.217067359188863
 30
0.0
 70
     8
  0
VERTEX
  5
77A
330
754
100
AcDbEntity
  8
image
 62
     5
100
AcDbVertex
100
AcDb2dVertex
 10
1.8073105701778
 20
7.213693940153426
 30
0.0
 70
     8
  0
VERTEX
  5
77B
330
754
100
AcDbEntity
  8
image
 62
     5
100
AcDbVertex
100
AcDb2dVertex
 10
1.832344043843035
 20
7.210438713689228
 30
0.0
 70
     8
  0
VERTEX
  5
77C
330
754
100
AcDbEntity
  8
image
 62
     5
100
AcDbVertex
100
AcDb2dVertex
 10
1.858655979421086
 20
7.207272131871352
 30
0.0
 70
     8
  0
VERTEX
  5
77D
330
754
100
AcDbEntity
  8
image
 62
     5
100
AcDbVertex
100
AcDb2dVertex
 10
1.886312886483767
 20
7.204164646774877
 30
0.0
 70
     8
  0
VERTEX
  5
77E
330
754
100
AcDbEntity
  8
image
 62
     5
100
AcDbVertex
100
AcDb2dVertex
 10
1.915381274602892
 20
7.201086710474886
 30
0.0
 70
     8
  0
VERTEX
  5
77F
330
754
100
AcDbEntity
  8
image
 62
     5
100
AcDbVertex
100
AcDb2dVertex
 10
1.945891627352387
 20
7.198014315271034
 30
0.0
 70
     8
  0
VERTEX
  5
780
330
754
100
AcDbEntity
  8
image
 62
     5
100
AcDbVertex
100
AcDb2dVertex
 10
1.977730324314634
 20
7.194945614361273
 30
0.0
 70
     8
  0
VERTEX
  5
781
330
754
100
AcDbEntity
  8
image
 62
     5
100
AcDbVertex
100
AcDb2dVertex
 10
2.010747719074129
 20
7.191884301168123
 30
0.0
 70
     8
  0
VERTEX
  5
782
330
754
100
AcDbEntity
  8
image
 62
     5
100
AcDbVertex
100
AcDb2dVertex
 10
2.044794165215365
 20
7.188834069114111
 30
0.0
 70
     8
  0
VERTEX
  5
783
330
754
100
AcDbEntity
  8
image
 62
     5
100
AcDbVertex
100
AcDb2dVertex
 10
2.079720016322837
 20
7.185798611621759
 30
0.0
 70
     8
  0
VERTEX
  5
784
330
754
100
AcDbEntity
  8
image
 62
     5
100
AcDbVertex
100
AcDb2dVertex
 10
2.11537562598104
 20
7.182781622113591
 30
0.0
 70
     8
  0
VERTEX
  5
785
330
754
100
AcDbEntity
  8
image
 62
     5
100
AcDbVertex
100
AcDb2dVertex
 10
2.151611347774468
 20
7.179786794012134
 30
0.0
 70
     8
  0
VERTEX
  5
786
330
754
100
AcDbEntity
  8
image
 62
     5
100
AcDbVertex
100
AcDb2dVertex
 10
2.188277535287617
 20
7.176817820739906
 30
0.0
 70
     8
  0
VERTEX
  5
787
330
754
100
AcDbEntity
  8
image
 62
     5
100
AcDbVertex
100
AcDb2dVertex
 10
2.225449128369834
 20
7.173858124646066
 30
0.0
 70
     8
  0
VERTEX
  5
788
330
754
100
AcDbEntity
  8
image
 62
     5
100
AcDbVertex
100
AcDb2dVertex
 10
2.26409941192989
 20
7.170810043786307
 30
0.0
 70
     8
  0
VERTEX
  5
789
330
754
100
AcDbEntity
  8
image
 62
     5
100
AcDbVertex
100
AcDb2dVertex
 10
2.305426257141408
 20
7.167555645142943
 30
0.0
 70
     8
  0
VERTEX
  5
78A
330
754
100
AcDbEntity
  8
image
 62
     5
100
AcDbVertex
100
AcDb2dVertex
 10
2.350627535178012
 20
7.163976995698302
 30
0.0
 70
     8
  0
VERTEX
  5
78B
330
754
100
AcDbEntity
  8
image
 62
     5
100
AcDbVertex
100
AcDb2dVertex
 10
2.400901117213327
 20
7.159956162434703
 30
0.0
 70
     8
  0
VERTEX
  5
78C
330
754
100
AcDbEntity
  8
image
 62
     5
100
AcDbVertex
100
AcDb2dVertex
 10
2.457444874420978
 20
7.155375212334465
 30
0.0
 70
     8
  0
VERTEX
  5
78D
330
754
100
AcDbEntity
  8
image
 62
     5
100
AcDbVertex
100
AcDb2dVertex
 10
2.521456677974586
 20
7.150116212379916
 30
0.0
 70
     8
  0
VERTEX
  5
78E
330
754
100
AcDbEntity
  8
image
 62
     5
100
AcDbVertex
100
AcDb2dVertex
 10
2.59413439904778
 20
7.144061229553376
 30
0.0
 70
     8
  0
VERTEX
  5
78F
330
754
100
AcDbEntity
  8
image
 62
     5
100
AcDbVertex
100
AcDb2dVertex
 10
1.195855788943693
 20
7.785431338160776
 30
0.0
 70
    16
  0
VERTEX
  5
790
330
754
100
AcDbEntity
  8
image
 62
     5
100
AcDbVertex
100
AcDb2dVertex
 10
1.263961673136303
 20
7.658728797204162
 30
0.0
 70
    16
  0
VERTEX
  5
791
330
754
100
AcDbEntity
  8
image
 62
     5
100
AcDbVertex
100
AcDb2dVertex
 10
1.383146867154773
 20
7.458274015096328
 30
0.0
 70
    16
  0
VERTEX
  5
792
330
754
100
AcDbEntity
  8
image
 62
     5
100
AcDbVertex
100
AcDb2dVertex
 10
1.578005164809069
 20
7.265383529657722
 30
0.0
 70
    16
  0
VERTEX
  5
793
330
754
100
AcDbEntity
  8
image
 62
     5
100
AcDbVertex
100
AcDb2dVertex
 10
1.708541353302119
 20
7.225670818748724
 30
0.0
 70
    16
  0
VERTEX
  5
794
330
754
100
AcDbEntity
  8
image
 62
     5
100
AcDbVertex
100
AcDb2dVertex
 10
1.899616041234808
 20
7.201086701178187
 30
0.0
 70
    16
  0
VERTEX
  5
795
330
754
100
AcDbEntity
  8
image
 62
     5
100
AcDbVertex
100
AcDb2dVertex
 10
2.185282129375997
 20
7.176502639387848
 30
0.0
 70
    16
  0
VERTEX
  5
796
330
754
100
AcDbEntity
  8
image
 62
     5
100
AcDbVertex
100
AcDb2dVertex
 10
2.387707811783267
 20
7.16137399026919
 30
0.0
 70
    16
  0
VERTEX
  5
797
330
754
100
AcDbEntity
  8
image
 62
     5
100
AcDbVertex
100
AcDb2dVertex
 10
2.59413439904778
 20
7.144061229553376
 30
0.0
 70
    16
  0
SEQEND
  5
798
330
754
100
AcDbEntity
  8
image
 62
     5
  0
POLYLINE
  5
799
330
2
100
AcDbEntity
  8
image
 62
     5
100
AcDb2dPolyline
 66
     1
 10
0.0
 20
0.0
 30
0.0
 70
     4
 40
0.037
 41
0.037
 75
     6
  0
VERTEX
  5
79A
330
799
100
AcDbEntity
  8
image
 62
     5
100
AcDbVertex
100
AcDb2dVertex
 10
3.351110619585464
 20
6.709925301892738
 30
0.0
 70
    16
  0
VERTEX
  5
79B
330
799
100
AcDbEntity
  8
image
 62
     5
100
AcDbVertex
100
AcDb2dVertex
 10
3.351110619585464
 20
6.709925301892738
 30
0.0
 70
     8
  0
VERTEX
  5
79C
330
799
100
AcDbEntity
  8
image
 62
     5
100
AcDbVertex
100
AcDb2dVertex
 10
3.269457956261594
 20
6.712567375488777
 30
0.0
 70
     8
  0
VERTEX
  5
79D
330
799
100
AcDbEntity
  8
image
 62
     5
100
AcDbVertex
100
AcDb2dVertex
 10
3.193910608190496
 20
6.715057197334129
 30
0.0
 70
     8
  0
VERTEX
  5
79E
330
799
100
AcDbEntity
  8
image
 62
     5
100
AcDbVertex
100
AcDb2dVertex
 10
3.123943767207069
 20
6.717439667082992
 30
0.0
 70
     8
  0
VERTEX
  5
79F
330
799
100
AcDbEntity
  8
image
 62
     5
100
AcDbVertex
100
AcDb2dVertex
 10
3.059032625146211
 20
6.719759684389568
 30
0.0
 70
     8
  0
VERTEX
  5
7A0
330
799
100
AcDbEntity
  8
image
 62
     5
100
AcDbVertex
100
AcDb2dVertex
 10
2.998652373842817
 20
6.722062148908054
 30
0.0
 70
     8
  0
VERTEX
  5
7A1
330
799
100
AcDbEntity
  8
image
 62
     5
100
AcDbVertex
100
AcDb2dVertex
 10
2.942278205131786
 20
6.724391960292649
 30
0.0
 70
     8
  0
VERTEX
  5
7A2
330
799
100
AcDbEntity
  8
image
 62
     5
100
AcDbVertex
100
AcDb2dVertex
 10
2.889385310848017
 20
6.726794018197548
 30
0.0
 70
     8
  0
VERTEX
  5
7A3
330
799
100
AcDbEntity
  8
image
 62
     5
100
AcDbVertex
100
AcDb2dVertex
 10
2.839448882826407
 20
6.729313222276957
 30
0.0
 70
     8
  0
VERTEX
  5
7A4
330
799
100
AcDbEntity
  8
image
 62
     5
100
AcDbVertex
100
AcDb2dVertex
 10
2.791947148365525
 20
6.732000492819214
 30
0.0
 70
     8
  0
VERTEX
  5
7A5
330
799
100
AcDbEntity
  8
image
 62
     5
100
AcDbVertex
100
AcDb2dVertex
 10
2.746370476618626
 20
6.734930832649258
 30
0.0
 70
     8
  0
VERTEX
  5
7A6
330
799
100
AcDbEntity
  8
image
 62
     5
100
AcDbVertex
100
AcDb2dVertex
 10
2.702212272202635
 20
6.738185265226167
 30
0.0
 70
     8
  0
VERTEX
  5
7A7
330
799
100
AcDbEntity
  8
image
 62
     5
100
AcDbVertex
100
AcDb2dVertex
 10
2.658965939734474
 20
6.741844814009024
 30
0.0
 70
     8
  0
VERTEX
  5
7A8
330
799
100
AcDbEntity
  8
image
 62
     5
100
AcDbVertex
100
AcDb2dVertex
 10
2.61612488383107
 20
6.745990502456905
 30
0.0
 70
     8
  0
VERTEX
  5
7A9
330
799
100
AcDbEntity
  8
image
 62
     5
100
AcDbVertex
100
AcDb2dVertex
 10
2.573182509109346
 20
6.750703354028896
 30
0.0
 70
     8
  0
VERTEX
  5
7AA
330
799
100
AcDbEntity
  8
image
 62
     5
100
AcDbVertex
100
AcDb2dVertex
 10
2.529632220186232
 20
6.756064392184079
 30
0.0
 70
     8
  0
VERTEX
  5
7AB
330
799
100
AcDbEntity
  8
image
 62
     5
100
AcDbVertex
100
AcDb2dVertex
 10
2.484967421678645
 20
6.762154640381531
 30
0.0
 70
     8
  0
VERTEX
  5
7AC
330
799
100
AcDbEntity
  8
image
 62
     5
100
AcDbVertex
100
AcDb2dVertex
 10
2.438791280505575
 20
6.769051746052934
 30
0.0
 70
     8
  0
VERTEX
  5
7AD
330
799
100
AcDbEntity
  8
image
 62
     5
100
AcDbVertex
100
AcDb2dVertex
 10
2.391146012794233
 20
6.7768198525204
 30
0.0
 70
     8
  0
VERTEX
  5
7AE
330
799
100
AcDbEntity
  8
image
 62
     5
100
AcDbVertex
100
AcDb2dVertex
 10
2.342183596973888
 20
6.785519727078636
 30
0.0
 70
     8
  0
VERTEX
  5
7AF
330
799
100
AcDbEntity
  8
image
 62
     5
100
AcDbVertex
100
AcDb2dVertex
 10
2.292056011473817
 20
6.795212137022353
 30
0.0
 70
     8
  0
VERTEX
  5
7B0
330
799
100
AcDbEntity
  8
image
 62
     5
100
AcDbVertex
100
AcDb2dVertex
 10
2.240915234723289
 20
6.805957849646258
 30
0.0
 70
     8
  0
VERTEX
  5
7B1
330
799
100
AcDbEntity
  8
image
 62
     5
100
AcDbVertex
100
AcDb2dVertex
 10
2.188913245151579
 20
6.817817632245066
 30
0.0
 70
     8
  0
VERTEX
  5
7B2
330
799
100
AcDbEntity
  8
image
 62
     5
100
AcDbVertex
100
AcDb2dVertex
 10
2.136202021187954
 20
6.83085225211348
 30
0.0
 70
     8
  0
VERTEX
  5
7B3
330
799
100
AcDbEntity
  8
image
 62
     5
100
AcDbVertex
100
AcDb2dVertex
 10
2.082933541261689
 20
6.845122476546215
 30
0.0
 70
     8
  0
VERTEX
  5
7B4
330
799
100
AcDbEntity
  8
image
 62
     5
100
AcDbVertex
100
AcDb2dVertex
 10
2.029298622850574
 20
6.860662065127232
 30
0.0
 70
     8
  0
VERTEX
  5
7B5
330
799
100
AcDbEntity
  8
image
 62
     5
100
AcDbVertex
100
AcDb2dVertex
 10
1.975643439626465
 20
6.877396746597501
 30
0.0
 70
     8
  0
VERTEX
  5
7B6
330
799
100
AcDbEntity
  8
image
 62
     5
100
AcDbVertex
100
AcDb2dVertex
 10
1.922353004309738
 20
6.895225241987247
 30
0.0
 70
     8
  0
VERTEX
  5
7B7
330
799
100
AcDbEntity
  8
image
 62
     5
100
AcDbVertex
100
AcDb2dVertex
 10
1.869812329620768
 20
6.914046272326686
 30
0.0
 70
     8
  0
VERTEX
  5
7B8
330
799
100
AcDbEntity
  8
image
 62
     5
100
AcDbVertex
100
AcDb2dVertex
 10
1.818406428279931
 20
6.933758558646047
 30
0.0
 70
     8
  0
VERTEX
  5
7B9
330
799
100
AcDbEntity
  8
image
 62
     5
100
AcDbVertex
100
AcDb2dVertex
 10
1.768520313007601
 20
6.954260821975552
 30
0.0
 70
     8
  0
VERTEX
  5
7BA
330
799
100
AcDbEntity
  8
image
 62
     5
100
AcDbVertex
100
AcDb2dVertex
 10
1.720538996524154
 20
6.97545178334542
 30
0.0
 70
     8
  0
VERTEX
  5
7BB
330
799
100
AcDbEntity
  8
image
 62
     5
100
AcDbVertex
100
AcDb2dVertex
 10
1.674847491549967
 20
6.997230163785875
 30
0.0
 70
     8
  0
VERTEX
  5
7BC
330
799
100
AcDbEntity
  8
image
 62
     5
100
AcDbVertex
100
AcDb2dVertex
 10
1.631732868944713
 20
7.019572331595409
 30
0.0
 70
     8
  0
VERTEX
  5
7BD
330
799
100
AcDbEntity
  8
image
 62
     5
100
AcDbVertex
100
AcDb2dVertex
 10
1.591090432125281
 20
7.042765244145577
 30
0.0
 70
     8
  0
VERTEX
  5
7BE
330
799
100
AcDbEntity
  8
image
 62
     5
100
AcDbVertex
100
AcDb2dVertex
 10
1.552717542647854
 20
7.067173506076205
 30
0.0
 70
     8
  0
VERTEX
  5
7BF
330
799
100
AcDbEntity
  8
image
 62
     5
100
AcDbVertex
100
AcDb2dVertex
 10
1.516411562068619
 20
7.093161722027119
 30
0.0
 70
     8
  0
VERTEX
  5
7C0
330
799
100
AcDbEntity
  8
image
 62
     5
100
AcDbVertex
100
AcDb2dVertex
 10
1.481969851943765
 20
7.121094496638143
 30
0.0
 70
     8
  0
VERTEX
  5
7C1
330
799
100
AcDbEntity
  8
image
 62
     5
100
AcDbVertex
100
AcDb2dVertex
 10
1.449189773829476
 20
7.151336434549101
 30
0.0
 70
     8
  0
VERTEX
  5
7C2
330
799
100
AcDbEntity
  8
image
 62
     5
100
AcDbVertex
100
AcDb2dVertex
 10
1.417868689281937
 20
7.184252140399816
 30
0.0
 70
     8
  0
VERTEX
  5
7C3
330
799
100
AcDbEntity
  8
image
 62
     5
100
AcDbVertex
100
AcDb2dVertex
 10
1.387803959857339
 20
7.220206218830121
 30
0.0
 70
     8
  0
VERTEX
  5
7C4
330
799
100
AcDbEntity
  8
image
 62
     5
100
AcDbVertex
100
AcDb2dVertex
 10
1.358842762402693
 20
7.259455243482499
 30
0.0
 70
     8
  0
VERTEX
  5
7C5
330
799
100
AcDbEntity
  8
image
 62
     5
100
AcDbVertex
100
AcDb2dVertex
 10
1.331031534928345
 20
7.301823664010129
 30
0.0
 70
     8
  0
VERTEX
  5
7C6
330
799
100
AcDbEntity
  8
image
 62
     5
100
AcDbVertex
100
AcDb2dVertex
 10
1.304466530735461
 20
7.347027899068837
 30
0.0
 70
     8
  0
VERTEX
  5
7C7
330
799
100
AcDbEntity
  8
image
 62
     5
100
AcDbVertex
100
AcDb2dVertex
 10
1.279244003125213
 20
7.394784367314471
 30
0.0
 70
     8
  0
VERTEX
  5
7C8
330
799
100
AcDbEntity
  8
image
 62
     5
100
AcDbVertex
100
AcDb2dVertex
 10
1.25546020539877
 20
7.44480948740286
 30
0.0
 70
     8
  0
VERTEX
  5
7C9
330
799
100
AcDbEntity
  8
image
 62
     5
100
AcDbVertex
100
AcDb2dVertex
 10
1.233211390857303
 20
7.496819677989847
 30
0.0
 70
     8
  0
VERTEX
  5
7CA
330
799
100
AcDbEntity
  8
image
 62
     5
100
AcDbVertex
100
AcDb2dVertex
 10
1.212593812801983
 20
7.550531357731269
 30
0.0
 70
     8
  0
VERTEX
  5
7CB
330
799
100
AcDbEntity
  8
image
 62
     5
100
AcDbVertex
100
AcDb2dVertex
 10
1.193703724533979
 20
7.605660945282959
 30
0.0
 70
     8
  0
VERTEX
  5
7CC
330
799
100
AcDbEntity
  8
image
 62
     5
100
AcDbVertex
100
AcDb2dVertex
 10
1.176632599066599
 20
7.661824630204339
 30
0.0
 70
     8
  0
VERTEX
  5
7CD
330
799
100
AcDbEntity
  8
image
 62
     5
100
AcDbVertex
100
AcDb2dVertex
 10
1.161452788261708
 20
7.718237685669162
 30
0.0
 70
     8
  0
VERTEX
  5
7CE
330
799
100
AcDbEntity
  8
image
 62
     5
100
AcDbVertex
100
AcDb2dVertex
 10
1.148231863693299
 20
7.774015155754764
 30
0.0
 70
     8
  0
VERTEX
  5
7CF
330
799
100
AcDbEntity
  8
image
 62
     5
100
AcDbVertex
100
AcDb2dVertex
 10
1.137037396935377
 20
7.828272084538472
 30
0.0
 70
     8
  0
VERTEX
  5
7D0
330
799
100
AcDbEntity
  8
image
 62
     5
100
AcDbVertex
100
AcDb2dVertex
 10
1.127936959561938
 20
7.880123516097622
 30
0.0
 70
     8
  0
VERTEX
  5
7D1
330
799
100
AcDbEntity
  8
image
 62
     5
100
AcDbVertex
100
AcDb2dVertex
 10
1.120998123146981
 20
7.928684494509553
 30
0.0
 70
     8
  0
VERTEX
  5
7D2
330
799
100
AcDbEntity
  8
image
 62
     5
100
AcDbVertex
100
AcDb2dVertex
 10
1.116288459264507
 20
7.973070063851594
 30
0.0
 70
     8
  0
VERTEX
  5
7D3
330
799
100
AcDbEntity
  8
image
 62
     5
100
AcDbVertex
100
AcDb2dVertex
 10
1.113875539488513
 20
8.012395268201082
 30
0.0
 70
     8
  0
VERTEX
  5
7D4
330
799
100
AcDbEntity
  8
image
 62
     5
100
AcDbVertex
100
AcDb2dVertex
 10
3.124763267571359
 20
6.717213744620156
 30
0.0
 70
    16
  0
VERTEX
  5
7D5
330
799
100
AcDbEntity
  8
image
 62
     5
100
AcDbVertex
100
AcDb2dVertex
 10
2.813511196457798
 20
6.727584733437442
 30
0.0
 70
    16
  0
VERTEX
  5
7D6
330
799
100
AcDbEntity
  8
image
 62
     5
100
AcDbVertex
100
AcDb2dVertex
 10
2.502259207999116
 20
6.753512149700458
 30
0.0
 70
    16
  0
VERTEX
  5
7D7
330
799
100
AcDbEntity
  8
image
 62
     5
100
AcDbVertex
100
AcDb2dVertex
 10
2.087256501617619
 20
6.8312945100499
 30
0.0
 70
    16
  0
VERTEX
  5
7D8
330
799
100
AcDbEntity
  8
image
 62
     5
100
AcDbVertex
100
AcDb2dVertex
 10
1.646316033100542
 20
6.992044669377232
 30
0.0
 70
    16
  0
VERTEX
  5
7D9
330
799
100
AcDbEntity
  8
image
 62
     5
100
AcDbVertex
100
AcDb2dVertex
 10
1.376564315280009
 20
7.183907795156418
 30
0.0
 70
    16
  0
VERTEX
  5
7DA
330
799
100
AcDbEntity
  8
image
 62
     5
100
AcDbVertex
100
AcDb2dVertex
 10
1.174250464923452
 20
7.59356146297781
 30
0.0
 70
    16
  0
VERTEX
  5
7DB
330
799
100
AcDbEntity
  8
image
 62
     5
100
AcDbVertex
100
AcDb2dVertex
 10
1.117187603127855
 20
7.915061837412668
 30
0.0
 70
    16
  0
VERTEX
  5
7DC
330
799
100
AcDbEntity
  8
image
 62
     5
100
AcDbVertex
100
AcDb2dVertex
 10
1.113875539488513
 20
8.012395268201082
 30
0.0
 70
    16
  0
SEQEND
  5
7DD
330
799
100
AcDbEntity
  8
image
 62
     5
  0
TEXT
  5
7DE
330
2
100
AcDbEntity
  8
image
100
AcDbText
 10
9.524704148657827
 20
4.602659078140122
 30
0.0
 40
0.125
  1
SOLENOID
  7
arial
100
AcDbText
  0
TEXT
  5
7DF
330
2
100
AcDbEntity
  8
image
100
AcDbText
 10
9.524704148657827
 20
4.361697277321569
 30
0.0
 40
0.125
  1
(VALVE),
  7
arial
100
AcDbText
  0
TEXT
  5
7E0
330
2
100
AcDbEntity
  8
image
100
AcDbText
 10
9.524704148657827
 20
4.120735476503016
 30
0.0
 40
0.125
  1
MASTER VALVE,
  7
arial
100
AcDbText
  0
TEXT
  5
7E1
330
2
100
AcDbEntity
  8
image
100
AcDbText
 10
9.524704148657827
 20
3.879773675684463
 30
0.0
 40
0.125
  1
OR BOOSTER 
  7
arial
100
AcDbText
  0
TEXT
  5
7E2
330
2
100
AcDbEntity
  8
image
100
AcDbText
 10
9.524704148657827
 20
3.638811874865909
 30
0.0
 40
0.125
  1
PUMP / VALVE
  7
arial
100
AcDbText
  0
TEXT
  5
7E3
330
2
100
AcDbEntity
  8
image
100
AcDbText
 10
7.171328988193387
 20
5.747361771393318
 30
0.0
 40
0.125
  1
DB SERIES WIRE
  7
arial
100
AcDbText
  0
TEXT
  5
7E4
330
2
100
AcDbEntity
  8
image
100
AcDbText
 10
7.171328988193387
 20
5.506399970574765
 30
0.0
 40
0.125
  1
CONNECTORS
  7
arial
100
AcDbText
  0
TEXT
  5
7E5
330
2
100
AcDbEntity
  8
image
100
AcDbText
 10
2.364128091378959
 20
5.710668405945853
 30
0.0
 40
0.125
  1
DB SERIES WIRE
  7
arial
100
AcDbText
  0
TEXT
  5
7E6
330
2
100
AcDbEntity
  8
image
100
AcDbText
 10
2.364128091378959
 20
5.469706605127299
 30
0.0
 40
0.125
  1
CONNECTORS
  7
arial
100
AcDbText
  0
TEXT
  5
7E7
330
2
100
AcDbEntity
  8
image
100
AcDbText
 10
1.38384257326773
 20
9.352787589320922
 30
0.0
 40
0.125
  1
TWO-WIRE
  7
arial
100
AcDbText
  0
TEXT
  5
7E8
330
2
100
AcDbEntity
  8
image
100
AcDbText
 10
1.38384257326773
 20
9.111825788502368
 30
0.0
 40
0.125
  1
CABLE
  7
arial
100
AcDbText
  0
TEXT
  5
7E9
330
2
100
AcDbEntity
  8
image
100
AcDbText
 10
6.117184787041225
 20
6.761107906400521
 30
0.0
 40
0.125
  1
WHITE
  7
arial
100
AcDbText
  0
TEXT
  5
7EA
330
2
100
AcDbEntity
  8
image
100
AcDbText
 10
6.130480733463533
 20
4.74092684854585
 30
0.0
 40
0.125
  1
WHITE
  7
arial
100
AcDbText
  0
TEXT
  5
7EB
330
2
100
AcDbEntity
  8
image
 62
     5
100
AcDbText
 10
3.644146439395522
 20
7.186409202288945
 30
0.0
 40
0.125
  1
BLUE
  7
arial
100
AcDbText
  0
TEXT
  5
7EC
330
2
100
AcDbEntity
  8
image
 62
     5
100
AcDbText
 10
4.468492555277424
 20
6.149737317964746
 30
0.0
 40
0.125
  1
BLUE
  7
arial
100
AcDbText
  0
TEXT
  5
7ED
330
2
100
AcDbEntity
  8
image
100
AcDbText
 10
1.38384257326773
 20
7.611710498177373
 30
0.0
 40
0.125
  1
COMMUNICATION CABLE
  7
arial
100
AcDbText
  0
TEXT
  5
7EE
330
2
100
AcDbEntity
  8
image
100
AcDbText
 10
0.1606193045397495
 20
6.588329305496657
 30
0.0
 40
0.125
  1
COMMUNICATION CABLE
  7
arial
100
AcDbText
  0
TEXT
  5
7EF
330
2
100
AcDbEntity
  8
image
100
AcDbText
 10
8.311009086367231
 20
7.133246547275415
 30
0.0
 40
0.125
  1
SOLENOID WIRE
  7
arial
100
AcDbText
  0
TEXT
  5
7F0
330
2
100
AcDbEntity
  8
image
100
AcDbText
 10
8.018499174280108
 20
6.282644011278765
 30
0.0
 40
0.125
  1
SOLENOID WIRE
  7
arial
100
AcDbText
  0
TEXT
  5
7F1
330
2
100
AcDbEntity
  8
image
100
AcDbText
 10
9.495113867438055
 20
3.38402304483111
 30
0.0
 40
0.125
  1
(MAXIMUM 1)
  7
arial
100
AcDbText
  0
MTEXT
  5
7F2
330
2
100
AcDbEntity
  8
image
100
AcDbMText
 10
5.522358374798549
 20
3.705539861048378
 30
0.0
 40
0.125
 41
0.8262
 71
     1
 72
     5
  1
FD-101\PTURF\PM13011
  7
arial
 73
     1
 44
1.0
  0
LINE
  5
7F3
330
2
100
AcDbEntity
  8
image
100
AcDbLine
 10
7.654190090806698
 20
6.682418427907023
 30
0.0
 11
7.654190090806698
 21
6.260533445127624
 31
0.0
  0
LINE
  5
7F4
330
2
100
AcDbEntity
  8
image
100
AcDbLine
 10
7.841240656673968
 20
6.677033337545058
 30
0.0
 11
7.841240656673969
 21
6.260533445127624
 31
0.0
  0
TEXT
  5
807
330
2
100
AcDbEntity
  8
image
100
AcDbText
 10
0.8663351164829897
 20
1.561519496267595
 30
0.0
 40
0.125
  1
       TO SOLENOID IS 450 FEET.
  7
arial
100
AcDbText
  0
TEXT
  5
808
330
2
100
AcDbEntity
  8
image
100
AcDbText
 10
0.8663351164829897
 20
1.762320996949723
 30
0.0
 40
0.125
  1
1.  MAXIMUM LENGTH OF SECONDARY  WIRE PATH (14 AWG)  FROM DECODER
  7
arial
100
AcDbText
  0
TEXT
  5
809
330
2
100
AcDbEntity
  8
image
100
AcDbText
 10
0.8663351164829897
 20
1.963122497631851
 30
0.0
 40
0.125
  1
NOTE:
  7
arial
100
AcDbText
  0
INSERT
  5
83D
330
2
100
AcDbEntity
  8
title
100
AcDbBlockReference
 66
     1
  2
titleblock
 10
0.0
 20
0.0
 30
0.0
  0
ATTRIB
  5
83F
330
83D
100
AcDbEntity
  8
title
100
AcDbText
 10
0.5055556038023421
 20
0.7842270964783673
 30
0.0
 40
0.2
  1
D
  7
L200
 72
     4
 11
0.6064423705144839
 21
0.8842270964783672
 31
0.0
100
AcDbAttribute
  2
D
 70
     0
  0
ATTRIB
  5
840
330
83D
100
AcDbEntity
  8
title
100
AcDbText
 10
1.231442370514484
 20
1.34371230274675
 30
0.0
 40
0.2
  1

  7
L200
100
AcDbAttribute
  2
TITLE1
 70
     0
  0
ATTRIB
  5
841
330
83D
100
AcDbEntity
  8
title
100
AcDbText
 10
1.231442370514484
 20
0.9842270964783674
 30
0.0
 40
0.2
  1
FD-101TURF DECODER
  7
L200
100
AcDbAttribute
  2
TITLE2
 70
     0
  0
ATTRIB
  5
842
330
83D
100
AcDbEntity
  8
title
100
AcDbText
 10
2.713645751168312
 20
0.5927927664583189
 30
0.0
 40
0.2
  1
WIRING DIAGRAM
  7
L200
100
AcDbAttribute
  2
TITLE3
 70
     0
  0
ATTRIB
  5
843
330
83D
100
AcDbEntity
  8
title
100
AcDbText
 10
2.713645751168312
 20
0.2692560808167741
 30
0.0
 40
0.2
  1

  7
L200
100
AcDbAttribute
  2
TITLE4
 70
     0
  0
ATTRIB
  5
844
330
83D
100
AcDbEntity
  8
title
 62
     7
100
AcDbText
 10
7.617214829966379
 20
0.9696027915446398
 30
0.0
 40
0.08
  1
11-17-10
  7
L80
 72
     2
 11
8.261024353775903
 21
0.9696027915446398
 31
0.0
100
AcDbAttribute
  2
REVISED
 70
     0
  0
ATTRIB
  5
845
330
83D
100
AcDbEntity
  8
title
 62
     7
100
AcDbText
 10
0.2639423705144838
 20
0.0847116480207214
 30
0.0
 40
0.08
  1
FD101.DWG
  7
L80
100
AcDbAttribute
  2
DWG-NAME
 70
     0
  0
ATTRIB
  5
846
330
83D
100
AcDbEntity
  8
title
 62
     7
100
AcDbText
 10
1.231442370514484
 20
0.7005637793954894
 30
0.0
 40
0.1
  1
N.T.S.
  7
L100
100
AcDbAttribute
  2
SCALE
 70
     0
  0
SEQEND
  5
83E
330
83D
100
AcDbEntity
  8
title
  0
ENDSEC
  0
SECTION
  2
OBJECTS
  0
DICTIONARY
  5
7
330
0
100
AcDbDictionary
281
     1
  3
ACAD_COLOR
350
890
  3
ACAD_GROUP
350
1F
  3
ACAD_LAYOUT
350
B
  3
ACAD_MATERIAL
350
866
  3
ACAD_MLEADERSTYLE
350
8B5
  3
ACAD_MLINESTYLE
350
20
  3
ACAD_PLOTSETTINGS
350
21
  3
ACAD_PLOTSTYLENAME
350
6
  3
ACAD_SCALELIST
350
893
  3
ACAD_TABLESTYLE
350
891
  3
ACAD_VISUALSTYLE
350
87F
  3
ACDB_RECOMPOSE_DATA
350
8FF
  3
AcDbVariableDictionary
350
32
1001
BBSI_Bookmarks
1000
1
1000
1
1000
0
1000
1
1000
0
1000
0
1000
0
1000
0
1000
0
1000
0
1000
0
1001
BBSI_BookmarksEx
1000
0
1000
0
1000

1000
0
1001
BBSI_PltSel
1000
1
1000

1001
BBSI_Plots
1000

1000
ANSI_B_(17.00_x_11.00_Inches)
1000
431.799987792969
1000
279.399993896484
1000
0
1000
1
1000
1
1000
0
1000
0
1000
1
1000
0
1000
1
1000
2.31532829148972
1000
0
1000
1
1000
OKIColorShaded.ctb
1000
0
1000
0
1000
1
1000
1
1000
0
1000
0
1000
0
1000
0
1000
0
1000
0
1000

1000

  0
DICTIONARY
  5
8BE
330
10
100
AcDbDictionary
280
     1
281
     1
  3
ACAD_LAYERFILTERS
360
9B3
  0
DICTIONARY
  5
7FE
330
2
100
AcDbDictionary
280
     1
281
     1
  3
ACAD_SORTENTS
360
7FF
  0
DICTIONARY
  5
994
330
82F
100
AcDbDictionary
280
     1
281
     1
  3
ACAD_SORTENTS
360
995
  0
DICTIONARY
  5
890
102
{ACAD_REACTORS
330
7
102
}
330
7
100
AcDbDictionary
281
     1
  0
DICTIONARY
  5
1F
102
{ACAD_REACTORS
330
7
102
}
330
7
100
AcDbDictionary
281
     1
  0
DICTIONARY
  5
B
102
{ACAD_REACTORS
330
7
102
}
330
7
100
AcDbDictionary
281
     1
  3
Layout1
350
F
  3
Model
350
A
  0
DICTIONARY
  5
866
102
{ACAD_REACTORS
330
7
102
}
330
7
100
AcDbDictionary
281
     1
  3
ByBlock
350
86F
  3
ByLayer
350
867
  3
Global
350
877
  0
DICTIONARY
  5
8B5
102
{ACAD_REACTORS
330
7
102
}
330
7
100
AcDbDictionary
281
     1
  3
Standard
350
91E
  0
DICTIONARY
  5
20
102
{ACAD_REACTORS
330
7
102
}
330
7
100
AcDbDictionary
281
     1
  3
STANDARD
350
24
  0
DICTIONARY
  5
21
102
{ACAD_REACTORS
330
7
102
}
330
7
100
AcDbDictionary
281
     1
  0
ACDBDICTIONARYWDFLT
  5
6
102
{ACAD_REACTORS
330
7
102
}
330
7
100
AcDbDictionary
281
     1
  3
Normal
350
5
100
AcDbDictionaryWithDefault
340
5
  0
DICTIONARY
  5
893
102
{ACAD_REACTORS
330
7
102
}
330
7
100
AcDbDictionary
281
     1
  3
A0
350
894
  0
DICTIONARY
  5
891
102
{ACAD_REACTORS
330
7
102
}
330
7
100
AcDbDictionary
281
     1
  3
Standard
350
892
  0
DICTIONARY
  5
87F
102
{ACAD_REACTORS
330
7
102
}
330
7
100
AcDbDictionary
281
     1
  3
2dWireframe
350
885
  3
3D Hidden
350
887
  3
3dWireframe
350
886
  3
Basic
350
884
  3
Brighten
350
88B
  3
ColorChange
350
88F
  3
Conceptual
350
888
  3
Dim
350
88A
  3
Facepattern
350
88E
  3
Flat
350
880
  3
FlatWithEdges
350
881
  3
Gouraud
350
882
  3
GouraudWithEdges
350
883
  3
Linepattern
350
88D
  3
Realistic
350
889
  3
Thicken
350
88C
  0
XRECORD
  5
8FF
102
{ACAD_REACTORS
330
7
102
}
330
7
100
AcDbXrecord
280
     1
 90
        1
330
892
  0
DICTIONARY
  5
32
102
{ACAD_REACTORS
330
7
102
}
330
7
100
AcDbDictionary
281
     1
  3
CANNOSCALE
350
904
  3
CMLEADERSTYLE
350
901
  3
CTABLESTYLE
350
900
  3
DIMASSOC
350
34
  3
HIDETEXT
350
33
  3
LAYEREVAL
350
9CA
  3
LAYERNOTIFY
350
906
  3
LIGHTINGUNITS
350
905
  3
MSLTSCALE
350
903
  3
SORTENTS
350
80B
  3
UPDATETHUMBNAIL
350
902
  0
DICTIONARY
  5
9B3
102
{ACAD_REACTORS
330
8BE
102
}
330
8BE
100
AcDbDictionary
281
     1
  3
_0100-
350
9B6
  3
_0280-
350
9B5
  3
_Add Alternate
350
9B8
  3
_Bid Alternate
350
9B9
  3
_Color 253
350
9BB
  3
_Color 8
350
9B7
  3
_Color 84
350
9BA
  3
_Contours
350
9C1
  3
_Demo
350
9BC
  3
_Existing
350
9BD
  3
_Hardscape
350
9C0
  3
_NoXref
350
9B4
  3
_Row
350
9BE
  3
_Utility
350
9BF
  0
SORTENTSTABLE
  5
7FF
102
{ACAD_REACTORS
330
7FE
102
}
330
7FE
100
AcDbSortentsTable
330
2
331
4F2
  5
4F0
331
47C
  5
47A
331
4BB
  5
4B9
331
4FA
  5
4F8
331
4C3
  5
4C1
331
484
  5
482
331
48C
  5
48A
331
4CB
  5
4C9
331
441
  5
43F
331
494
  5
492
331
449
  5
447
331
451
  5
44F
331
7E0
  5
799
331
7E8
  5
7E5
331
7F0
  5
7ED
331
49C
  5
49A
331
45D
  5
45B
331
4D3
  5
4D1
331
4DB
  5
4D9
331
465
  5
463
331
4A4
  5
4A2
331
4E3
  5
4E1
331
46D
  5
46B
331
4AC
  5
4AA
331
422
  5
421
331
4EB
  5
4E9
331
4B4
  5
4B2
331
475
  5
473
331
42A
  5
428
331
432
  5
430
331
43A
  5
438
331
753
  5
6ED
331
808
  5
808
331
6ED
  5
675
331
4BC
  5
4BA
331
47D
  5
47B
331
4F3
  5
4F1
331
4C4
  5
4C2
331
485
  5
483
331
4FB
  5
4F9
331
5B8
  5
537
331
4CC
  5
4CA
331
48D
  5
48B
331
442
  5
440
331
495
  5
493
331
44A
  5
448
331
452
  5
450
331
41B
  5
41B
331
7E1
  5
7DE
331
7E9
  5
7E6
331
7F1
  5
7EE
331
4D4
  5
4D2
331
45E
  5
45C
331
49D
  5
49B
331
4DC
  5
4DA
331
4A5
  5
4A3
331
466
  5
464
331
4AD
  5
4AB
331
46E
  5
46C
331
4E4
  5
4E2
331
423
  5
422
331
4EC
  5
4EA
331
476
  5
474
331
4B5
  5
4B3
331
42B
  5
429
331
433
  5
431
331
43B
  5
439
331
754
  5
717
331
809
  5
809
331
4F4
  5
4F2
331
47E
  5
47C
331
4BD
  5
4BB
331
4C5
  5
4C3
331
486
  5
484
331
4CD
  5
4CB
331
48E
  5
48C
331
443
  5
441
331
496
  5
494
331
44B
  5
449
331
453
  5
451
331
41C
  5
41C
331
639
  5
5B8
331
7E2
  5
7DF
331
7EA
  5
7E7
331
7F2
  5
7EF
331
49E
  5
49C
331
45F
  5
45D
331
4D5
  5
4D3
331
4DD
  5
4DB
331
467
  5
465
331
4A6
  5
4A4
331
4E5
  5
4E3
331
46F
  5
46D
331
4AE
  5
4AC
331
424
  5
423
331
4ED
  5
4EB
331
4B6
  5
4B4
331
477
  5
475
331
42C
  5
42A
331
434
  5
432
331
83D
  5
83D
331
43C
  5
43A
331
4BE
  5
4BC
331
47F
  5
47D
331
4F5
  5
4F3
331
573
  5
4FB
331
487
  5
485
331
4C6
  5
4C4
331
4CE
  5
4CC
331
48F
  5
48D
331
444
  5
442
331
497
  5
495
331
44C
  5
44A
331
454
  5
452
331
41D
  5
7F2
331
7E3
  5
7E0
331
7EB
  5
7E8
331
7F3
  5
7F0
331
458
  5
456
331
4D6
  5
4D4
331
49F
  5
49D
331
460
  5
45E
331
4DE
  5
4DC
331
4A7
  5
4A5
331
468
  5
466
331
470
  5
46E
331
4AF
  5
4AD
331
4E6
  5
4E4
331
425
  5
424
331
4EE
  5
4EC
331
4B7
  5
4B5
331
42D
  5
42B
331
435
  5
433
331
43D
  5
43B
331
717
  5
6B1
331
478
  5
476
331
4F6
  5
4F4
331
480
  5
47E
331
4BF
  5
4BD
331
4C7
  5
4C5
331
488
  5
486
331
4CF
  5
4CD
331
490
  5
48E
331
445
  5
443
331
44D
  5
44B
331
455
  5
453
331
41E
  5
41D
331
6B1
  5
639
331
7E4
  5
7E1
331
7EC
  5
7E9
331
7F4
  5
7F1
331
498
  5
496
331
459
  5
457
331
4A0
  5
49E
331
461
  5
45F
331
4D7
  5
4D5
331
4DF
  5
4DD
331
469
  5
467
331
4A8
  5
4A6
331
4B0
  5
4AE
331
471
  5
46F
331
4E7
  5
4E5
331
4EF
  5
4ED
331
426
  5
7F3
331
42E
  5
42C
331
436
  5
434
331
43E
  5
43C
331
4B8
  5
4B6
331
479
  5
477
331
4C0
  5
4BE
331
481
  5
47F
331
4F7
  5
4F5
331
4C8
  5
4C6
331
489
  5
487
331
491
  5
48F
331
446
  5
444
331
44E
  5
44C
331
456
  5
454
331
41F
  5
41E
331
7E5
  5
7E2
331
7ED
  5
7EA
331
4D0
  5
4CE
331
45A
  5
458
331
499
  5
497
331
4D8
  5
4D6
331
4A1
  5
49F
331
462
  5
460
331
4A9
  5
4A7
331
46A
  5
468
331
4E0
  5
4DE
331
4B1
  5
4AF
331
472
  5
470
331
4E8
  5
4E6
331
427
  5
425
331
42F
  5
42D
331
437
  5
435
331
43F
  5
43D
331
7DE
  5
753
331
4F0
  5
4EE
331
47A
  5
478
331
4B9
  5
4B7
331
4F8
  5
4F6
331
4C1
  5
4BF
331
482
  5
480
331
537
  5
4FA
331
4C9
  5
4C7
331
48A
  5
488
331
492
  5
490
331
447
  5
445
331
44F
  5
44D
331
457
  5
455
331
7E6
  5
7E3
331
7EE
  5
7EB
331
49A
  5
498
331
45B
  5
459
331
4D1
  5
4CF
331
463
  5
461
331
4D9
  5
4D7
331
4E1
  5
4DF
331
46B
  5
469
331
4AA
  5
4A8
331
4E9
  5
4E7
331
4B2
  5
4B0
331
473
  5
471
331
420
  5
41F
331
428
  5
426
331
430
  5
42E
331
438
  5
436
331
675
  5
5FD
331
7DF
  5
754
331
4BA
  5
4B8
331
47B
  5
479
331
4F1
  5
4EF
331
4C2
  5
4C0
331
483
  5
481
331
4F9
  5
4F7
331
4CA
  5
4C8
331
48B
  5
489
331
493
  5
491
331
440
  5
43E
331
5FD
  5
573
331
448
  5
446
331
450
  5
44E
331
7E7
  5
7E4
331
7EF
  5
7EC
331
4D2
  5
4D0
331
45C
  5
45A
331
49B
  5
499
331
4DA
  5
4D8
331
4A3
  5
4A1
331
464
  5
462
331
4AB
  5
4A9
331
46C
  5
46A
331
4E2
  5
4E0
331
4B3
  5
4B1
331
474
  5
472
331
4EA
  5
4E8
331
421
  5
420
331
429
  5
427
331
431
  5
42F
331
439
  5
437
331
807
  5
807
331
799
  5
7F4
  0
SORTENTSTABLE
  5
995
102
{ACAD_REACTORS
330
994
102
}
330
994
100
AcDbSortentsTable
330
82F
  0
LAYOUT
  5
F
102
{ACAD_REACTORS
330
B
102
}
330
B
100
AcDbPlotSettings
  1

  2
S:\AutoCAD 2002\Plotters\1055B&WDraftShaded.pc3
  4

  6

 40
0.0
 41
0.0
 42
0.0
 43
0.0
 44
0.0
 45
0.0
 46
0.0
 47
0.0
 48
0.0
 49
0.0
140
0.0
141
0.0
142
1.0
143
1.0
 70
   688
 72
     0
 73
     0
 74
     5
  7
TRexLJ5Shaded2.ctb
 75
    16
147
1.0
 76
     0
 77
     2
 78
   300
148
0.0
149
0.0
100
AcDbLayout
  1
Layout1
 70
     1
 71
     1
 10
0.0
 20
0.0
 11
12.0
 21
9.0
 12
0.0
 22
0.0
 32
0.0
 14
1.000000000000000E+20
 24
1.000000000000000E+20
 34
1.000000000000000E+20
 15
-1.000000000000000E+20
 25
-1.000000000000000E+20
 35
-1.000000000000000E+20
146
0.0
 13
0.0
 23
0.0
 33
0.0
 16
1.0
 26
0.0
 36
0.0
 17
0.0
 27
1.0
 37
0.0
 76
     0
330
C
  0
LAYOUT
  5
A
102
{ACAD_REACTORS
330
B
102
}
330
B
100
AcDbPlotSettings
  1

  2
none_device
  4
Letter_(8.50_x_11.00_Inches)
  6

 40
6.349999904632568
 41
6.349999904632568
 42
6.350006103515625
 43
6.350006103515625
 44
215.8999938964844
 45
279.3999938964844
 46
0.0
 47
0.0
 48
0.0
 49
0.0
140
0.0
141
0.0
142
1.0
143
2.242966776378186
 70
 11952
 72
     0
 73
     1
 74
     0
  7

 75
     0
147
0.4458380795166046
 76
     0
 77
     2
 78
   300
148
89.67660604700141
149
1.120461971830989
100
AcDbLayout
  1
Model
 70
     1
 71
     0
 10
0.0
 20
0.0
 11
12.0
 21
9.0
 12
0.0
 22
0.0
 32
0.0
 14
0.0
 24
0.0
 34
0.0
 15
0.0
 25
0.0
 35
0.0
146
0.0
 13
0.0
 23
0.0
 33
0.0
 16
1.0
 26
0.0
 36
0.0
 17
0.0
 27
1.0
 37
0.0
 76
     0
330
2
331
864
1001
ACAD_PSEXT
1000
None
1000
None
1000
Not applicable
1000
The layout will not be plotted unless a new plotter configuration name is selected.
1070
     0
  0
MATERIAL
  5
86F
102
{ACAD_XDICTIONARY
360
870
102
}
102
{ACAD_REACTORS
330
866
102
}
330
866
100
AcDbMaterial
  1
ByBlock
 72
     0
 43
0.0208333333333333
 43
0.0
 43
0.0
 43
0.0
 43
0.0
 43
0.0208333333333333
 43
0.0
 43
0.0
 43
0.0
 43
0.0
 43
1.0
 43
0.0
 43
0.0
 43
0.0
 43
0.0
 43
1.0
 77
     0
 47
0.0208333333333333
 47
0.0
 47
0.0
 47
0.0
 47
0.0
 47
0.0208333333333333
 47
0.0
 47
0.0
 47
0.0
 47
0.0
 47
1.0
 47
0.0
 47
0.0
 47
0.0
 47
0.0
 47
1.0
171
     0
 49
0.0208333333333333
 49
0.0
 49
0.0
 49
0.0
 49
0.0
 49
0.0208333333333333
 49
0.0
 49
0.0
 49
0.0
 49
0.0
 49
1.0
 49
0.0
 49
0.0
 49
0.0
 49
0.0
 49
1.0
175
     0
142
0.0208333333333333
142
0.0
142
0.0
142
0.0
142
0.0
142
0.0208333333333333
142
0.0
142
0.0
142
0.0
142
0.0
142
1.0
142
0.0
142
0.0
142
0.0
142
0.0
142
1.0
179
     0
144
0.0208333333333333
144
0.0
144
0.0
144
0.0
144
0.0
144
0.0208333333333333
144
0.0
144
0.0
144
0.0
144
0.0
144
1.0
144
0.0
144
0.0
144
0.0
144
0.0
144
1.0
147
0.0208333333333333
147
0.0
147
0.0
147
0.0
147
0.0
147
0.0208333333333333
147
0.0
147
0.0
147
0.0
147
0.0
147
1.0
147
0.0
147
0.0
147
0.0
147
0.0
147
1.0
  0
MATERIAL
  5
867
102
{ACAD_XDICTIONARY
360
868
102
}
102
{ACAD_REACTORS
330
866
102
}
330
866
100
AcDbMaterial
  1
ByLayer
 72
     0
 43
0.0208333333333333
 43
0.0
 43
0.0
 43
0.0
 43
0.0
 43
0.0208333333333333
 43
0.0
 43
0.0
 43
0.0
 43
0.0
 43
1.0
 43
0.0
 43
0.0
 43
0.0
 43
0.0
 43
1.0
 77
     0
 47
0.0208333333333333
 47
0.0
 47
0.0
 47
0.0
 47
0.0
 47
0.0208333333333333
 47
0.0
 47
0.0
 47
0.0
 47
0.0
 47
1.0
 47
0.0
 47
0.0
 47
0.0
 47
0.0
 47
1.0
171
     0
 49
0.0208333333333333
 49
0.0
 49
0.0
 49
0.0
 49
0.0
 49
0.0208333333333333
 49
0.0
 49
0.0
 49
0.0
 49
0.0
 49
1.0
 49
0.0
 49
0.0
 49
0.0
 49
0.0
 49
1.0
175
     0
142
0.0208333333333333
142
0.0
142
0.0
142
0.0
142
0.0
142
0.0208333333333333
142
0.0
142
0.0
142
0.0
142
0.0
142
1.0
142
0.0
142
0.0
142
0.0
142
0.0
142
1.0
179
     0
144
0.0208333333333333
144
0.0
144
0.0
144
0.0
144
0.0
144
0.0208333333333333
144
0.0
144
0.0
144
0.0
144
0.0
144
1.0
144
0.0
144
0.0
144
0.0
144
0.0
144
1.0
147
0.0208333333333333
147
0.0
147
0.0
147
0.0
147
0.0
147
0.0208333333333333
147
0.0
147
0.0
147
0.0
147
0.0
147
1.0
147
0.0
147
0.0
147
0.0
147
0.0
147
1.0
  0
MATERIAL
  5
877
102
{ACAD_XDICTIONARY
360
878
102
}
102
{ACAD_REACTORS
330
866
102
}
330
866
100
AcDbMaterial
  1
Global
 72
     0
 43
0.0208333333333333
 43
0.0
 43
0.0
 43
0.0
 43
0.0
 43
0.0208333333333333
 43
0.0
 43
0.0
 43
0.0
 43
0.0
 43
1.0
 43
0.0
 43
0.0
 43
0.0
 43
0.0
 43
1.0
 77
     0
 47
0.0208333333333333
 47
0.0
 47
0.0
 47
0.0
 47
0.0
 47
0.0208333333333333
 47
0.0
 47
0.0
 47
0.0
 47
0.0
 47
1.0
 47
0.0
 47
0.0
 47
0.0
 47
0.0
 47
1.0
171
     0
 49
0.0208333333333333
 49
0.0
 49
0.0
 49
0.0
 49
0.0
 49
0.0208333333333333
 49
0.0
 49
0.0
 49
0.0
 49
0.0
 49
1.0
 49
0.0
 49
0.0
 49
0.0
 49
0.0
 49
1.0
175
     0
142
0.0208333333333333
142
0.0
142
0.0
142
0.0
142
0.0
142
0.0208333333333333
142
0.0
142
0.0
142
0.0
142
0.0
142
1.0
142
0.0
142
0.0
142
0.0
142
0.0
142
1.0
179
     0
144
0.0208333333333333
144
0.0
144
0.0
144
0.0
144
0.0
144
0.0208333333333333
144
0.0
144
0.0
144
0.0
144
0.0
144
1.0
144
0.0
144
0.0
144
0.0
144
0.0
144
1.0
147
0.0208333333333333
147
0.0
147
0.0
147
0.0
147
0.0
147
0.0208333333333333
147
0.0
147
0.0
147
0.0
147
0.0
147
1.0
147
0.0
147
0.0
147
0.0
147
0.0
147
1.0
  0
MLEADERSTYLE
  5
91E
102
{ACAD_REACTORS
330
8B5
102
}
330
8B5
100
AcDbMLeaderStyle
170
     2
171
     1
172
     0
 90
        2
 40
0.0
 41
0.0
173
     1
 91
-1056964608
340
15
 92
       -2
290
     1
 42
0.09
291
     1
 43
0.36
  3
Standard
 44
0.18
300

342
12
174
     1
178
     6
175
     1
176
     0
 93
-1056964608
 45
0.18
292
     0
297
     0
 46
0.18
 94
-1056964608
 47
1.0
 49
1.0
140
1.0
293
     1
141
0.0
294
     1
177
     0
142
1.0
295
     0
296
     0
143
0.125
1001
ACAD_MLEADERVER
1070
     2
  0
MLINESTYLE
  5
24
102
{ACAD_REACTORS
330
20
102
}
330
20
100
AcDbMlineStyle
  2
STANDARD
 70
     0
  3

 62
     0
 51
90.0
 52
90.0
 71
     2
 49
0.5
 62
   256
  6
BYLAYER
 49
-0.5
 62
   256
  6
BYLAYER
  0
ACDBPLACEHOLDER
  5
5
102
{ACAD_REACTORS
330
6
102
}
330
6
  0
SCALE
  5
894
102
{ACAD_REACTORS
330
893
102
}
330
893
100
AcDbScale
 70
     0
300
1:1
140
1.0
141
1.0
290
     1
  0
TABLESTYLE
  5
892
102
{ACAD_XDICTIONARY
360
8FD
102
}
102
{ACAD_REACTORS
330
891
102
}
330
891
100
AcDbTableStyle
  3
Standard
 70
     0
 71
     0
 40
0.06
 41
0.06
280
     0
281
     0
  7
STANDARD
140
0.18
170
     2
 62
     0
 63
     7
283
     0
274
    -2
284
     1
 64
     0
275
    -2
285
     1
 65
     0
276
    -2
286
     1
 66
     0
277
    -2
287
     1
 67
     0
278
    -2
288
     1
 68
     0
279
    -2
289
     1
 69
     0
  7
STANDARD
140
0.25
170
     5
 62
     0
 63
     7
283
     0
274
    -2
284
     1
 64
     0
275
    -2
285
     1
 65
     0
276
    -2
286
     1
 66
     0
277
    -2
287
     1
 67
     0
278
    -2
288
     1
 68
     0
279
    -2
289
     1
 69
     0
  7
STANDARD
140
0.18
170
     5
 62
     0
 63
     7
283
     0
274
    -2
284
     1
 64
     0
275
    -2
285
     1
 65
     0
276
    -2
286
     1
 66
     0
277
    -2
287
     1
 67
     0
278
    -2
288
     1
 68
     0
279
    -2
289
     1
 69
     0
  0
VISUALSTYLE
  5
885
102
{ACAD_REACTORS
330
87F
102
}
330
87F
100
AcDbVisualStyle
  2
2dWireframe
 70
     4
 71
     0
 72
     2
 73
     0
 90
        0
 40
-0.6
 41
-30.0
 62
     5
 63
     7
421
 16777215
 74
     1
 91
        4
 64
     7
 65
   257
 75
     1
175
     1
 42
1.0
 92
        0
 66
   257
 43
1.0
 76
     1
 77
     6
 78
     2
 67
     7
 79
     5
170
     0
171
     0
290
     0
174
     0
 93
        1
 44
0.0
173
     0
291
     0
 45
0.0
1001
ACAD
1000
AcDbSavedByObjectVersion
1070
     0
  0
VISUALSTYLE
  5
887
102
{ACAD_REACTORS
330
87F
102
}
330
87F
100
AcDbVisualStyle
  2
3D Hidden
 70
     6
 71
     1
 72
     2
 73
     2
 90
        0
 40
-0.6
 41
-30.0
 62
     5
 63
     7
421
 16777215
 74
     2
 91
        2
 64
     7
 65
   257
 75
     2
175
     1
 42
40.0
 92
        0
 66
   257
 43
1.0
 76
     1
 77
     6
 78
     2
 67
     7
 79
     3
170
     0
171
     0
290
     0
174
     0
 93
        1
 44
0.0
173
     0
291
     0
 45
0.0
1001
ACAD
1000
AcDbSavedByObjectVersion
1070
     0
  0
VISUALSTYLE
  5
886
102
{ACAD_REACTORS
330
87F
102
}
330
87F
100
AcDbVisualStyle
  2
3dWireframe
 70
     5
 71
     0
 72
     2
 73
     0
 90
        0
 40
-0.6
 41
-30.0
 62
     5
 63
     7
421
 16777215
 74
     1
 91
        4
 64
     7
 65
   257
 75
     1
175
     1
 42
1.0
 92
        0
 66
   257
 43
1.0
 76
     1
 77
     6
 78
     2
 67
     7
 79
     5
170
     0
171
     0
290
     0
174
     0
 93
        1
 44
0.0
173
     0
291
     0
 45
0.0
1001
ACAD
1000
AcDbSavedByObjectVersion
1070
     0
  0
VISUALSTYLE
  5
884
102
{ACAD_REACTORS
330
87F
102
}
330
87F
100
AcDbVisualStyle
  2
Basic
 70
     7
 71
     1
 72
     0
 73
     1
 90
        0
 40
-0.6
 41
-30.0
 62
     5
 63
     7
421
 16777215
 74
     0
 91
        4
 64
     7
 65
   257
 75
     1
175
     1
 42
1.0
 92
        8
 66
     7
 43
1.0
 76
     1
 77
     6
 78
     2
 67
     7
 79
     5
170
     0
171
     0
290
     0
174
     0
 93
        1
 44
0.0
173
     0
291
     1
 45
0.0
1001
ACAD
1000
AcDbSavedByObjectVersion
1070
     0
  0
VISUALSTYLE
  5
88B
102
{ACAD_REACTORS
330
87F
102
}
330
87F
100
AcDbVisualStyle
  2
Brighten
 70
    12
 71
     2
 72
     2
 73
     0
 90
        0
 40
-0.6
 41
-30.0
 62
     5
 63
     7
421
 16777215
 74
     1
 91
        4
 64
     7
 65
   257
 75
     1
175
     1
 42
1.0
 92
        8
 66
     7
 43
1.0
 76
     1
 77
     6
 78
     2
 67
     7
 79
     5
170
     0
171
     0
290
     0
174
     0
 93
        1
 44
50.0
173
     0
291
     1
 45
0.0
1001
ACAD
1000
AcDbSavedByObjectVersion
1070
     0
  0
VISUALSTYLE
  5
88F
102
{ACAD_REACTORS
330
87F
102
}
330
87F
100
AcDbVisualStyle
  2
ColorChange
 70
    16
 71
     2
 72
     2
 73
     3
 90
        0
 40
-0.6
 41
-30.0
 62
     5
 63
     8
421
  8421504
 74
     1
 91
        4
 64
     7
 65
   257
 75
     1
175
     1
 42
1.0
 92
        8
 66
     8
424
  8421504
 43
1.0
 76
     1
 77
     6
 78
     2
 67
     7
 79
     5
170
     0
171
     0
290
     0
174
     0
 93
        1
 44
0.0
173
     0
291
     1
 45
0.0
1001
ACAD
1000
AcDbSavedByObjectVersion
1070
     0
  0
VISUALSTYLE
  5
888
102
{ACAD_REACTORS
330
87F
102
}
330
87F
100
AcDbVisualStyle
  2
Conceptual
 70
     9
 71
     3
 72
     2
 73
     0
 90
        0
 40
-0.6
 41
-30.0
 62
     5
 63
     7
421
 16777215
 74
     2
 91
        2
 64
     7
 65
   257
 75
     1
175
     1
 42
40.0
 92
        8
 66
     7
 43
1.0
 76
     1
 77
     6
 78
     2
 67
     7
 79
     3
170
     0
171
     0
290
     0
174
     0
 93
        1
 44
0.0
173
     0
291
     0
 45
0.0
1001
ACAD
1000
AcDbSavedByObjectVersion
1070
     0
  0
VISUALSTYLE
  5
88A
102
{ACAD_REACTORS
330
87F
102
}
330
87F
100
AcDbVisualStyle
  2
Dim
 70
    11
 71
     2
 72
     2
 73
     0
 90
        0
 40
-0.6
 41
-30.0
 62
     5
 63
     7
421
 16777215
 74
     1
 91
        4
 64
     7
 65
   257
 75
     1
175
     1
 42
1.0
 92
        8
 66
     7
 43
1.0
 76
     1
 77
     6
 78
     2
 67
     7
 79
     5
170
     0
171
     0
290
     0
174
     0
 93
        1
 44
-50.0
173
     0
291
     1
 45
0.0
1001
ACAD
1000
AcDbSavedByObjectVersion
1070
     0
  0
VISUALSTYLE
  5
88E
102
{ACAD_REACTORS
330
87F
102
}
330
87F
100
AcDbVisualStyle
  2
Facepattern
 70
    15
 71
     2
 72
     2
 73
     0
 90
        0
 40
-0.6
 41
-30.0
 62
     5
 63
     7
421
 16777215
 74
     1
 91
        4
 64
     7
 65
   257
 75
     1
175
     1
 42
1.0
 92
        8
 66
     7
 43
1.0
 76
     1
 77
     6
 78
     2
 67
     7
 79
     5
170
     0
171
     0
290
     0
174
     0
 93
        1
 44
0.0
173
     0
291
     1
 45
0.0
1001
ACAD
1000
AcDbSavedByObjectVersion
1070
     0
  0
VISUALSTYLE
  5
880
102
{ACAD_REACTORS
330
87F
102
}
330
87F
100
AcDbVisualStyle
  2
Flat
 70
     0
 71
     2
 72
     1
 73
     1
 90
        2
 40
-0.6
 41
30.0
 62
     5
 63
     7
421
 16777215
 74
     0
 91
        4
 64
     7
 65
   257
 75
     1
175
     1
 42
1.0
 92
        8
 66
     7
 43
1.0
 76
     1
 77
     6
 78
     2
 67
     7
 79
     5
170
     0
171
     0
290
     0
174
     0
 93
       13
 44
0.0
173
     0
291
     1
 45
0.0
1001
ACAD
1000
AcDbSavedByObjectVersion
1070
     0
  0
VISUALSTYLE
  5
881
102
{ACAD_REACTORS
330
87F
102
}
330
87F
100
AcDbVisualStyle
  2
FlatWithEdges
 70
     1
 71
     2
 72
     1
 73
     1
 90
        2
 40
-0.6
 41
30.0
 62
     5
 63
     7
421
 16777215
 74
     1
 91
        4
 64
     7
 65
   257
 75
     1
175
     1
 42
1.0
 92
        0
 66
   257
 43
1.0
 76
     1
 77
     6
 78
     2
 67
     7
 79
     5
170
     0
171
     0
290
     0
174
     0
 93
       13
 44
0.0
173
     0
291
     1
 45
0.0
1001
ACAD
1000
AcDbSavedByObjectVersion
1070
     0
  0
VISUALSTYLE
  5
882
102
{ACAD_REACTORS
330
87F
102
}
330
87F
100
AcDbVisualStyle
  2
Gouraud
 70
     2
 71
     2
 72
     2
 73
     1
 90
        2
 40
-0.6
 41
30.0
 62
     5
 63
     7
421
 16777215
 74
     0
 91
        4
 64
     7
 65
   257
 75
     1
175
     1
 42
1.0
 92
        0
 66
     7
 43
1.0
 76
     1
 77
     6
 78
     2
 67
     7
 79
     5
170
     0
171
     0
290
     0
174
     0
 93
       13
 44
0.0
173
     0
291
     1
 45
0.0
1001
ACAD
1000
AcDbSavedByObjectVersion
1070
     0
  0
VISUALSTYLE
  5
883
102
{ACAD_REACTORS
330
87F
102
}
330
87F
100
AcDbVisualStyle
  2
GouraudWithEdges
 70
     3
 71
     2
 72
     2
 73
     1
 90
        2
 40
-0.6
 41
30.0
 62
     5
 63
     7
421
 16777215
 74
     1
 91
        4
 64
     7
 65
   257
 75
     1
175
     1
 42
1.0
 92
        0
 66
   257
 43
1.0
 76
     1
 77
     6
 78
     2
 67
     7
 79
     5
170
     0
171
     0
290
     0
174
     0
 93
       13
 44
0.0
173
     0
291
     1
 45
0.0
1001
ACAD
1000
AcDbSavedByObjectVersion
1070
     0
  0
VISUALSTYLE
  5
88D
102
{ACAD_REACTORS
330
87F
102
}
330
87F
100
AcDbVisualStyle
  2
Linepattern
 70
    14
 71
     2
 72
     2
 73
     0
 90
        0
 40
-0.6
 41
-30.0
 62
     5
 63
     7
421
 16777215
 74
     1
 91
        4
 64
     7
 65
   257
 75
     7
175
     7
 42
1.0
 92
        8
 66
     7
 43
1.0
 76
     1
 77
     6
 78
     2
 67
     7
 79
     5
170
     0
171
     0
290
     0
174
     0
 93
        1
 44
0.0
173
     0
291
     1
 45
0.0
1001
ACAD
1000
AcDbSavedByObjectVersion
1070
     0
  0
VISUALSTYLE
  5
889
102
{ACAD_REACTORS
330
87F
102
}
330
87F
100
AcDbVisualStyle
  2
Realistic
 70
     8
 71
     2
 72
     2
 73
     0
 90
        0
 40
-0.6
 41
-30.0
 62
     5
 63
     7
421
 16777215
 74
     1
 91
        0
 64
     7
 65
   257
 75
     1
175
     1
 42
1.0
 92
        8
 66
     8
424
  7895160
 43
1.0
 76
     1
 77
     6
 78
     2
 67
     7
 79
     5
170
     0
171
     0
290
     0
174
     0
 93
       13
 44
0.0
173
     0
291
     0
 45
0.0
1001
ACAD
1000
AcDbSavedByObjectVersion
1070
     0
  0
VISUALSTYLE
  5
88C
102
{ACAD_REACTORS
330
87F
102
}
330
87F
100
AcDbVisualStyle
  2
Thicken
 70
    13
 71
     2
 72
     2
 73
     0
 90
        0
 40
-0.6
 41
-30.0
 62
     5
 63
     7
421
 16777215
 74
     1
 91
        4
 64
     7
 65
   257
 75
     1
175
     1
 42
1.0
 92
       12
 66
     7
 43
1.0
 76
     1
 77
     6
 78
     2
 67
     7
 79
     5
170
     0
171
     0
290
     0
174
     0
 93
        1
 44
0.0
173
     0
291
     1
 45
0.0
1001
ACAD
1000
AcDbSavedByObjectVersion
1070
     0
  0
DICTIONARYVAR
  5
904
102
{ACAD_REACTORS
330
32
102
}
330
32
100
DictionaryVariables
280
     0
  1
1:1
  0
DICTIONARYVAR
  5
901
102
{ACAD_REACTORS
330
32
102
}
330
32
100
DictionaryVariables
280
     0
  1
STANDARD
  0
DICTIONARYVAR
  5
900
102
{ACAD_REACTORS
330
32
102
}
330
32
100
DictionaryVariables
280
     0
  1
STANDARD
  0
DICTIONARYVAR
  5
34
102
{ACAD_REACTORS
330
32
102
}
330
32
100
DictionaryVariables
280
     0
  1
1
  0
DICTIONARYVAR
  5
33
102
{ACAD_REACTORS
330
32
102
}
330
32
100
DictionaryVariables
280
     0
  1
1
  0
DICTIONARYVAR
  5
9CA
102
{ACAD_REACTORS
330
32
102
}
330
32
100
DictionaryVariables
280
     0
  1
0
  0
DICTIONARYVAR
  5
906
102
{ACAD_REACTORS
330
32
102
}
330
32
100
DictionaryVariables
280
     0
  1
15
  0
DICTIONARYVAR
  5
905
102
{ACAD_REACTORS
330
32
102
}
330
32
100
DictionaryVariables
280
     0
  1
0
  0
DICTIONARYVAR
  5
903
102
{ACAD_REACTORS
330
32
102
}
330
32
100
DictionaryVariables
280
     0
  1
0
  0
DICTIONARYVAR
  5
80B
102
{ACAD_REACTORS
330
32
102
}
330
32
100
DictionaryVariables
280
     0
  1
1
  0
DICTIONARYVAR
  5
902
102
{ACAD_REACTORS
330
32
102
}
330
32
100
DictionaryVariables
280
     0
  1
0
  0
XRECORD
  5
9B6
102
{ACAD_REACTORS
330
9B3
102
}
330
9B3
100
AcDbXrecord
280
     1
  1
_0100-
  1
*0100-*
  1
*
  1
*
 70
     0
  1
*
  1
*
  0
XRECORD
  5
9B5
102
{ACAD_REACTORS
330
9B3
102
}
330
9B3
100
AcDbXrecord
280
     1
  1
_0280-
  1
*0280-*
  1
*
  1
*
 70
     0
  1
*
  1
*
  0
XRECORD
  5
9B8
102
{ACAD_REACTORS
330
9B3
102
}
330
9B3
100
AcDbXrecord
280
     1
  1
_Add Alternate
  1
*add*alt*
  1
*
  1
*
 70
     0
  1
*
  1
*
  0
XRECORD
  5
9B9
102
{ACAD_REACTORS
330
9B3
102
}
330
9B3
100
AcDbXrecord
280
     1
  1
_Bid Alternate
  1
*bid*alt*
  1
*
  1
*
 70
     0
  1
*
  1
*
  0
XRECORD
  5
9BB
102
{ACAD_REACTORS
330
9B3
102
}
330
9B3
100
AcDbXrecord
280
     1
  1
_Color 253
  1
*
  1
253
  1
*
 70
     0
  1
*
  1
*
  0
XRECORD
  5
9B7
102
{ACAD_REACTORS
330
9B3
102
}
330
9B3
100
AcDbXrecord
280
     1
  1
_Color 8
  1
*
  1
8
  1
*
 70
     0
  1
*
  1
*
  0
XRECORD
  5
9BA
102
{ACAD_REACTORS
330
9B3
102
}
330
9B3
100
AcDbXrecord
280
     1
  1
_Color 84
  1
*
  1
84
  1
*
 70
     0
  1
*
  1
*
  0
XRECORD
  5
9C1
102
{ACAD_REACTORS
330
9B3
102
}
330
9B3
100
AcDbXrecord
280
     1
  1
_Contours
  1
*contour*,*cont-*,*cp cont*,*p-cont*
  1
*
  1
*
 70
     0
  1
*
  1
*
  0
XRECORD
  5
9BC
102
{ACAD_REACTORS
330
9B3
102
}
330
9B3
100
AcDbXrecord
280
     1
  1
_Demo
  1
*demo*
  1
*
  1
*
 70
     0
  1
*
  1
*
  0
XRECORD
  5
9BD
102
{ACAD_REACTORS
330
9B3
102
}
330
9B3
100
AcDbXrecord
280
     1
  1
_Existing
  1
*exist*,*ex*
  1
*
  1
*
 70
     0
  1
*
  1
*
  0
XRECORD
  5
9C0
102
{ACAD_REACTORS
330
9B3
102
}
330
9B3
100
AcDbXrecord
280
     1
  1
_Hardscape
  1
*sidewalk*,*sw*,*curb*,*walk*,*-lip*,*tbc*
  1
*
  1
*
 70
     0
  1
*
  1
*
  0
XRECORD
  5
9B4
102
{ACAD_REACTORS
330
9B3
102
}
330
9B3
100
AcDbXrecord
280
     1
  1
_NoXref
  1
~*|*
  1
*
  1
*
 70
     0
  1
*
  1
*
  0
XRECORD
  5
9BE
102
{ACAD_REACTORS
330
9B3
102
}
330
9B3
100
AcDbXrecord
280
     1
  1
_Row
  1
*row*
  1
*
  1
*
 70
     0
  1
*
  1
*
  0
XRECORD
  5
9BF
102
{ACAD_REACTORS
330
9B3
102
}
330
9B3
100
AcDbXrecord
280
     1
  1
_Utility
  1
*ut-*,*utility*,*wat*
  1
*
  1
*
 70
     0
  1
*
  1
*
  0
DICTIONARY
  5
870
330
86F
100
AcDbDictionary
280
     1
281
     1
  3
ACAD_XREC_ROUNDTRIP
360
9D2
  3
BUMPTILE
360
872
  3
DIFFUSETILE
360
871
  3
OPACITYTILE
360
875
  3
REFLECTIONTILE
360
874
  3
REFRACTIONTILE
360
876
  3
SPECULARTILE
360
873
  0
DICTIONARY
  5
868
330
867
100
AcDbDictionary
280
     1
281
     1
  3
ACAD_XREC_ROUNDTRIP
360
9D1
  3
BUMPTILE
360
86A
  3
DIFFUSETILE
360
869
  3
OPACITYTILE
360
86D
  3
REFLECTIONTILE
360
86C
  3
REFRACTIONTILE
360
86E
  3
SPECULARTILE
360
86B
  0
DICTIONARY
  5
878
330
877
100
AcDbDictionary
280
     1
281
     1
  3
ACAD_XREC_ROUNDTRIP
360
9D3
  3
BUMPTILE
360
87A
  3
DIFFUSETILE
360
879
  3
OPACITYTILE
360
87D
  3
REFLECTIONTILE
360
87C
  3
REFRACTIONTILE
360
87E
  3
SPECULARTILE
360
87B
  0
DICTIONARY
  5
8FD
330
892
100
AcDbDictionary
280
     1
281
     1
  3
ACAD_ROUNDTRIP_2008_TABLESTYLE_CELLSTYLEMAP
360
9D0
  3
ACAD_XREC_ROUNDTRIP
360
9D4
  0
XRECORD
  5
9D2
102
{ACAD_REACTORS
330
870
102
}
330
870
100
AcDbXrecord
280
     1
102
MATERIAL
148
0.0
149
0.0
149
0.0
 93
        0
 94
      127
282
     0
 72
     0
 77
     0
171
     0
175
     0
179
     0
273
     0
  0
XRECORD
  5
872
102
{ACAD_REACTORS
330
870
102
}
330
870
100
AcDbXrecord
280
     1
270
     1
271
     1
  0
XRECORD
  5
871
102
{ACAD_REACTORS
330
870
102
}
330
870
100
AcDbXrecord
280
     1
270
     1
271
     1
  0
XRECORD
  5
875
102
{ACAD_REACTORS
330
870
102
}
330
870
100
AcDbXrecord
280
     1
270
     1
271
     1
  0
XRECORD
  5
874
102
{ACAD_REACTORS
330
870
102
}
330
870
100
AcDbXrecord
280
     1
270
     1
271
     1
  0
XRECORD
  5
876
102
{ACAD_REACTORS
330
870
102
}
330
870
100
AcDbXrecord
280
     1
270
     1
271
     1
  0
XRECORD
  5
873
102
{ACAD_REACTORS
330
870
102
}
330
870
100
AcDbXrecord
280
     1
270
     1
271
     1
  0
XRECORD
  5
9D1
102
{ACAD_REACTORS
330
868
102
}
330
868
100
AcDbXrecord
280
     1
102
MATERIAL
148
0.0
149
0.0
149
0.0
 93
        0
 94
      127
282
     0
 72
     0
 77
     0
171
     0
175
     0
179
     0
273
     0
  0
XRECORD
  5
86A
102
{ACAD_REACTORS
330
868
102
}
330
868
100
AcDbXrecord
280
     1
270
     1
271
     1
  0
XRECORD
  5
869
102
{ACAD_REACTORS
330
868
102
}
330
868
100
AcDbXrecord
280
     1
270
     1
271
     1
  0
XRECORD
  5
86D
102
{ACAD_REACTORS
330
868
102
}
330
868
100
AcDbXrecord
280
     1
270
     1
271
     1
  0
XRECORD
  5
86C
102
{ACAD_REACTORS
330
868
102
}
330
868
100
AcDbXrecord
280
     1
270
     1
271
     1
  0
XRECORD
  5
86E
102
{ACAD_REACTORS
330
868
102
}
330
868
100
AcDbXrecord
280
     1
270
     1
271
     1
  0
XRECORD
  5
86B
102
{ACAD_REACTORS
330
868
102
}
330
868
100
AcDbXrecord
280
     1
270
     1
271
     1
  0
XRECORD
  5
9D3
102
{ACAD_REACTORS
330
878
102
}
330
878
100
AcDbXrecord
280
     1
102
MATERIAL
148
0.0
149
0.0
149
0.0
 93
        0
 94
      127
282
     0
 72
     0
 77
     0
171
     0
175
     0
179
     0
273
     0
  0
XRECORD
  5
87A
102
{ACAD_REACTORS
330
878
102
}
330
878
100
AcDbXrecord
280
     1
270
     1
271
     1
  0
XRECORD
  5
879
102
{ACAD_REACTORS
330
878
102
}
330
878
100
AcDbXrecord
280
     1
270
     1
271
     1
  0
XRECORD
  5
87D
102
{ACAD_REACTORS
330
878
102
}
330
878
100
AcDbXrecord
280
     1
270
     1
271
     1
  0
XRECORD
  5
87C
102
{ACAD_REACTORS
330
878
102
}
330
878
100
AcDbXrecord
280
     1
270
     1
271
     1
  0
XRECORD
  5
87E
102
{ACAD_REACTORS
330
878
102
}
330
878
100
AcDbXrecord
280
     1
270
     1
271
     1
  0
XRECORD
  5
87B
102
{ACAD_REACTORS
330
878
102
}
330
878
100
AcDbXrecord
280
     1
270
     1
271
     1
  0
CELLSTYLEMAP
  5
9D0
102
{ACAD_REACTORS
330
8FD
102
}
330
8FD
100
AcDbCellStyleMap
 90
        3
300
CELLSTYLE
  1
TABLEFORMAT_BEGIN
 90
        5
170
     1
 91
        0
 92
    32768
 62
   257
 93
        1
300
CONTENTFORMAT
  1
CONTENTFORMAT_BEGIN
 90
        0
 91
        0
 92
      512
 93
        0
300

 40
0.0
140
1.0
 94
        5
 62
     0
340
12
144
0.25
309
CONTENTFORMAT_END
171
     0
 94
        0
309
TABLEFORMAT_END
  1
CELLSTYLE_BEGIN
 90
        1
 91
        1
300
_TITLE
309
CELLSTYLE_END
300
CELLSTYLE
  1
TABLEFORMAT_BEGIN
 90
        5
170
     1
 91
        0
 92
        0
 62
   257
 93
        1
300
CONTENTFORMAT
  1
CONTENTFORMAT_BEGIN
 90
        0
 91
        0
 92
      512
 93
        0
300

 40
0.0
140
1.0
 94
        5
 62
     0
340
12
144
0.18
309
CONTENTFORMAT_END
171
     0
 94
        0
309
TABLEFORMAT_END
  1
CELLSTYLE_BEGIN
 90
        2
 91
        1
300
_HEADER
309
CELLSTYLE_END
300
CELLSTYLE
  1
TABLEFORMAT_BEGIN
 90
        5
170
     1
 91
        0
 92
        0
 62
   257
 93
        1
300
CONTENTFORMAT
  1
CONTENTFORMAT_BEGIN
 90
        0
 91
        0
 92
      512
 93
        0
300

 40
0.0
140
1.0
 94
        2
 62
     0
340
12
144
0.18
309
CONTENTFORMAT_END
171
     0
 94
        0
309
TABLEFORMAT_END
  1
CELLSTYLE_BEGIN
 90
        3
 91
        2
300
_DATA
309
CELLSTYLE_END
  0
XRECORD
  5
9D4
102
{ACAD_REACTORS
330
8FD
102
}
330
8FD
100
AcDbXrecord
280
     1
102
ACAD_ROUNDTRIP_PRE2007_TABLESTYLE
 90
      512
 91
        0
  1

 92
      512
 93
        0
  2

 94
      512
 95
        0
  3

  0
ENDSEC
  0
EOF
