  0
SECTION
  2
HEADER
  9
$ACADVER
  1
AC1018
  9
$ACADMAINTVER
 70
   104
  9
$DWGCODEPAGE
  3
ANSI_1252
  9
$TITLE
  1
O:\RAINBIRD\SpecDraw 2006\MDC\DWG\FD101-2 CTOV.dwg
  9
$SUBJECT
  1
 
  9
$AUTHOR
  1
dweyer
  9
$COMMENTS
  1
This drawing was opened and saved by 'dweyer' with AutoCAD version 16.1s (LMS Tech) using profile WatermarkID on 12-30-2005 @ 12:48:AM
  9
$LASTSAVEDBY
  1
dweyer
  9
$INSBASE
 10
0.0
 20
0.0
 30
0.0
  9
$EXTMIN
 10
0.0
 20
0.0
 30
0.0
  9
$EXTMAX
 10
16.48999999999999
 20
10.44
 30
0.03
  9
$LIMMIN
 10
0.0
 20
0.0
  9
$LIMMAX
 10
12.0
 20
9.0
  9
$ORTHOMODE
 70
     1
  9
$REGENMODE
 70
     1
  9
$FILLMODE
 70
     1
  9
$QTEXTMODE
 70
     0
  9
$MIRRTEXT
 70
     0
  9
$LTSCALE
 40
1.0
  9
$ATTMODE
 70
     1
  9
$TEXTSIZE
 40
0.125
  9
$TRACEWID
 40
0.05
  9
$TEXTSTYLE
  7
ROMANS
  9
$CLAYER
  8
title
  9
$CELTYPE
  6
BYLAYER
  9
$CECOLOR
 62
   256
  9
$CELTSCALE
 40
1.0
  9
$DISPSILH
 70
     0
  9
$DIMSCALE
 40
1.0
  9
$DIMASZ
 40
0.18
  9
$DIMEXO
 40
0.0625
  9
$DIMDLI
 40
0.38
  9
$DIMRND
 40
0.0
  9
$DIMDLE
 40
0.0
  9
$DIMEXE
 40
0.125
  9
$DIMTP
 40
0.0
  9
$DIMTM
 40
0.0
  9
$DIMTXT
 40
0.125
  9
$DIMCEN
 40
0.09
  9
$DIMTSZ
 40
0.0
  9
$DIMTOL
 70
     0
  9
$DIMLIM
 70
     0
  9
$DIMTIH
 70
     1
  9
$DIMTOH
 70
     1
  9
$DIMSE1
 70
     0
  9
$DIMSE2
 70
     0
  9
$DIMTAD
 70
     0
  9
$DIMZIN
 70
     0
  9
$DIMBLK
  1

  9
$DIMASO
 70
     1
  9
$DIMSHO
 70
     1
  9
$DIMPOST
  1

  9
$DIMAPOST
  1

  9
$DIMALT
 70
     0
  9
$DIMALTD
 70
     2
  9
$DIMALTF
 40
25.4
  9
$DIMLFAC
 40
1.0
  9
$DIMTOFL
 70
     0
  9
$DIMTVP
 40
0.0
  9
$DIMTIX
 70
     0
  9
$DIMSOXD
 70
     0
  9
$DIMSAH
 70
     0
  9
$DIMBLK1
  1

  9
$DIMBLK2
  1

  9
$DIMSTYLE
  2
STANDARD
  9
$DIMCLRD
 70
   256
  9
$DIMCLRE
 70
   256
  9
$DIMCLRT
 70
   256
  9
$DIMTFAC
 40
1.0
  9
$DIMGAP
 40
0.09
  9
$DIMJUST
 70
     0
  9
$DIMSD1
 70
     0
  9
$DIMSD2
 70
     0
  9
$DIMTOLJ
 70
     1
  9
$DIMTZIN
 70
     0
  9
$DIMALTZ
 70
     0
  9
$DIMALTTZ
 70
     0
  9
$DIMUPT
 70
     0
  9
$DIMDEC
 70
     4
  9
$DIMTDEC
 70
     4
  9
$DIMALTU
 70
     2
  9
$DIMALTTD
 70
     2
  9
$DIMTXSTY
  7
Arial
  9
$DIMAUNIT
 70
     0
  9
$DIMADEC
 70
     0
  9
$DIMALTRND
 40
0.0
  9
$DIMAZIN
 70
     0
  9
$DIMDSEP
 70
    46
  9
$DIMATFIT
 70
     3
  9
$DIMFRAC
 70
     0
  9
$DIMLDRBLK
  1

  9
$DIMLUNIT
 70
     2
  9
$DIMLWD
 70
    -1
  9
$DIMLWE
 70
    -1
  9
$DIMTMOVE
 70
     0
  9
$LUNITS
 70
     2
  9
$LUPREC
 70
     3
  9
$SKETCHINC
 40
0.1
  9
$FILLETRAD
 40
0.0
  9
$AUNITS
 70
     0
  9
$AUPREC
 70
     0
  9
$MENU
  1
c:\acad13nt\win\SUPPORT\ACAD
  9
$ELEVATION
 40
0.0
  9
$PELEVATION
 40
0.0
  9
$THICKNESS
 40
0.0
  9
$LIMCHECK
 70
     0
  9
$CHAMFERA
 40
0.0
  9
$CHAMFERB
 40
0.0
  9
$CHAMFERC
 40
0.0
  9
$CHAMFERD
 40
0.0
  9
$SKPOLY
 70
     0
  9
$TDCREATE
 40
2449623.343430903
  9
$TDUCREATE
 40
2449623.635097569
  9
$TDUPDATE
 40
2455575.513064387
  9
$TDUUPDATE
 40
2455575.804731053
  9
$TDINDWG
 40
1.3349201389
  9
$TDUSRTIMER
 40
1.3349201389
  9
$USRTIMER
 70
     1
  9
$ANGBASE
 50
0.0
  9
$ANGDIR
 70
     0
  9
$PDMODE
 70
     0
  9
$PDSIZE
 40
0.0
  9
$PLINEWID
 40
0.0
  9
$SPLFRAME
 70
     0
  9
$SPLINETYPE
 70
     6
  9
$SPLINESEGS
 70
     8
  9
$HANDSEED
  5
751
  9
$SURFTAB1
 70
     6
  9
$SURFTAB2
 70
     6
  9
$SURFTYPE
 70
     6
  9
$SURFU
 70
     6
  9
$SURFV
 70
     6
  9
$UCSBASE
  2

  9
$UCSNAME
  2

  9
$UCSORG
 10
0.0
 20
0.0
 30
0.0
  9
$UCSXDIR
 10
1.0
 20
0.0
 30
0.0
  9
$UCSYDIR
 10
0.0
 20
1.0
 30
0.0
  9
$UCSORTHOREF
  2

  9
$UCSORTHOVIEW
 70
     0
  9
$UCSORGTOP
 10
0.0
 20
0.0
 30
0.0
  9
$UCSORGBOTTOM
 10
0.0
 20
0.0
 30
0.0
  9
$UCSORGLEFT
 10
0.0
 20
0.0
 30
0.0
  9
$UCSORGRIGHT
 10
0.0
 20
0.0
 30
0.0
  9
$UCSORGFRONT
 10
0.0
 20
0.0
 30
0.0
  9
$UCSORGBACK
 10
0.0
 20
0.0
 30
0.0
  9
$PUCSBASE
  2

  9
$PUCSNAME
  2

  9
$PUCSORG
 10
0.0
 20
0.0
 30
0.0
  9
$PUCSXDIR
 10
1.0
 20
0.0
 30
0.0
  9
$PUCSYDIR
 10
0.0
 20
1.0
 30
0.0
  9
$PUCSORTHOREF
  2

  9
$PUCSORTHOVIEW
 70
     0
  9
$PUCSORGTOP
 10
0.0
 20
0.0
 30
0.0
  9
$PUCSORGBOTTOM
 10
0.0
 20
0.0
 30
0.0
  9
$PUCSORGLEFT
 10
0.0
 20
0.0
 30
0.0
  9
$PUCSORGRIGHT
 10
0.0
 20
0.0
 30
0.0
  9
$PUCSORGFRONT
 10
0.0
 20
0.0
 30
0.0
  9
$PUCSORGBACK
 10
0.0
 20
0.0
 30
0.0
  9
$USERI1
 70
     0
  9
$USERI2
 70
     0
  9
$USERI3
 70
     0
  9
$USERI4
 70
     0
  9
$USERI5
 70
     0
  9
$USERR1
 40
0.0
  9
$USERR2
 40
0.0
  9
$USERR3
 40
0.0
  9
$USERR4
 40
0.0
  9
$USERR5
 40
0.0
  9
$WORLDVIEW
 70
     1
  9
$SHADEDGE
 70
     3
  9
$SHADEDIF
 70
    70
  9
$TILEMODE
 70
     1
  9
$MAXACTVP
 70
    16
  9
$PINSBASE
 10
0.0
 20
0.0
 30
0.0
  9
$PLIMCHECK
 70
     0
  9
$PEXTMIN
 10
1.000000000000000E+20
 20
1.000000000000000E+20
 30
1.000000000000000E+20
  9
$PEXTMAX
 10
-1.000000000000000E+20
 20
-1.000000000000000E+20
 30
-1.000000000000000E+20
  9
$PLIMMIN
 10
0.0
 20
0.0
  9
$PLIMMAX
 10
12.0
 20
9.0
  9
$UNITMODE
 70
     0
  9
$VISRETAIN
 70
     0
  9
$PLINEGEN
 70
     1
  9
$PSLTSCALE
 70
     1
  9
$TREEDEPTH
 70
 -3020
  9
$CMLSTYLE
  2
STANDARD
  9
$CMLJUST
 70
     0
  9
$CMLSCALE
 40
1.0
  9
$PROXYGRAPHICS
 70
     1
  9
$MEASUREMENT
 70
     0
  9
$CELWEIGHT
370
    -1
  9
$ENDCAPS
280
     0
  9
$JOINSTYLE
280
     0
  9
$LWDISPLAY
290
     0
  9
$INSUNITS
 70
     0
  9
$HYPERLINKBASE
  1
www.aquaengineering.com
  9
$STYLESHEET
  1
okicolorshaded.ctb
  9
$XEDIT
290
     1
  9
$CEPSNTYPE
380
     0
  9
$PSTYLEMODE
290
     1
  9
$FINGERPRINTGUID
  2
{B06150BF-9848-4DA7-8BD0-FE70C2B5C340}
  9
$VERSIONGUID
  2
{52C56DBD-F785-47DB-80DF-B34B09ECAAD5}
  9
$EXTNAMES
290
     1
  9
$PSVPSCALE
 40
0.0
  9
$OLESTARTUP
290
     1
  9
$SORTENTS
280
    48
  9
$INDEXCTL
280
     0
  9
$HIDETEXT
280
     0
  9
$XCLIPFRAME
290
     0
  9
$HALOGAP
280
     0
  9
$OBSCOLOR
 70
   257
  9
$OBSLTYPE
280
     0
  9
$INTERSECTIONDISPLAY
280
     0
  9
$INTERSECTIONCOLOR
 70
   257
  9
$DIMASSOC
280
     1
  9
$PROJECTNAME
  1

  0
ENDSEC
  0
SECTION
  2
CLASSES
  0
CLASS
  1
ACDBDICTIONARYWDFLT
  2
AcDbDictionaryWithDefault
  3
ObjectDBX Classes
 90
        0
 91
        1
280
     0
281
     0
  0
CLASS
  1
DICTIONARYVAR
  2
AcDbDictionaryVar
  3
ObjectDBX Classes
 90
        0
 91
       12
280
     0
281
     0
  0
CLASS
  1
PLOTSETTINGS
  2
AcDbPlotSettings
  3
ObjectDBX Classes
 90
        0
 91
        0
280
     0
281
     0
  0
CLASS
  1
TABLESTYLE
  2
AcDbTableStyle
  3
ObjectDBX Classes
 90
     4095
 91
        1
280
     0
281
     0
  0
CLASS
  1
MATERIAL
  2
AcDbMaterial
  3
ObjectDBX Classes
 90
     1153
 91
        3
280
     0
281
     0
  0
CLASS
  1
VISUALSTYLE
  2
AcDbVisualStyle
  3
ObjectDBX Classes
 90
     4095
 91
       16
280
     0
281
     0
  0
CLASS
  1
SCALE
  2
AcDbScale
  3
ObjectDBX Classes
 90
     1153
 91
       33
280
     0
281
     0
  0
CLASS
  1
MLEADERSTYLE
  2
AcDbMLeaderStyle
  3
ACDB_MLEADERSTYLE_CLASS
 90
     4095
 91
        1
280
     0
281
     0
  0
CLASS
  1
EXACXREFPANELOBJECT
  2
ExAcXREFPanelObject
  3
EXAC_ESW
 90
     1025
 91
        0
280
     0
281
     0
  0
CLASS
  1
NPOCOLLECTION
  2
AcDbImpNonPersistentObjectsCollection
  3
ObjectDBX Classes
 90
     1153
 91
        0
280
     0
281
     0
  0
CLASS
  1
CELLSTYLEMAP
  2
AcDbCellStyleMap
  3
ObjectDBX Classes
 90
     1152
 91
        4
280
     0
281
     0
  0
CLASS
  1
SORTENTSTABLE
  2
AcDbSortentsTable
  3
ObjectDBX Classes
 90
        0
 91
        2
280
     0
281
     0
  0
ENDSEC
  0
SECTION
  2
TABLES
  0
TABLE
  2
VPORT
  5
662
330
0
100
AcDbSymbolTable
 70
     1
  0
VPORT
  5
663
330
662
100
AcDbSymbolTableRecord
100
AcDbViewportTableRecord
  2
*Active
 70
     0
 10
0.0
 20
0.0
 11
1.0
 21
1.0
 12
8.244999999999997
 22
5.219999999999999
 13
0.0
 23
0.0
 14
0.14
 24
0.14
 15
0.14
 25
0.14
 16
0.0
 26
0.0
 36
1.0
 17
0.0
 27
0.0
 37
0.0
 40
10.53157894736842
 41
2.281112737920937
 42
50.0
 43
0.0
 44
0.0
 50
0.0
 51
0.0
 71
     0
 72
  1000
 73
     1
 74
     1
 75
     0
 76
     0
 77
     0
 78
     0
281
     0
 65
     1
110
0.0
120
0.0
130
0.0
111
1.0
121
0.0
131
0.0
112
0.0
122
1.0
132
0.0
 79
     0
146
0.0
  0
ENDTAB
  0
TABLE
  2
LTYPE
  5
65D
330
0
100
AcDbSymbolTable
 70
     1
  0
LTYPE
  5
65E
330
65D
100
AcDbSymbolTableRecord
100
AcDbLinetypeTableRecord
  2
BYBLOCK
 70
     0
  3

 72
    65
 73
     0
 40
0.0
  0
LTYPE
  5
65F
330
65D
100
AcDbSymbolTableRecord
100
AcDbLinetypeTableRecord
  2
BYLAYER
 70
     0
  3

 72
    65
 73
     0
 40
0.0
  0
LTYPE
  5
17
330
65D
100
AcDbSymbolTableRecord
100
AcDbLinetypeTableRecord
  2
CONTINUOUS
 70
     0
  3
Solid line
 72
    65
 73
     0
 40
0.0
  0
ENDTAB
  0
TABLE
  2
LAYER
  5
657
102
{ACAD_XDICTIONARY
360
658
102
}
330
0
100
AcDbSymbolTable
 70
     4
  0
LAYER
  5
6
330
657
100
AcDbSymbolTableRecord
100
AcDbLayerTableRecord
  2
0
 70
     0
 62
     7
  6
CONTINUOUS
370
    -3
390
7
  0
LAYER
  5
4FF
330
657
100
AcDbSymbolTableRecord
100
AcDbLayerTableRecord
  2
text_bubbles
 70
     0
 62
     6
  6
CONTINUOUS
370
    -3
390
7
  0
LAYER
  5
19
330
657
100
AcDbSymbolTableRecord
100
AcDbLayerTableRecord
  2
image
 70
     0
 62
     7
  6
CONTINUOUS
370
    -3
390
7
  0
LAYER
  5
627
330
657
100
AcDbSymbolTableRecord
100
AcDbLayerTableRecord
  2
title
 70
     0
 62
     4
  6
CONTINUOUS
370
    -3
390
7
  0
ENDTAB
  0
TABLE
  2
STYLE
  5
65B
330
0
100
AcDbSymbolTable
 70
     6
  0
STYLE
  5
502
330
65B
100
AcDbSymbolTableRecord
100
AcDbTextStyleTableRecord
  2
STANDARD
 70
     0
 40
0.0
 41
1.0
 50
0.0
 71
     0
 42
0.2
  3
txt
  4

  0
STYLE
  5
6C
330
65B
100
AcDbSymbolTableRecord
100
AcDbTextStyleTableRecord
  2
ROMANS
 70
     0
 40
0.0
 41
1.0
 50
0.0
 71
     0
 42
0.125
  3
romans.shx
  4

  0
STYLE
  5
636
330
65B
100
AcDbSymbolTableRecord
100
AcDbTextStyleTableRecord
  2
L100
 70
     0
 40
0.1
 41
1.0
 50
0.0
 71
     0
 42
0.1
  3
romans.shx
  4

  0
STYLE
  5
62C
330
65B
100
AcDbSymbolTableRecord
100
AcDbTextStyleTableRecord
  2
L200
 70
     0
 40
0.2
 41
1.0
 50
0.0
 71
     0
 42
0.081
  3
ARIAL.TTF
  4

1001
ACAD
1000
Arial
1071
       34
  0
STYLE
  5
632
330
65B
100
AcDbSymbolTableRecord
100
AcDbTextStyleTableRecord
  2
L80
 70
     0
 40
0.08
 41
1.0
 50
0.0
 71
     0
 42
0.08
  3
ROMANS
  4

  0
STYLE
  5
688
330
65B
100
AcDbSymbolTableRecord
100
AcDbTextStyleTableRecord
  2
Arial
 70
     0
 40
0.0
 41
1.0
 50
0.0
 71
     0
 42
0.125
  3
ARIAL.TTF
  4

1001
ACAD
1000
Arial
1071
       34
  0
ENDTAB
  0
TABLE
  2
VIEW
  5
660
330
0
100
AcDbSymbolTable
 70
     0
  0
ENDTAB
  0
TABLE
  2
UCS
  5
661
330
0
100
AcDbSymbolTable
 70
     0
  0
ENDTAB
  0
TABLE
  2
APPID
  5
664
330
0
100
AcDbSymbolTable
 70
     7
  0
APPID
  5
503
330
664
100
AcDbSymbolTableRecord
100
AcDbRegAppTableRecord
  2
ACAD
 70
     0
  0
APPID
  5
D
330
664
100
AcDbSymbolTableRecord
100
AcDbRegAppTableRecord
  2
BBSI_Plots
 70
     0
  0
APPID
  5
A
330
664
100
AcDbSymbolTableRecord
100
AcDbRegAppTableRecord
  2
BBSI_PltSel
 70
     0
  0
APPID
  5
B
330
664
100
AcDbSymbolTableRecord
100
AcDbRegAppTableRecord
  2
BBSI_Bookmarks
 70
     0
  0
APPID
  5
64A
330
664
100
AcDbSymbolTableRecord
100
AcDbRegAppTableRecord
  2
ACAD_PSEXT
 70
     0
  0
APPID
  5
C
330
664
100
AcDbSymbolTableRecord
100
AcDbRegAppTableRecord
  2
BBSI_BookmarksEx
 70
     0
  0
APPID
  5
6C0
330
664
100
AcDbSymbolTableRecord
100
AcDbRegAppTableRecord
  2
ACAD_MLEADERVER
 70
     0
  0
ENDTAB
  0
TABLE
  2
DIMSTYLE
  5
665
330
0
100
AcDbSymbolTable
 70
     1
100
AcDbDimStyleTable
 71
     0
  0
DIMSTYLE
105
501
330
665
100
AcDbSymbolTableRecord
100
AcDbDimStyleTableRecord
  2
STANDARD
 70
     0
340
502
  0
ENDTAB
  0
TABLE
  2
BLOCK_RECORD
  5
1
330
0
100
AcDbSymbolTable
 70
     2
  0
BLOCK_RECORD
  5
2
102
{ACAD_XDICTIONARY
360
3
102
}
330
1
100
AcDbSymbolTableRecord
100
AcDbBlockTableRecord
  2
*MODEL_SPACE
340
648
  0
BLOCK_RECORD
  5
64B
330
1
100
AcDbSymbolTableRecord
100
AcDbBlockTableRecord
  2
*Paper_Space
340
656
  0
BLOCK_RECORD
  5
513
330
1
100
AcDbSymbolTableRecord
100
AcDbBlockTableRecord
  2
bubble
340
0
310
2800000020000000200000000100080000000000000400000000000000000000000000000000000000000000000080000080000000808000800000008000800080800000C0C0C000C0DCC000F0CAA6000020400000206000002080000020A0000020C0000020E00000400000004020000040400000406000004080000040A0
310
000040C0000040E00000600000006020000060400000606000006080000060A0000060C0000060E00000800000008020000080400000806000008080000080A0000080C0000080E00000A0000000A0200000A0400000A0600000A0800000A0A00000A0C00000A0E00000C0000000C0200000C0400000C0600000C0800000C0
310
A00000C0C00000C0E00000E0000000E0200000E0400000E0600000E0800000E0A00000E0C00000E0E00040000000400020004000400040006000400080004000A0004000C0004000E00040200000402020004020400040206000402080004020A0004020C0004020E000404000004040200040404000404060004040800040
310
40A0004040C0004040E00040600000406020004060400040606000406080004060A0004060C0004060E00040800000408020004080400040806000408080004080A0004080C0004080E00040A0000040A0200040A0400040A0600040A0800040A0A00040A0C00040A0E00040C0000040C0200040C0400040C0600040C08000
310
40C0A00040C0C00040C0E00040E0000040E0200040E0400040E0600040E0800040E0A00040E0C00040E0E00080000000800020008000400080006000800080008000A0008000C0008000E00080200000802020008020400080206000802080008020A0008020C0008020E00080400000804020008040400080406000804080
310
008040A0008040C0008040E00080600000806020008060400080606000806080008060A0008060C0008060E00080800000808020008080400080806000808080008080A0008080C0008080E00080A0000080A0200080A0400080A0600080A0800080A0A00080A0C00080A0E00080C0000080C0200080C0400080C0600080C0
310
800080C0A00080C0C00080C0E00080E0000080E0200080E0400080E0600080E0800080E0A00080E0C00080E0E000C0000000C0002000C0004000C0006000C0008000C000A000C000C000C000E000C0200000C0202000C0204000C0206000C0208000C020A000C020C000C020E000C0400000C0402000C0404000C0406000C0
310
408000C040A000C040C000C040E000C0600000C0602000C0604000C0606000C0608000C060A000C060C000C060E000C0800000C0802000C0804000C0806000C0808000C080A000C080C000C080E000C0A00000C0A02000C0A04000C0A06000C0A08000C0A0A000C0A0C000C0A0E000C0C00000C0C02000C0C04000C0C06000
310
C0C08000C0C0A000F0FBFF00A4A0A000808080000000FF0000FF000000FFFF00FF000000FF00FF00FFFF0000FFFFFF0008080808080808080808080808080808080808080808080808080808080808080808080808080808080808080808080808080808080808080808080808080808080808080808080808080808FDFDFD
310
08080808080808080808080808080808080808080808080808080808FD080808FDFDFDFDFDFD0808080808080808080808080808080808080808FDFD08080808080808080808FDFDFDFD080808080808080808080808080808FD08080808080808080808080808080808FD08080808080808080808080808FD080808080808
310
0808080808080808080808FD0808080808080808080808FDFD08080808080808080808080808080808080808FD080808080808080808FD080808080808080808080808080808080808080808FD0808080808080808FD08FD0808080808080808FD0808FD0808080808080808FDFD08080808080808FD0808FD080808080808
310
FD08080808FD080808080808FD08FD08080808080808FD0808FD080808080808FD08080808FD080808080808FD0808FD080808080808FD080808FD08080808FD080808080808FD08080808FD080808FD080808080808FD08080808FD0808FD0808080808080808FD0808FD0808080808FD0808080808FD08080808FD0808FD
310
0808080808080808FD0808FD0808080808FD0808080808FD0808080808FDFD08080808080808080808FDFD08080808080808FD08080808FD0808080808FDFD08080808080808080808FDFD08080808080808FD08080808FD08080808FD0808FD0808080808080808FD0808FD0808080808FD0808080808FD08080808FD0808
310
FD0808080808080808FD0808FD0808080808FD0808080808FD080808FD08080808FD080808080808FD08080808FD080808FD080808080808FD0808FD080808080808FD08080808FD080808080808FD0808FD080808080808FD0808FD080808080808FD08080808FD080808080808FD08FD08080808080808FD08FD08080808
310
08080808FD0808FD0808080808080808FDFD0808080808080808FD080808080808080808080808080808080808080808FD08080808080808080808FDFD08080808080808080808080808080808080808FD080808080808080808080808FD0808080808080808080808080808080808FD0808080808080808080808080808FD
310
08080808080808080808080808080808FD080808080808080808080808080808FDFD0808080808080808080808FDFDFD080808080808080808080808080808080808FD08080808FDFDFDFDFDFD08080808080808080808080808080808080808080808FDFDFDFD080808080808080808080808080808080808080808080808
310
0808080808080808080808080808080808080808080808080808080808080808080808080808080808080808080808080808080808080808
102
{BLKREFS
331
512
331
51A
331
51D
331
520
331
523
331
526
331
529
331
52C
331
52F
331
532
331
535
331
538
331
53B
331
53E
331
541
331
544
331
547
331
54A
331
54D
331
550
331
553
331
556
331
559
331
55C
331
55F
331
562
331
565
331
568
331
56B
331
5FE
102
}
  0
BLOCK_RECORD
  5
628
102
{ACAD_XDICTIONARY
360
70A
102
}
330
1
100
AcDbSymbolTableRecord
100
AcDbBlockTableRecord
  2
titleblock
340
0
102
{BLKREFS
331
626
102
}
  0
ENDTAB
  0
ENDSEC
  0
SECTION
  2
BLOCKS
  0
BLOCK
  5
5
330
2
100
AcDbEntity
  8
0
100
AcDbBlockBegin
  2
*MODEL_SPACE
 70
     0
 10
0.0
 20
0.0
 30
0.0
  3
*MODEL_SPACE
  1

  0
ENDBLK
  5
647
330
2
100
AcDbEntity
  8
0
100
AcDbBlockEnd
  0
BLOCK
  5
64C
330
64B
100
AcDbEntity
 67
     1
  8
0
100
AcDbBlockBegin
  2
*Paper_Space
 70
     0
 10
0.0
 20
0.0
 30
0.0
  3
*Paper_Space
  1

  0
ENDBLK
  5
655
330
64B
100
AcDbEntity
 67
     1
  8
0
100
AcDbBlockEnd
  0
BLOCK
  5
514
330
513
100
AcDbEntity
  8
0
100
AcDbBlockBegin
  2
bubble
 70
     2
 10
0.0
 20
0.0
 30
0.0
  3
bubble
  1

  0
CIRCLE
  5
515
330
513
100
AcDbEntity
  8
text_bubbles
100
AcDbCircle
 10
0.0
 20
0.0
 30
0.0
 40
0.1398891854377198
  0
ATTDEF
  5
516
330
513
100
AcDbEntity
  8
text_bubbles
100
AcDbText
 10
0.0
 20
0.0
 30
0.0
 40
0.125
  1

  7
ROMANS
 72
     4
 11
0.0
 21
0.0
 31
0.0
100
AcDbAttributeDefinition
  3
Number
  2
XX
 70
     0
  0
ENDBLK
  5
517
330
513
100
AcDbEntity
  8
0
100
AcDbBlockEnd
  0
BLOCK
  5
629
330
628
100
AcDbEntity
  8
0
100
AcDbBlockBegin
  2
titleblock
 70
     2
 10
0.0
 20
0.0
 30
0.0
  3
titleblock
  1

  0
LWPOLYLINE
  5
62A
330
628
100
AcDbEntity
  8
title
100
AcDbPolyline
 90
        4
 70
     1
 43
0.0
 10
0.0
 20
0.0
 10
16.48999999999999
 20
0.0000000000000001
 10
16.48999999999999
 20
10.44
 10
0.0
 20
10.44
  0
ATTDEF
  5
62B
330
628
100
AcDbEntity
  8
title
100
AcDbText
 10
0.5055556038023421
 20
0.7842270964783673
 30
0.0
 40
0.2
  1
D
  7
L200
 72
     4
 11
0.6064423705144839
 21
0.8842270964783672
 31
0.0
100
AcDbAttributeDefinition
  3
#
  2
D
 70
     0
  0
ATTDEF
  5
62D
330
628
100
AcDbEntity
  8
title
100
AcDbText
 10
1.231442370514484
 20
1.34371230274675
 30
0.0
 40
0.2
  1

  7
L200
100
AcDbAttributeDefinition
  3
DETAIL TITLE TOP LINE
  2
TITLE1
 70
     0
  0
ATTDEF
  5
62E
330
628
100
AcDbEntity
  8
title
100
AcDbText
 10
1.231442370514484
 20
0.9842270964783674
 30
0.0
 40
0.2
  1
TITLE
  7
L200
100
AcDbAttributeDefinition
  3
DETAIL TITLE TOP 2ND LINE
  2
TITLE2
 70
     0
  0
ATTDEF
  5
62F
330
628
100
AcDbEntity
  8
title
100
AcDbText
 10
2.713645751168312
 20
0.5927927664583189
 30
0.0
 40
0.2
  1
TITLE2
  7
L200
100
AcDbAttributeDefinition
  3
DETAIL TITLE BOTTOM 1
  2
TITLE3
 70
     0
  0
ATTDEF
  5
630
330
628
100
AcDbEntity
  8
title
100
AcDbText
 10
2.713645751168312
 20
0.2692560808167741
 30
0.0
 40
0.2
  1

  7
L200
100
AcDbAttributeDefinition
  3
DETAIL TITLE BOTTOM 2
  2
TITLE4
 70
     0
  0
ATTDEF
  5
631
330
628
100
AcDbEntity
  8
title
 62
     7
100
AcDbText
 10
8.177214829966379
 20
0.9696027915446398
 30
0.0
 40
0.08
  1
-
  7
L80
 72
     2
 11
8.261024353775903
 21
0.9696027915446398
 31
0.0
100
AcDbAttributeDefinition
  3
REVISION DATE
  2
REVISED
 70
     0
  0
ATTDEF
  5
633
330
628
100
AcDbEntity
  8
title
 62
     7
100
AcDbText
 10
0.2639423705144838
 20
0.0847116480207214
 30
0.0
 40
0.08
  1
-
  7
L80
100
AcDbAttributeDefinition
  3
DWG-NAME
  2
DWG-NAME
 70
     0
  0
LWPOLYLINE
  5
634
330
628
100
AcDbEntity
  8
title
 62
     3
100
AcDbPolyline
 90
        2
 70
     1
 43
0.03
 10
0.6064423705144839
 20
0.5417270964783675
 42
0.9999999999999998
 10
0.6064423705144839
 20
1.226727096478367
 42
0.9999999999999998
  0
ATTDEF
  5
635
330
628
100
AcDbEntity
  8
title
 62
     7
100
AcDbText
 10
1.231442370514484
 20
0.7005637793954894
 30
0.0
 40
0.1
  1
N.T.S.
  7
L100
100
AcDbAttributeDefinition
  3
SCALE
  2
SCALE
 70
     0
  0
LWPOLYLINE
  5
637
330
628
100
AcDbEntity
  8
title
 62
     3
100
AcDbPolyline
 90
        2
 70
     0
 43
0.04
 39
0.03
 10
0.9489423705144833
 20
0.8842270964783672
 10
8.261024353775903
 20
0.8842270964783672
  0
ENDBLK
  5
638
330
628
100
AcDbEntity
  8
0
100
AcDbBlockEnd
  0
ENDSEC
  0
SECTION
  2
ENTITIES
  0
LINE
  5
18
330
2
100
AcDbEntity
  8
image
100
AcDbLine
 10
4.707369589763581
 20
5.554058367855219
 30
0.0
 11
4.707369589763581
 21
5.305110701649276
 31
0.0
  0
LINE
  5
1A
330
2
100
AcDbEntity
  8
image
100
AcDbLine
 10
5.840904253776503
 20
5.717799433009097
 30
0.0
 11
5.975284718605163
 21
5.717799433009097
 31
0.0
  0
LINE
  5
1B
330
2
100
AcDbEntity
  8
image
100
AcDbLine
 10
5.975284718605163
 20
5.763610986379275
 30
0.0
 11
6.13471678793709
 21
5.030626132456303
 31
0.0
  0
LINE
  5
1C
330
2
100
AcDbEntity
  8
image
100
AcDbLine
 10
5.883403448929762
 20
5.763610986379275
 30
0.0
 11
5.975284718605163
 21
5.763610986379275
 31
0.0
  0
LINE
  5
1D
330
2
100
AcDbEntity
  8
image
100
AcDbLine
 10
5.662475234949449
 20
6.913952684468028
 30
0.0
 11
5.801234968138897
 21
6.245866684735071
 31
0.0
  0
LINE
  5
1E
330
2
100
AcDbEntity
  8
image
100
AcDbLine
 10
5.801234968138897
 20
6.245866684735071
 30
0.0
 11
5.910880194026839
 21
4.786297847815321
 31
0.0
  0
LINE
  5
1F
330
2
100
AcDbEntity
  8
image
100
AcDbLine
 10
5.846694758962374
 20
6.252267555661248
 30
0.0
 11
5.883403448929762
 21
5.763610986379275
 31
0.0
  0
LINE
  5
20
330
2
100
AcDbEntity
  8
image
100
AcDbLine
 10
5.707142289815188
 20
6.924170338423985
 30
0.0
 11
5.846694758962374
 21
6.252267555661248
 31
0.0
  0
LINE
  5
21
330
2
100
AcDbEntity
  8
image
100
AcDbLine
 10
4.732635714420325
 20
5.580381489227057
 30
0.0
 11
4.732635714420325
 21
5.277036710711437
 31
0.0
  0
LWPOLYLINE
  5
22
330
2
100
AcDbEntity
  8
image
100
AcDbPolyline
 90
       16
 70
     1
 43
0.0
 10
5.728386516575318
 20
4.992012312834024
 42
0.0846731520301792
 10
5.722768449109762
 20
5.024949485700378
 42
0.0916544813065032
 10
5.707393735353914
 20
5.051759381562779
 42
0.1036340346640379
 10
5.683530916338193
 20
5.070309367381393
 42
0.1140536254072521
 10
5.656712678217269
 20
5.07650742774228
 42
0.1140536254072534
 10
5.629894440096351
 20
5.070309367381393
 42
0.1036340346640368
 10
5.606031621080626
 20
5.051759381562779
 42
0.0916544813065076
 10
5.590656907324778
 20
5.024949485700378
 42
0.0846731520301862
 10
5.585038839859222
 20
4.992012312834024
 42
0.0846731520301835
 10
5.590656907324778
 20
4.959075139967651
 42
0.091654481306508
 10
5.606031621080626
 20
4.932265244105256
 42
0.103634034664036
 10
5.629894440096351
 20
4.913715258286641
 42
0.1140536254072547
 10
5.656712678217269
 20
4.907517197925757
 42
0.1140536254072534
 10
5.683530916338193
 20
4.913715258286641
 42
0.1036340346640367
 10
5.707393735353914
 20
4.932265244105256
 42
0.0916544813065066
 10
5.722768449109762
 20
4.959075139967651
 42
0.0846731520301858
  0
LWPOLYLINE
  5
23
330
2
100
AcDbEntity
  8
image
100
AcDbPolyline
 90
       16
 70
     1
 43
0.0
 10
5.783683966394183
 20
4.927691153768296
 42
0.1833035428166229
 10
5.777939152008229
 20
4.917849693102513
 42
0.1024612315138192
 10
5.778704648807443
 20
4.897933477326358
 42
0.0615734602679465
 10
5.786449565342794
 20
4.877702833696199
 42
0.0478438451985803
 10
5.801803237643724
 20
4.854482742218874
 42
0.0478438451985776
 10
5.821290386336714
 20
4.834604137208559
 42
0.061573460267943
 10
5.839448892834415
 20
4.822791799776733
 42
0.1024612315138217
 10
5.858762506027554
 20
4.817869810177263
 42
0.1833035428166229
 10
5.869589300133233
 20
4.821424774278157
 42
0.1833035428166234
 10
5.875334114519196
 20
4.83126623494394
 42
0.102461231513819
 10
5.874568617719983
 20
4.851182450720079
 42
0.0615734602679484
 10
5.866823701184632
 20
4.871413094350252
 42
0.0478438451985819
 10
5.851470028883701
 20
4.894633185827574
 42
0.0478438451985799
 10
5.831982880190709
 20
4.914511790837892
 42
0.0615734602679431
 10
5.813824373693005
 20
4.926324128269701
 42
0.1024612315138189
 10
5.794510760499861
 20
4.931246117869187
 42
0.183303542816622
  0
LINE
  5
24
330
2
100
AcDbEntity
  8
image
100
AcDbLine
 10
6.428837229999031
 20
4.786297847815324
 30
0.0
 11
5.616759751964557
 21
4.786297847815315
 31
0.0
  0
LINE
  5
25
330
2
100
AcDbEntity
  8
image
100
AcDbLine
 10
5.616759751964557
 20
4.786297847815321
 30
0.0
 11
5.616759751964557
 21
4.423514504218313
 31
0.0
  0
LWPOLYLINE
  5
26
330
2
100
AcDbEntity
  8
image
100
AcDbPolyline
 90
        2
 70
     0
 43
0.0
 10
5.616759751964557
 20
4.423514504218313
 10
6.428837229999031
 20
4.786297847815324
  0
LWPOLYLINE
  5
27
330
2
100
AcDbEntity
  8
image
100
AcDbPolyline
 90
        2
 70
     0
 43
0.0
 10
5.616759751964557
 20
4.786297847815321
 10
6.428837229999031
 20
4.423514504218313
  0
LINE
  5
28
330
2
100
AcDbEntity
  8
image
100
AcDbLine
 10
6.134716787936751
 20
4.786297847815321
 30
0.0
 11
5.910880194026839
 21
4.786297847815321
 31
0.0
  0
LINE
  5
29
330
2
100
AcDbEntity
  8
image
100
AcDbLine
 10
6.13471678793709
 20
5.030626132456303
 30
0.0
 11
6.13471678793709
 21
4.786297847815321
 31
0.0
  0
LWPOLYLINE
  5
2A
330
2
100
AcDbEntity
  8
image
100
AcDbPolyline
 90
       16
 70
     1
 43
0.0
 10
4.343262215859834
 20
4.797922110135567
 42
0.0708989349029243
 10
4.32281677752899
 20
4.778969432024041
 42
0.0824870853856804
 10
4.310949728336433
 20
4.758103421651647
 42
0.1068139206260733
 10
4.307757942529271
 20
4.735402219256743
 42
0.1340008839894652
 10
4.313883560699775
 20
4.718060603186994
 42
0.1340008839894659
 10
4.327969069906032
 20
4.706234645454904
 42
0.106813920626075
 10
4.350345113741139
 20
4.701250194722579
 42
0.0824870853856831
 10
4.374049720406892
 20
4.705032901190293
 42
0.0708989349029243
 10
4.39897570419408
 20
4.717519505547787
 42
0.0708989349029259
 10
4.419421142524933
 20
4.73647218365933
 42
0.0824870853856834
 10
4.431288191717484
 20
4.75733819403171
 42
0.1068139206260768
 10
4.434479977524647
 20
4.780039396426619
 42
0.1340008839894672
 10
4.428354359354148
 20
4.797381012496368
 42
0.1340008839894638
 10
4.414268850147887
 20
4.809206970228469
 42
0.1068139206260751
 10
4.391892806312781
 20
4.814191420960796
 42
0.082487085385683
 10
4.368188199647028
 20
4.810408714493067
 42
0.0708989349029251
  0
LWPOLYLINE
  5
2B
330
2
100
AcDbEntity
  8
image
100
AcDbPolyline
 90
       16
 70
     1
 43
0.0
 10
4.688485506202384
 20
4.840210076960977
 42
0.0708989349029243
 10
4.668040067871538
 20
4.821257398849432
 42
0.0824870853856804
 10
4.656173018678987
 20
4.800391388477055
 42
0.1068139206260733
 10
4.652981232871826
 20
4.77769018608214
 42
0.1340008839894652
 10
4.659106851042319
 20
4.760348570012402
 42
0.1340008839894659
 10
4.67319236024858
 20
4.748522612280289
 42
0.106813920626075
 10
4.695568404083684
 20
4.743538161547964
 42
0.0824870853856831
 10
4.719273010749443
 20
4.747320868015698
 42
0.0708989349029243
 10
4.744198994536631
 20
4.759807472373193
 42
0.0708989349029259
 10
4.76464443286748
 20
4.778760150484741
 42
0.0824870853856834
 10
4.776511482060032
 20
4.799626160857118
 42
0.1068139206260768
 10
4.779703267867198
 20
4.822327363252028
 42
0.1340008839894672
 10
4.773577649696695
 20
4.839668979321773
 42
0.1340008839894638
 10
4.759492140490435
 20
4.85149493705386
 42
0.1068139206260751
 10
4.737116096655331
 20
4.856479387786203
 42
0.082487085385683
 10
4.713411489989575
 20
4.852696681318471
 42
0.0708989349029251
  0
LWPOLYLINE
  5
2C
330
2
100
AcDbEntity
  8
image
100
AcDbPolyline
 90
       16
 70
     1
 43
0.0
 10
4.862590157246905
 20
4.820109425814012
 42
0.0708989349029243
 10
4.842144718916059
 20
4.801156747702487
 42
0.0824870853856804
 10
4.830277669723499
 20
4.780290737330092
 42
0.1068139206260733
 10
4.827085883916344
 20
4.757589534935188
 42
0.1340008839894652
 10
4.833211502086838
 20
4.740247918865445
 42
0.1340008839894659
 10
4.8472970112931
 20
4.728421961133356
 42
0.106813920626075
 10
4.869673055128199
 20
4.72343751040103
 42
0.0824870853856831
 10
4.893377661793961
 20
4.727220216868741
 42
0.0708989349029243
 10
4.918303645581152
 20
4.739706821226237
 42
0.0708989349029259
 10
4.938749083911996
 20
4.758659499337777
 42
0.0824870853856834
 10
4.950616133104555
 20
4.779525509710165
 42
0.1068139206260768
 10
4.953807918911713
 20
4.802226712105081
 42
0.1340008839894672
 10
4.947682300741213
 20
4.819568328174814
 42
0.1340008839894638
 10
4.933596791534951
 20
4.83139428590692
 42
0.1068139206260751
 10
4.911220747699847
 20
4.836378736639264
 42
0.082487085385683
 10
4.887516141034094
 20
4.832596030171516
 42
0.0708989349029251
  0
LWPOLYLINE
  5
2D
330
2
100
AcDbEntity
  8
image
100
AcDbPolyline
 90
       16
 70
     1
 43
0.0
 10
4.99490969204074
 20
4.789958449093603
 42
0.0708989349029243
 10
4.974464253709893
 20
4.771005770982079
 42
0.0824870853856804
 10
4.962597204517333
 20
4.750139760609684
 42
0.1068139206260733
 10
4.959405418710176
 20
4.727438558214777
 42
0.1340008839894652
 10
4.965531036880673
 20
4.710096942145032
 42
0.1340008839894659
 10
4.979616546086935
 20
4.698270984412942
 42
0.106813920626075
 10
5.001992589922036
 20
4.693286533680615
 42
0.0824870853856831
 10
5.025697196587798
 20
4.697069240148327
 42
0.0708989349029243
 10
5.050623180374986
 20
4.709555844505827
 42
0.0708989349029259
 10
5.071068618705832
 20
4.72850852261737
 42
0.0824870853856834
 10
5.082935667898387
 20
4.74937453298975
 42
0.1068139206260768
 10
5.086127453705548
 20
4.772075735384659
 42
0.1340008839894672
 10
5.080001835535051
 20
4.789417351454403
 42
0.1340008839894638
 10
5.065916326328785
 20
4.80124330918651
 42
0.1068139206260751
 10
5.043540282493687
 20
4.806227759918836
 42
0.082487085385683
 10
5.019835675827928
 20
4.802445053451107
 42
0.0708989349029251
  0
LWPOLYLINE
  5
2E
330
2
100
AcDbEntity
  8
image
100
AcDbPolyline
 90
       16
 70
     1
 43
0.0
 10
3.86438850925463
 20
4.948206217531665
 42
0.0846731520301792
 10
3.85877044178907
 20
4.981143390398019
 42
0.0916544813065032
 10
3.843395728033228
 20
5.007953286260416
 42
0.1036340346640379
 10
3.819532909017509
 20
5.026503272079027
 42
0.1140536254072521
 10
3.792714670896581
 20
5.032701332439912
 42
0.1140536254072534
 10
3.765896432775657
 20
5.026503272079027
 42
0.1036340346640368
 10
3.742033613759938
 20
5.007953286260416
 42
0.0916544813065076
 10
3.726658900004093
 20
4.981143390398019
 42
0.0846731520301862
 10
3.721040832538534
 20
4.948206217531665
 42
0.0846731520301835
 10
3.726658900004093
 20
4.915269044665288
 42
0.091654481306508
 10
3.742033613759938
 20
4.88845914880289
 42
0.103634034664036
 10
3.765896432775657
 20
4.869909162984293
 42
0.1140536254072547
 10
3.792714670896581
 20
4.863711102623408
 42
0.1140536254072534
 10
3.819532909017509
 20
4.869909162984293
 42
0.1036340346640367
 10
3.843395728033228
 20
4.88845914880289
 42
0.0916544813065066
 10
3.85877044178907
 20
4.915269044665288
 42
0.0846731520301858
  0
LWPOLYLINE
  5
2F
330
2
100
AcDbEntity
  8
image
100
AcDbPolyline
 90
       16
 70
     1
 43
0.0
 10
3.930096627165059
 20
4.881645104093113
 42
0.1615511064879552
 10
3.916293493659637
 20
4.863279090236752
 42
0.1061532262602322
 10
3.912419918987404
 20
4.829038396043256
 42
0.0703450477663066
 10
3.921183699688408
 20
4.793121339694992
 42
0.0566056099584688
 10
3.942884992920637
 20
4.752715625134097
 42
0.0566056099584683
 10
3.97309483732612
 20
4.718205725132429
 42
0.0703450477663069
 10
4.003645821833366
 20
4.697385635446345
 42
0.1061532262602343
 10
4.037065665106799
 20
4.68898660007473
 42
0.1615511064879549
 10
4.059109536209543
 20
4.695459984533121
 42
0.1615511064879543
 10
4.072912669714972
 20
4.713825998389476
 42
0.106153226260232
 10
4.076786244387199
 20
4.748066692582983
 42
0.0703450477663075
 10
4.0680224636862
 20
4.783983748931234
 42
0.0566056099584687
 10
4.046321170453968
 20
4.824389463492152
 42
0.05660560995847
 10
4.016111326048489
 20
4.858899363493804
 42
0.0703450477663058
 10
3.98556034154124
 20
4.879719453179887
 42
0.1061532262602316
 10
3.95214049826781
 20
4.888118488551499
 42
0.1615511064879538
  0
LWPOLYLINE
  5
30
330
2
100
AcDbEntity
  8
image
100
AcDbPolyline
 90
       16
 70
     1
 43
0.0
 10
3.788692268888627
 20
4.836347401962279
 42
0.1833035428166229
 10
3.782947454502672
 20
4.826505941296491
 42
0.1024612315138192
 10
3.783712951301883
 20
4.806589725520336
 42
0.0615734602679465
 10
3.791457867837234
 20
4.786359081890182
 42
0.0478438451985803
 10
3.806811540138167
 20
4.763138990412864
 42
0.0478438451985776
 10
3.826298688831148
 20
4.743260385402545
 42
0.061573460267943
 10
3.844457195328858
 20
4.731448047970733
 42
0.1024612315138217
 10
3.863770808522002
 20
4.72652605837125
 42
0.1833035428166229
 10
3.874597602627675
 20
4.730081022472135
 42
0.1833035428166234
 10
3.880342417013633
 20
4.739922483137923
 42
0.102461231513819
 10
3.879576920214418
 20
4.759838698914062
 42
0.0615734602679484
 10
3.871832003679072
 20
4.780069342544243
 42
0.0478438451985819
 10
3.856478331378139
 20
4.803289434021557
 42
0.0478438451985799
 10
3.836991182685146
 20
4.823168039031862
 42
0.0615734602679431
 10
3.818832676187446
 20
4.834980376463688
 42
0.1024612315138189
 10
3.7995190629943
 20
4.839902366063173
 42
0.183303542816622
  0
LWPOLYLINE
  5
31
330
2
100
AcDbEntity
  8
image
100
AcDbPolyline
 90
       16
 70
     1
 43
0.0
 10
4.498337313566631
 20
5.030087704518107
 42
0.1833035428166229
 10
4.492592499180676
 20
5.020246243852319
 42
0.1024612315138192
 10
4.493357995979886
 20
5.00033002807618
 42
0.0615734602679465
 10
4.501102912515232
 20
4.980099384446021
 42
0.0478438451985803
 10
4.516456584816167
 20
4.956879292968705
 42
0.0478438451985776
 10
4.535943733509157
 20
4.937000687958367
 42
0.061573460267943
 10
4.554102240006859
 20
4.925188350526555
 42
0.1024612315138217
 10
4.573415853200003
 20
4.920266360927072
 42
0.1833035428166229
 10
4.584242647305676
 20
4.923821325027979
 42
0.1833035428166234
 10
4.589987461691631
 20
4.933662785693751
 42
0.102461231513819
 10
4.589221964892427
 20
4.953579001469907
 42
0.0615734602679484
 10
4.581477048357075
 20
4.973809645100066
 42
0.0478438451985819
 10
4.566123376056148
 20
4.99702973657738
 42
0.0478438451985799
 10
4.546636227363147
 20
5.016908341587701
 42
0.0615734602679431
 10
4.528477720865449
 20
5.028720679019533
 42
0.1024612315138189
 10
4.509164107672306
 20
5.033642668618996
 42
0.183303542816622
  0
LWPOLYLINE
  5
32
330
2
100
AcDbEntity
  8
image
100
AcDbPolyline
 90
       16
 70
     1
 43
0.0
 10
4.444328774252363
 20
4.904166694246715
 42
0.1615511064879552
 10
4.430525640746939
 20
4.885800680390341
 42
0.1061532262602322
 10
4.42665206607471
 20
4.851559986196836
 42
0.0703450477663066
 10
4.435415846775712
 20
4.815642929848593
 42
0.0566056099584688
 10
4.457117140007938
 20
4.775237215287684
 42
0.0566056099584683
 10
4.487326984413421
 20
4.740727315286009
 42
0.0703450477663069
 10
4.51787796892067
 20
4.719907225599926
 42
0.1061532262602343
 10
4.5512978121941
 20
4.711508190228316
 42
0.1615511064879549
 10
4.573341683296851
 20
4.717981574686699
 42
0.1615511064879543
 10
4.587144816802275
 20
4.736347588543063
 42
0.106153226260232
 10
4.591018391474503
 20
4.770588282736582
 42
0.0703450477663075
 10
4.582254610773499
 20
4.806505339084822
 42
0.0566056099584687
 10
4.560553317541275
 20
4.846911053645738
 42
0.05660560995847
 10
4.530343473135795
 20
4.881420953647383
 42
0.0703450477663058
 10
4.499792488628544
 20
4.902241043333489
 42
0.1061532262602316
 10
4.466372645355111
 20
4.910640078705103
 42
0.1615511064879538
  0
LWPOLYLINE
  5
33
330
2
100
AcDbEntity
  8
image
100
AcDbPolyline
 90
       16
 70
     1
 43
0.0
 10
4.023942833295408
 20
4.993526958187961
 42
0.1833035428166229
 10
4.01819801890945
 20
4.983685497522181
 42
0.1024612315138192
 10
4.01896351570866
 20
4.963769281746017
 42
0.0615734602679465
 10
4.026708432244012
 20
4.94353863811586
 42
0.0478438451985803
 10
4.042062104544942
 20
4.920318546638547
 42
0.0478438451985776
 10
4.061549253237934
 20
4.900439941628221
 42
0.061573460267943
 10
4.079707759735635
 20
4.888627604196391
 42
0.1024612315138217
 10
4.099021372928778
 20
4.883705614596925
 42
0.1833035428166229
 10
4.109848167034453
 20
4.887260578697825
 42
0.1833035428166234
 10
4.115592981420411
 20
4.897102039363605
 42
0.102461231513819
 10
4.114827484621198
 20
4.917018255139744
 42
0.0615734602679484
 10
4.107082568085855
 20
4.93724889876992
 42
0.0478438451985819
 10
4.091728895784919
 20
4.960468990247238
 42
0.0478438451985799
 10
4.072241747091926
 20
4.980347595257558
 42
0.0615734602679431
 10
4.054083240594225
 20
4.992159932689369
 42
0.1024612315138189
 10
4.034769627401084
 20
4.997081922288849
 42
0.183303542816622
  0
LWPOLYLINE
  5
34
330
2
100
AcDbEntity
  8
image
100
AcDbPolyline
 90
       16
 70
     1
 43
0.0
 10
4.269645597834497
 20
4.812239589112899
 42
0.0846731520301792
 10
4.264027530368936
 20
4.845176761979276
 42
0.0916544813065032
 10
4.248652816613097
 20
4.871986657841673
 42
0.1036340346640379
 10
4.224789997597373
 20
4.890536643660261
 42
0.1140536254072521
 10
4.197971759476449
 20
4.896734704021152
 42
0.1140536254072534
 10
4.17115352135552
 20
4.890536643660261
 42
0.1036340346640368
 10
4.147290702339802
 20
4.871986657841673
 42
0.0916544813065076
 10
4.13191598858396
 20
4.845176761979276
 42
0.0846731520301862
 10
4.126297921118397
 20
4.812239589112899
 42
0.0846731520301835
 10
4.13191598858396
 20
4.779302416246546
 42
0.091654481306508
 10
4.147290702339802
 20
4.752492520384146
 42
0.103634034664036
 10
4.17115352135552
 20
4.733942534565535
 42
0.1140536254072547
 10
4.197971759476449
 20
4.727744474204649
 42
0.1140536254072534
 10
4.224789997597373
 20
4.733942534565535
 42
0.1036340346640367
 10
4.248652816613097
 20
4.752492520384146
 42
0.0916544813065066
 10
4.264027530368936
 20
4.779302416246546
 42
0.0846731520301858
  0
LWPOLYLINE
  5
35
330
2
100
AcDbEntity
  8
image
100
AcDbPolyline
 90
       16
 70
     1
 43
0.0
 10
4.299939768605947
 20
4.972824095871406
 42
0.1833035428166229
 10
4.294194954219988
 20
4.962982635205618
 42
0.1024612315138192
 10
4.294960451019198
 20
4.943066419429462
 42
0.0615734602679465
 10
4.302705367554549
 20
4.922835775799303
 42
0.0478438451985803
 10
4.31805903985548
 20
4.899615684321984
 42
0.0478438451985776
 10
4.337546188548476
 20
4.879737079311664
 42
0.061573460267943
 10
4.355704695046176
 20
4.867924741879856
 42
0.1024612315138217
 10
4.375018308239321
 20
4.863002752280368
 42
0.1833035428166229
 10
4.385845102344994
 20
4.866557716381262
 42
0.1833035428166234
 10
4.391589916730948
 20
4.87639917704705
 42
0.102461231513819
 10
4.390824419931734
 20
4.896315392823189
 42
0.0615734602679484
 10
4.383079503396388
 20
4.916546036453365
 42
0.0478438451985819
 10
4.367725831095457
 20
4.939766127930679
 42
0.0478438451985799
 10
4.348238682402461
 20
4.959644732940995
 42
0.0615734602679431
 10
4.330080175904764
 20
4.971457070372815
 42
0.1024612315138189
 10
4.310766562711616
 20
4.976379059972291
 42
0.183303542816622
  0
LWPOLYLINE
  5
36
330
2
100
AcDbEntity
  8
image
100
AcDbPolyline
 90
       16
 70
     1
 43
0.0
 10
4.901982798765128
 20
5.078530922539134
 42
0.1096021439183502
 10
4.868116368202769
 20
5.072756615677529
 42
0.1024204874116924
 10
4.837640921679235
 20
5.052292393291574
 42
0.0936695383243779
 10
4.816928851973829
 20
5.021259943530962
 42
0.0882994724157594
 10
4.808084178784306
 20
4.982721609319571
 42
0.088299472415759
 10
4.813080052305205
 20
4.943498240068819
 42
0.0936695383243767
 10
4.830626509208608
 20
4.91057219232904
 42
0.1024204874116938
 10
4.858932212466022
 20
4.887198608911559
 42
0.1096021439183517
 10
4.892062921517093
 20
4.878108292275676
 42
0.109602143918351
 10
4.925929352079445
 20
4.883882599137304
 42
0.1024204874116929
 10
4.956404798602988
 20
4.904346821523254
 42
0.0936695383243769
 10
4.977116868308388
 20
4.935379271283849
 42
0.0882994724157586
 10
4.985961541497914
 20
4.973917605495243
 42
0.0882994724157589
 10
4.980965667977011
 20
5.013140974746017
 42
0.0936695383243761
 10
4.963419211073603
 20
5.046067022485787
 42
0.102420487411692
 10
4.935113507816194
 20
5.069440605903272
 42
0.1096021439183503
  0
LWPOLYLINE
  5
37
330
2
100
AcDbEntity
  8
image
100
AcDbPolyline
 90
       16
 70
     1
 43
0.0
 10
5.052275537024745
 20
4.991502888155633
 42
0.1615511064879552
 10
5.038472403519324
 20
4.973136874299256
 42
0.1061532262602322
 10
5.03459882884709
 20
4.938896180105734
 42
0.0703450477663066
 10
5.043362609548097
 20
4.902979123757509
 42
0.0566056099584688
 10
5.065063902780321
 20
4.862573409196594
 42
0.0566056099584683
 10
5.0952737471858
 20
4.828063509194924
 42
0.0703450477663069
 10
5.125824731693052
 20
4.807243419508841
 42
0.1061532262602343
 10
5.159244574966482
 20
4.79884438413721
 42
0.1615511064879549
 10
5.181288446069233
 20
4.805317768595621
 42
0.1615511064879543
 10
5.195091579574658
 20
4.823683782451979
 42
0.106153226260232
 10
5.198965154246885
 20
4.857924476645478
 42
0.0703450477663075
 10
5.190201373545889
 20
4.893841532993738
 42
0.0566056099584687
 10
5.168500080313655
 20
4.934247247554635
 42
0.05660560995847
 10
5.138290235908172
 20
4.968757147556305
 42
0.0703450477663058
 10
5.107739251400928
 20
4.989577237242388
 42
0.1061532262602316
 10
5.074319408127493
 20
4.997976272614002
 42
0.1615511064879538
  0
LWPOLYLINE
  5
38
330
2
100
AcDbEntity
  8
image
100
AcDbPolyline
 90
       16
 70
     1
 43
0.0
 10
4.794186608091503
 20
4.946952211507852
 42
0.0846731520301792
 10
4.788568540625946
 20
4.979889384374209
 42
0.0916544813065032
 10
4.773193826870098
 20
5.006699280236627
 42
0.1036340346640379
 10
4.74933100785438
 20
5.025249266055218
 42
0.1140536254072521
 10
4.722512769733453
 20
5.031447326416103
 42
0.1140536254072534
 10
4.695694531612527
 20
5.025249266055218
 42
0.1036340346640368
 10
4.671831712596811
 20
5.006699280236627
 42
0.0916544813065076
 10
4.656456998840969
 20
4.979889384374209
 42
0.0846731520301862
 10
4.650838931375412
 20
4.946952211507852
 42
0.0846731520301835
 10
4.656456998840969
 20
4.914015038641481
 42
0.091654481306508
 10
4.671831712596811
 20
4.88720514277908
 42
0.103634034664036
 10
4.695694531612527
 20
4.868655156960489
 42
0.1140536254072547
 10
4.722512769733453
 20
4.862457096599599
 42
0.1140536254072534
 10
4.74933100785438
 20
4.868655156960489
 42
0.1036340346640367
 10
4.773193826870098
 20
4.88720514277908
 42
0.0916544813065066
 10
4.788568540625946
 20
4.914015038641481
 42
0.0846731520301858
  0
LINE
  5
39
330
2
100
AcDbEntity
  8
image
100
AcDbLine
 10
1.766108131089317
 20
4.786297847815324
 30
0.0
 11
0.9540306530548443
 21
4.786297847815315
 31
0.0
  0
LWPOLYLINE
  5
3A
330
2
100
AcDbEntity
  8
image
100
AcDbPolyline
 90
        2
 70
     0
 43
0.0
 10
0.9540306530548443
 20
4.786297847815321
 10
1.766108131089317
 20
4.423514504218313
  0
LWPOLYLINE
  5
3B
330
2
100
AcDbEntity
  8
image
100
AcDbPolyline
 90
        2
 70
     0
 43
0.0
 10
0.9540306530548443
 20
4.423514504218313
 10
1.766108131089317
 20
4.786297847815324
  0
LINE
  5
3C
330
2
100
AcDbEntity
  8
image
100
AcDbLine
 10
0.9540306530548443
 20
4.786297847815321
 30
0.0
 11
0.9540306530548443
 21
4.423514504218313
 31
0.0
  0
LINE
  5
3D
330
2
100
AcDbEntity
  8
image
100
AcDbLine
 10
0.9540306530548443
 20
4.423514504218313
 30
0.0
 11
1.766108131089317
 21
4.423514504218313
 31
0.0
  0
LINE
  5
3E
330
2
100
AcDbEntity
  8
image
100
AcDbLine
 10
1.766108131089317
 20
4.423514504218313
 30
0.0
 11
1.766108131089317
 21
4.786297847815321
 31
0.0
  0
LINE
  5
3F
330
2
100
AcDbEntity
  8
image
100
AcDbLine
 10
6.428837229999031
 20
4.423514504218313
 30
0.0
 11
6.428837229999031
 21
4.786297847815321
 31
0.0
  0
LINE
  5
40
330
2
100
AcDbEntity
  8
image
100
AcDbLine
 10
5.616759751964557
 20
4.423514504218313
 30
0.0
 11
6.428837229999031
 21
4.423514504218313
 31
0.0
  0
LINE
  5
41
330
2
100
AcDbEntity
  8
image
100
AcDbLine
 10
1.248151095116962
 20
5.030626132456303
 30
0.0
 11
1.248151095116962
 21
4.786297847815321
 31
0.0
  0
LINE
  5
42
330
2
100
AcDbEntity
  8
image
100
AcDbLine
 10
1.581632914915148
 20
6.245866684735071
 30
0.0
 11
1.471987689027201
 21
4.786297847815321
 31
0.0
  0
LINE
  5
43
330
2
100
AcDbEntity
  8
image
100
AcDbLine
 10
1.471987689027201
 20
4.786297847815321
 30
0.0
 11
1.248151095116962
 21
4.786297847815321
 31
0.0
  0
LWPOLYLINE
  5
44
330
2
100
AcDbEntity
  8
image
100
AcDbPolyline
 90
       16
 70
     1
 43
0.0
 10
2.363850359809977
 20
4.779268385387739
 42
0.0708989349029243
 10
2.343404921479128
 20
4.76031570727622
 42
0.0824870853856804
 10
2.331537872286571
 20
4.739449696903825
 42
0.1068139206260733
 10
2.32834608647941
 20
4.716748494508916
 42
0.1340008839894652
 10
2.33447170464991
 20
4.699406878439172
 42
0.1340008839894659
 10
2.348557213856175
 20
4.687580920707082
 42
0.106813920626075
 10
2.370933257691277
 20
4.682596469974756
 42
0.0824870853856831
 10
2.39463786435703
 20
4.686379176442468
 42
0.0708989349029243
 10
2.419563848144221
 20
4.698865780799968
 42
0.0708989349029259
 10
2.440009286475064
 20
4.717818458911505
 42
0.0824870853856834
 10
2.451876335667624
 20
4.73868446928389
 42
0.1068139206260768
 10
2.455068121474785
 20
4.761385671678798
 42
0.1340008839894672
 10
2.448942503304288
 20
4.778727287748541
 42
0.1340008839894638
 10
2.434856994098022
 20
4.790553245480647
 42
0.1068139206260751
 10
2.412480950262924
 20
4.795537696212976
 42
0.082487085385683
 10
2.388776343597171
 20
4.791754989745242
 42
0.0708989349029251
  0
LWPOLYLINE
  5
45
330
2
100
AcDbEntity
  8
image
100
AcDbPolyline
 90
       16
 70
     1
 43
0.0
 10
2.577188329796448
 20
4.840144539433536
 42
0.0708989349029243
 10
2.556742891465605
 20
4.821191861322011
 42
0.0824870853856804
 10
2.544875842273051
 20
4.800325850949617
 42
0.1068139206260733
 10
2.54168405646589
 20
4.777624648554709
 42
0.1340008839894652
 10
2.547809674636387
 20
4.760283032484964
 42
0.1340008839894659
 10
2.56189518384265
 20
4.748457074752874
 42
0.106813920626075
 10
2.584271227677751
 20
4.743472624020547
 42
0.0824870853856831
 10
2.607975834343509
 20
4.747255330488259
 42
0.0708989349029243
 10
2.632901818130701
 20
4.759741934845754
 42
0.0708989349029259
 10
2.653347256461541
 20
4.778694612957297
 42
0.0824870853856834
 10
2.665214305654101
 20
4.79956062332968
 42
0.1068139206260768
 10
2.668406091461262
 20
4.822261825724589
 42
0.1340008839894672
 10
2.66228047329076
 20
4.839603441794335
 42
0.1340008839894638
 10
2.648194964084499
 20
4.851429399526439
 42
0.1068139206260751
 10
2.625818920249396
 20
4.856413850258764
 42
0.082487085385683
 10
2.602114313583642
 20
4.852631143791033
 42
0.0708989349029251
  0
LWPOLYLINE
  5
46
330
2
100
AcDbEntity
  8
image
100
AcDbPolyline
 90
       16
 70
     1
 43
0.0
 10
2.954562497655641
 20
4.845516110428191
 42
0.0708989349029243
 10
2.934117059324795
 20
4.826563432316667
 42
0.0824870853856804
 10
2.922250010132243
 20
4.805697421944283
 42
0.1068139206260733
 10
2.91905822432508
 20
4.782996219549366
 42
0.1340008839894652
 10
2.92518384249558
 20
4.765654603479619
 42
0.1340008839894659
 10
2.939269351701843
 20
4.753828645747529
 42
0.106813920626075
 10
2.961645395536944
 20
4.748844195015204
 42
0.0824870853856831
 10
2.985350002202702
 20
4.752626901482916
 42
0.0708989349029243
 10
3.010275985989891
 20
4.765113505840432
 42
0.0708989349029259
 10
3.03072142432074
 20
4.784066183951952
 42
0.0824870853856834
 10
3.042588473513291
 20
4.804932194324336
 42
0.1068139206260768
 10
3.045780259320452
 20
4.827633396719244
 42
0.1340008839894672
 10
3.039654641149955
 20
4.844975012788991
 42
0.1340008839894638
 10
3.025569131943692
 20
4.856800970521094
 42
0.1068139206260751
 10
3.003193088108591
 20
4.86178542125342
 42
0.082487085385683
 10
2.979488481442835
 20
4.858002714785689
 42
0.0708989349029251
  0
LWPOLYLINE
  5
47
330
2
100
AcDbEntity
  8
image
100
AcDbPolyline
 90
       16
 70
     1
 43
0.0
 10
3.442055520580296
 20
4.825415459281252
 42
0.0708989349029243
 10
3.421610082249452
 20
4.806462781169726
 42
0.0824870853856804
 10
3.409743033056892
 20
4.785596770797331
 42
0.1068139206260733
 10
3.406551247249737
 20
4.762895568402423
 42
0.1340008839894652
 10
3.412676865420229
 20
4.745553952332674
 42
0.1340008839894659
 10
3.426762374626497
 20
4.73372799460059
 42
0.106813920626075
 10
3.449138418461595
 20
4.728743543868258
 42
0.0824870853856831
 10
3.472843025127354
 20
4.732526250335975
 42
0.0708989349029243
 10
3.497769008914545
 20
4.74501285469347
 42
0.0708989349029259
 10
3.518214447245386
 20
4.763965532805012
 42
0.0824870853856834
 10
3.530081496437946
 20
4.784831543177395
 42
0.1068139206260768
 10
3.533273282245106
 20
4.807532745572308
 42
0.1340008839894672
 10
3.527147664074604
 20
4.824874361642048
 42
0.1340008839894638
 10
3.513062154868347
 20
4.836700319374157
 42
0.1068139206260751
 10
3.490686111033243
 20
4.841684770106483
 42
0.082487085385683
 10
3.46698150436749
 20
4.837902063638749
 42
0.0708989349029251
  0
LWPOLYLINE
  5
48
330
2
100
AcDbEntity
  8
image
100
AcDbPolyline
 90
       16
 70
     1
 43
0.0
 10
1.833328544928942
 20
4.790807890118998
 42
0.0708989349029243
 10
1.812883106598104
 20
4.771855212007473
 42
0.0824870853856804
 10
1.801016057405541
 20
4.750989201635081
 42
0.1068139206260733
 10
1.797824271598383
 20
4.728287999240169
 42
0.1340008839894652
 10
1.803949889768883
 20
4.710946383170425
 42
0.1340008839894659
 10
1.818035398975143
 20
4.699120425438336
 42
0.106813920626075
 10
1.840411442810247
 20
4.69413597470601
 42
0.0824870853856831
 10
1.864116049476003
 20
4.697918681173721
 42
0.0708989349029243
 10
1.889042033263188
 20
4.710405285531222
 42
0.0708989349029259
 10
1.909487471594037
 20
4.729357963642764
 42
0.0824870853856834
 10
1.921354520786595
 20
4.750223974015145
 42
0.1068139206260768
 10
1.924546306593755
 20
4.772925176410071
 42
0.1340008839894672
 10
1.918420688423253
 20
4.790266792479798
 42
0.1340008839894638
 10
1.904335179216993
 20
4.802092750211901
 42
0.1068139206260751
 10
1.881959135381889
 20
4.807077200944245
 42
0.082487085385683
 10
1.858254528716136
 20
4.803294494476501
 42
0.0708989349029251
  0
LWPOLYLINE
  5
49
330
2
100
AcDbEntity
  8
image
100
AcDbPolyline
 90
       16
 70
     1
 43
0.0
 10
2.783121889218898
 20
4.962522119693336
 42
0.0846731520301792
 10
2.777503821753341
 20
4.995459292559698
 42
0.0916544813065032
 10
2.762129107997494
 20
5.022269188422088
 42
0.1036340346640379
 10
2.738266288981772
 20
5.040819174240702
 42
0.1140536254072521
 10
2.711448050860851
 20
5.047017234601592
 42
0.1140536254072534
 10
2.684629812739931
 20
5.040819174240702
 42
0.1036340346640368
 10
2.660766993724203
 20
5.022269188422088
 42
0.0916544813065076
 10
2.645392279968362
 20
4.995459292559698
 42
0.0846731520301862
 10
2.639774212502802
 20
4.962522119693336
 42
0.0846731520301835
 10
2.645392279968362
 20
4.929584946826985
 42
0.091654481306508
 10
2.660766993724203
 20
4.902775050964565
 42
0.103634034664036
 10
2.684629812739931
 20
4.88422506514595
 42
0.1140536254072547
 10
2.711448050860851
 20
4.87802700478509
 42
0.1140536254072534
 10
2.738266288981775
 20
4.88422506514595
 42
0.1036340346640367
 10
2.762129107997494
 20
4.902775050964565
 42
0.0916544813065066
 10
2.777503821753335
 20
4.929584946826985
 42
0.0846731520301858
  0
LWPOLYLINE
  5
4A
330
2
100
AcDbEntity
  8
image
100
AcDbPolyline
 90
       16
 70
     1
 43
0.0
 10
3.04121081815214
 20
5.0070727963411
 42
0.1615511064879552
 10
3.027407684646716
 20
4.988706782484739
 42
0.1061532262602322
 10
3.023534109974488
 20
4.95446608829124
 42
0.0703450477663066
 10
3.03229789067549
 20
4.918549031942978
 42
0.0566056099584688
 10
3.053999183907716
 20
4.878143317382083
 42
0.0566056099584683
 10
3.084209028313203
 20
4.843633417380416
 42
0.0703450477663069
 10
3.11476001282045
 20
4.822813327694315
 42
0.1061532262602343
 10
3.148179856093884
 20
4.814414292322702
 42
0.1615511064879549
 10
3.170223727196628
 20
4.820887676781108
 42
0.1615511064879543
 10
3.18402686070205
 20
4.839253690637465
 42
0.106153226260232
 10
3.187900435374284
 20
4.87349438483097
 42
0.0703450477663075
 10
3.179136654673282
 20
4.90941144117921
 42
0.0566056099584687
 10
3.157435361441056
 20
4.949817155740127
 42
0.05660560995847
 10
3.127225517035568
 20
4.984327055741792
 42
0.0703450477663058
 10
3.096674532528322
 20
5.005147145427875
 42
0.1061532262602316
 10
3.063254689254885
 20
5.013546180799488
 42
0.1615511064879538
  0
LWPOLYLINE
  5
4B
330
2
100
AcDbEntity
  8
image
100
AcDbPolyline
 90
       16
 70
     1
 43
0.0
 10
3.598298846473858
 20
5.090437234810272
 42
0.1833035428166229
 10
3.592554032087906
 20
5.080595774144489
 42
0.1024612315138192
 10
3.593319528887113
 20
5.06067955836835
 42
0.0615734602679465
 10
3.601064445422467
 20
5.040448914738178
 42
0.0478438451985803
 10
3.616418117723392
 20
5.017228823260866
 42
0.0478438451985776
 10
3.635905266416387
 20
4.997350218250552
 42
0.061573460267943
 10
3.654063772914091
 20
4.985537880818725
 42
0.1024612315138217
 10
3.673377386107233
 20
4.980615891219239
 42
0.1833035428166229
 10
3.684204180212908
 20
4.984170855320133
 42
0.1833035428166234
 10
3.689948994598866
 20
4.994012315985916
 42
0.102461231513819
 10
3.689183497799651
 20
5.013928531762054
 42
0.0615734602679484
 10
3.681438581264302
 20
5.034159175392228
 42
0.0478438451985819
 10
3.666084908963375
 20
5.057379266869538
 42
0.0478438451985799
 10
3.646597760270382
 20
5.07725787187987
 42
0.0615734602679431
 10
3.628439253772681
 20
5.089070209311677
 42
0.1024612315138189
 10
3.609125640579534
 20
5.093992198911165
 42
0.183303542816622
  0
LWPOLYLINE
  5
4C
330
2
100
AcDbEntity
  8
image
100
AcDbPolyline
 90
       16
 70
     1
 43
0.0
 10
3.544290307159593
 20
4.95393960659602
 42
0.1615511064879552
 10
3.530487173654171
 20
4.935573592739662
 42
0.1061532262602322
 10
3.526613598981938
 20
4.90133289854616
 42
0.0703450477663066
 10
3.535377379682939
 20
4.865415842197895
 42
0.0566056099584688
 10
3.557078672915171
 20
4.82501012763701
 42
0.0566056099584683
 10
3.58728851732065
 20
4.790500227635337
 42
0.0703450477663069
 10
3.6178395018279
 20
4.769680137949253
 42
0.1061532262602343
 10
3.651259345101332
 20
4.761281102577644
 42
0.1615511064879549
 10
3.673303216204083
 20
4.767754487036027
 42
0.1615511064879543
 10
3.687106349709505
 20
4.786120500892391
 42
0.106153226260232
 10
3.690979924381736
 20
4.820361195085884
 42
0.0703450477663075
 10
3.682216143680734
 20
4.856278251434149
 42
0.0566056099584687
 10
3.660514850448499
 20
4.896683965995064
 42
0.05660560995847
 10
3.630305006043022
 20
4.931193865996728
 42
0.0703450477663058
 10
3.599754021535773
 20
4.952013955682794
 42
0.1061532262602316
 10
3.566334178262343
 20
4.960412991054431
 42
0.1615511064879538
  0
LWPOLYLINE
  5
4D
330
2
100
AcDbEntity
  8
image
100
AcDbPolyline
 90
       16
 70
     1
 43
0.0
 10
3.365560396210624
 20
4.895073027786584
 42
0.0846731520301792
 10
3.359942328745067
 20
4.928010200652957
 42
0.0916544813065032
 10
3.34456761498922
 20
4.954820096515351
 42
0.1036340346640379
 10
3.320704795973496
 20
4.973370082333947
 42
0.1140536254072521
 10
3.293886557852578
 20
4.979568142694832
 42
0.1140536254072534
 10
3.267068319731654
 20
4.973370082333947
 42
0.1036340346640368
 10
3.243205500715929
 20
4.954820096515351
 42
0.0916544813065076
 10
3.227830786960085
 20
4.928010200652957
 42
0.0846731520301862
 10
3.222212719494525
 20
4.895073027786584
 42
0.0846731520301835
 10
3.227830786960079
 20
4.862135854920225
 42
0.091654481306508
 10
3.243205500715929
 20
4.83532595905781
 42
0.103634034664036
 10
3.267068319731654
 20
4.816775973239213
 42
0.1140536254072547
 10
3.293886557852578
 20
4.810577912878328
 42
0.1140536254072534
 10
3.320704795973496
 20
4.816775973239213
 42
0.1036340346640367
 10
3.34456761498922
 20
4.83532595905781
 42
0.0916544813065066
 10
3.359942328745067
 20
4.862135854920225
 42
0.0846731520301858
  0
LWPOLYLINE
  5
4E
330
2
100
AcDbEntity
  8
image
100
AcDbPolyline
 90
       16
 70
     1
 43
0.0
 10
2.890918079892518
 20
5.094100830724626
 42
0.1096021439183502
 10
2.857051649330167
 20
5.088326523862999
 42
0.1024204874116924
 10
2.82657620280663
 20
5.067862301477044
 42
0.0936695383243779
 10
2.805864133101221
 20
5.036829851716454
 42
0.0882994724157594
 10
2.797019459911701
 20
4.998291517505061
 42
0.088299472415759
 10
2.802015333432597
 20
4.959068148254309
 42
0.0936695383243767
 10
2.819561790336006
 20
4.92614210051451
 42
0.1024204874116938
 10
2.847867493593417
 20
4.90276851709703
 42
0.1096021439183517
 10
2.880998202644483
 20
4.893678200461163
 42
0.109602143918351
 10
2.914864633206843
 20
4.899452507322791
 42
0.1024204874116929
 10
2.945340079730377
 20
4.919916729708726
 42
0.0936695383243769
 10
2.966052149435788
 20
4.950949179469335
 42
0.0882994724157586
 10
2.974896822625306
 20
4.989487513680726
 42
0.0882994724157589
 10
2.969900949104412
 20
5.028710882931483
 42
0.0936695383243761
 10
2.952354492201004
 20
5.06163693067126
 42
0.102420487411692
 10
2.924048788943589
 20
5.085010514088756
 42
0.1096021439183503
  0
LWPOLYLINE
  5
4F
330
2
100
AcDbEntity
  8
image
100
AcDbPolyline
 90
       16
 70
     1
 43
0.0
 10
3.399901301513176
 20
5.022597008220728
 42
0.1833035428166229
 10
3.394156487127218
 20
5.012755547554945
 42
0.1024612315138192
 10
3.394921983926431
 20
4.9928393317788
 42
0.0615734602679465
 10
3.402666900461777
 20
4.97260868814863
 42
0.0478438451985803
 10
3.418020572762712
 20
4.949388596671329
 42
0.0478438451985776
 10
3.437507721455699
 20
4.929509991660991
 42
0.061573460267943
 10
3.455666227953406
 20
4.917697654229181
 42
0.1024612315138217
 10
3.474979841146548
 20
4.912775664629696
 42
0.1833035428166229
 10
3.485806635252223
 20
4.916330628730589
 42
0.1833035428166234
 10
3.491551449638175
 20
4.926172089396372
 42
0.102461231513819
 10
3.490785952838968
 20
4.94608830517251
 42
0.0615734602679484
 10
3.483041036303617
 20
4.966318948802684
 42
0.0478438451985819
 10
3.467687364002687
 20
4.989539040279989
 42
0.0478438451985799
 10
3.448200215309697
 20
5.00941764529031
 42
0.0615734602679431
 10
3.430041708811988
 20
5.021229982722137
 42
0.1024612315138189
 10
3.410728095618849
 20
5.026151972321619
 42
0.183303542816622
  0
LWPOLYLINE
  5
50
330
2
100
AcDbEntity
  8
image
100
AcDbPolyline
 90
       16
 70
     1
 43
0.0
 10
2.360817809684207
 20
5.009377308478033
 42
0.1833035428166229
 10
2.355072995298255
 20
4.99953584781227
 42
0.1024612315138192
 10
2.355838492097462
 20
4.979619632036106
 42
0.0615734602679465
 10
2.363583408632814
 20
4.95938898840595
 42
0.0478438451985803
 10
2.378937080933746
 20
4.936168896928636
 42
0.0478438451985776
 10
2.398424229626739
 20
4.91629029191831
 42
0.061573460267943
 10
2.41658273612444
 20
4.90447795448648
 42
0.1024612315138217
 10
2.435896349317579
 20
4.899555964887015
 42
0.1833035428166229
 10
2.446723143423257
 20
4.903110928987889
 42
0.1833035428166234
 10
2.452467957809215
 20
4.912952389653693
 42
0.102461231513819
 10
2.451702461010003
 20
4.932868605429833
 42
0.0615734602679484
 10
2.443957544474651
 20
4.953099249059992
 42
0.0478438451985819
 10
2.428603872173724
 20
4.976319340537311
 42
0.0478438451985799
 10
2.409116723480726
 20
4.996197945547648
 42
0.0615734602679431
 10
2.390958216983022
 20
5.008010282979459
 42
0.1024612315138189
 10
2.371644603789885
 20
5.012932272578926
 42
0.183303542816622
  0
LWPOLYLINE
  5
51
330
2
100
AcDbEntity
  8
image
100
AcDbPolyline
 90
       16
 70
     1
 43
0.0
 10
1.779891828112684
 20
5.043658187003644
 42
0.1096021439183502
 10
1.746025397550333
 20
5.037883880142016
 42
0.1024204874116924
 10
1.715549951026796
 20
5.017419657756081
 42
0.0936695383243779
 10
1.694837881321387
 20
4.986387207995472
 42
0.0882994724157594
 10
1.685993208131867
 20
4.94784887378408
 42
0.088299472415759
 10
1.690989081652763
 20
4.908625504533321
 42
0.0936695383243767
 10
1.708535538556172
 20
4.875699456793528
 42
0.1024204874116938
 10
1.736841241813583
 20
4.852325873376068
 42
0.1096021439183517
 10
1.769971950864649
 20
4.843235556740181
 42
0.109602143918351
 10
1.803838381427009
 20
4.849009863601808
 42
0.1024204874116929
 10
1.834313827950543
 20
4.869474085987747
 42
0.0936695383243769
 10
1.855025897655954
 20
4.900506535748356
 42
0.0882994724157586
 10
1.863870570845469
 20
4.939044869959738
 42
0.0882994724157589
 10
1.858874697324575
 20
4.978268239210499
 42
0.0936695383243761
 10
1.841328240421169
 20
5.011194286950296
 42
0.102420487411692
 10
1.813022537163755
 20
5.034567870367759
 42
0.1096021439183503
  0
LWPOLYLINE
  5
52
330
2
100
AcDbEntity
  8
image
100
AcDbPolyline
 90
       16
 70
     1
 43
0.0
 10
2.29880661209286
 20
4.863241856054751
 42
0.0846731520301792
 10
2.293188544627306
 20
4.896179028921127
 42
0.0916544813065032
 10
2.277813830871458
 20
4.922988924783522
 42
0.1036340346640379
 10
2.25395101185574
 20
4.941538910602119
 42
0.1140536254072521
 10
2.227132773734816
 20
4.947736970963005
 42
0.1140536254072534
 10
2.200314535613887
 20
4.941538910602119
 42
0.1036340346640368
 10
2.176451716598168
 20
4.922988924783522
 42
0.0916544813065076
 10
2.161077002842326
 20
4.896179028921127
 42
0.0846731520301862
 10
2.155458935376764
 20
4.863241856054751
 42
0.0846731520301835
 10
2.161077002842326
 20
4.830304683188397
 42
0.091654481306508
 10
2.176451716598168
 20
4.803494787325998
 42
0.103634034664036
 10
2.200314535613887
 20
4.784944801507386
 42
0.1140536254072547
 10
2.227132773734816
 20
4.778746741146495
 42
0.1140536254072534
 10
2.25395101185574
 20
4.784944801507386
 42
0.1036340346640367
 10
2.277813830871458
 20
4.803494787325998
 42
0.0916544813065066
 10
2.293188544627306
 20
4.830304683188397
 42
0.0846731520301858
  0
LWPOLYLINE
  5
53
330
2
100
AcDbEntity
  8
image
100
AcDbPolyline
 90
       16
 70
     1
 43
0.0
 10
2.517625628586079
 20
4.96547426986897
 42
0.1847277609904711
 10
2.529590453267472
 20
4.958689431931482
 42
0.1021404146396031
 10
2.553862578432792
 20
4.959978548370172
 42
0.0610262113808276
 10
2.578426893982566
 20
4.96974820831744
 42
0.0473278026433084
 10
2.606614049086439
 20
4.988826847930875
 42
0.0473278026433059
 10
2.630710743134101
 20
5.012865557095933
 42
0.0610262113808241
 10
2.644978944473253
 20
5.035120225919799
 42
0.1021404146396033
 10
2.650866120157172
 20
5.058702826363778
 42
0.1847277609904728
 10
2.646483629194651
 20
5.071740649359105
 42
0.1847277609904705
 10
2.63451880451327
 20
5.078525487296584
 42
0.1021404146396031
 10
2.610246679347944
 20
5.077236370857896
 42
0.0610262113808276
 10
2.58568236379817
 20
5.067466710910648
 42
0.0473278026433085
 10
2.557495208694294
 20
5.048388071297211
 42
0.0473278026433093
 10
2.533398514646632
 20
5.024349362132136
 42
0.0610262113808288
 10
2.519130313307483
 20
5.00209469330829
 42
0.1021404146396033
 10
2.513243137623566
 20
4.97851209286431
 42
0.1847277609904759
  0
LWPOLYLINE
  5
54
330
2
100
AcDbEntity
  8
image
100
AcDbPolyline
 90
       16
 70
     1
 43
0.0
 10
1.984193105686574
 20
5.093127780834347
 42
0.1833035428166229
 10
1.978448291300619
 20
5.083286320168585
 42
0.1024612315138192
 10
1.979213788099829
 20
5.063370104392426
 42
0.0615734602679465
 10
1.986958704635178
 20
5.043139460762253
 42
0.0478438451985803
 10
2.002312376936111
 20
5.01991936928495
 42
0.0478438451985776
 10
2.021799525629103
 20
5.000040764274629
 42
0.061573460267943
 10
2.039958032126807
 20
4.988228426842803
 42
0.1024612315138217
 10
2.059271645319946
 20
4.983306437243335
 42
0.1833035428166229
 10
2.070098439425619
 20
4.986861401344212
 42
0.1833035428166234
 10
2.075843253811577
 20
4.996702862010017
 42
0.102461231513819
 10
2.07507775701237
 20
5.016619077786156
 42
0.0615734602679484
 10
2.067332840477018
 20
5.036849721416311
 42
0.0478438451985819
 10
2.051979168176083
 20
5.060069812893631
 42
0.0478438451985799
 10
2.032492019483095
 20
5.079948417903952
 42
0.0615734602679431
 10
2.014333512985392
 20
5.091760755335778
 42
0.1024612315138189
 10
1.99501989979225
 20
5.09668274493524
 42
0.183303542816622
  0
LWPOLYLINE
  5
55
330
2
100
AcDbEntity
  8
image
100
AcDbPolyline
 90
       16
 70
     1
 43
0.0
 10
1.930184566372306
 20
4.956630152620117
 42
0.1615511064879552
 10
1.916381432866882
 20
4.938264138763743
 42
0.1061532262602322
 10
1.912507858194654
 20
4.904023444570244
 42
0.0703450477663066
 10
1.921271638895653
 20
4.868106388221979
 42
0.0566056099584688
 10
1.942972932127882
 20
4.827700673661087
 42
0.0566056099584683
 10
1.973182776533364
 20
4.79319077365942
 42
0.0703450477663069
 10
2.003733761040616
 20
4.772370683973351
 42
0.1061532262602343
 10
2.037153604314049
 20
4.763971648601736
 42
0.1615511064879549
 10
2.059197475416794
 20
4.770445033060102
 42
0.1615511064879543
 10
2.073000608922215
 20
4.788811046916486
 42
0.106153226260232
 10
2.076874183594446
 20
4.823051741109982
 42
0.0703450477663075
 10
2.068110402893444
 20
4.858968797458246
 42
0.0566056099584687
 10
2.046409109661221
 20
4.899374512019141
 42
0.05660560995847
 10
2.016199265255733
 20
4.933884412020803
 42
0.0703450477663058
 10
1.985648280748486
 20
4.954704501706894
 42
0.1061532262602316
 10
1.952228437475056
 20
4.963103537078509
 42
0.1615511064879538
  0
LWPOLYLINE
  5
56
330
2
100
AcDbEntity
  8
image
100
AcDbPolyline
 90
       16
 70
     1
 43
0.0
 10
1.672095637439064
 20
4.912079475972339
 42
0.0846731520301792
 10
1.666477569973507
 20
4.945016648838718
 42
0.0916544813065032
 10
1.651102856217659
 20
4.971826544701092
 42
0.1036340346640379
 10
1.627240037201938
 20
4.990376530519727
 42
0.1140536254072521
 10
1.600421799081017
 20
4.996574590880589
 42
0.1140536254072534
 10
1.573603560960096
 20
4.990376530519727
 42
0.1036340346640368
 10
1.549740741944369
 20
4.971826544701092
 42
0.0916544813065076
 10
1.534366028188525
 20
4.945016648838718
 42
0.0846731520301862
 10
1.528747960722965
 20
4.912079475972339
 42
0.0846731520301835
 10
1.534366028188525
 20
4.879142303105988
 42
0.091654481306508
 10
1.549740741944369
 20
4.85233240724359
 42
0.103634034664036
 10
1.573603560960096
 20
4.833782421424976
 42
0.1140536254072547
 10
1.600421799081017
 20
4.827584361064083
 42
0.1140536254072534
 10
1.627240037201938
 20
4.833782421424976
 42
0.1036340346640367
 10
1.651102856217659
 20
4.85233240724359
 42
0.0916544813065066
 10
1.666477569973501
 20
4.879142303105988
 42
0.0846731520301858
  0
LINE
  5
57
330
2
100
AcDbEntity
  8
image
100
AcDbLine
 10
3.337326147277359
 20
5.277036710711437
 30
0.0
 11
1.642095460137355
 21
5.277036710711437
 31
0.0
  0
LINE
  5
58
330
2
100
AcDbEntity
  8
image
100
AcDbLine
 10
1.904783360089787
 20
7.031063962954423
 30
0.0
 11
1.858971806719603
 21
7.03106396295442
 31
0.0
  0
LINE
  5
59
330
2
100
AcDbEntity
  8
image
100
AcDbLine
 10
1.904783360089787
 20
7.305933283175526
 30
0.0
 11
1.797889735559355
 21
7.305933283175526
 31
0.0
  0
LINE
  5
5A
330
2
100
AcDbEntity
  8
image
100
AcDbLine
 10
1.831431795903291
 20
7.33440085942203
 30
0.0
 11
5.547277840060683
 21
7.33440085942203
 31
0.0
  0
LINE
  5
5B
330
2
100
AcDbEntity
  8
image
100
AcDbLine
 10
1.831431795903291
 20
7.718237263507192
 30
0.0
 11
1.831431795903291
 21
7.33440085942203
 31
0.0
  0
LWPOLYLINE
  5
5C
330
2
100
AcDbEntity
  8
image
100
AcDbPolyline
 90
        4
 70
     0
 43
0.0
 10
1.642095460137355
 20
5.580381489227057
 42
0.6579550248282814
 10
1.642095460137355
 20
5.428709099969248
 42
-0.6579550248282905
 10
1.642095460137355
 20
5.277036710711437
 42
-0.7034136138651875
 10
1.642095460137355
 20
5.428709099969248
 42
-0.7034136138651875
  0
LINE
  5
5D
330
2
100
AcDbEntity
  8
image
100
AcDbLine
 10
3.337326147277359
 20
5.580381489227057
 30
0.0
 11
1.642095460137342
 21
5.580381489227051
 31
0.0
  0
LINE
  5
5E
330
2
100
AcDbEntity
  8
image
100
AcDbLine
 10
1.736807664399109
 20
7.718237263507192
 30
0.0
 11
1.736807664399109
 21
7.168498623064973
 31
0.0
  0
LINE
  5
5F
330
2
100
AcDbEntity
  8
image
100
AcDbLine
 10
1.736807664399109
 20
7.168498623064973
 30
0.0
 11
1.675725593238858
 21
6.924170338423985
 31
0.0
  0
LINE
  5
60
330
2
100
AcDbEntity
  8
image
100
AcDbLine
 10
1.675725593238858
 20
6.924170338423985
 30
0.0
 11
1.536173124091672
 21
6.252267555661248
 31
0.0
  0
LINE
  5
61
330
2
100
AcDbEntity
  8
image
100
AcDbLine
 10
1.536173124091672
 20
6.252267555661248
 30
0.0
 11
1.499464434124281
 21
5.763610986379275
 31
0.0
  0
LINE
  5
62
330
2
100
AcDbEntity
  8
image
100
AcDbLine
 10
1.720392648104596
 20
6.913952684468028
 30
0.0
 11
1.581632914915148
 21
6.245866684735071
 31
0.0
  0
LINE
  5
63
330
2
100
AcDbEntity
  8
image
100
AcDbLine
 10
1.806934909438929
 20
7.260121729805336
 30
0.0
 11
1.720392648104596
 21
6.913952684468028
 31
0.0
  0
LINE
  5
64
330
2
100
AcDbEntity
  8
image
100
AcDbLine
 10
1.797889735559355
 20
7.718237263507192
 30
0.0
 11
1.797889735559355
 21
7.305933283175526
 31
0.0
  0
LINE
  5
65
330
2
100
AcDbEntity
  8
image
100
AcDbLine
 10
1.904783360089787
 20
7.305933283175526
 30
0.0
 11
1.904783360089787
 21
7.03106396295442
 31
0.0
  0
LINE
  5
66
330
2
100
AcDbEntity
  8
image
100
AcDbLine
 10
1.858971806719603
 20
7.260121729805336
 30
0.0
 11
1.858971806719603
 21
7.03106396295442
 31
0.0
  0
LINE
  5
67
330
2
100
AcDbEntity
  8
image
100
AcDbLine
 10
1.858971806719603
 20
7.260121729805336
 30
0.0
 11
1.806934909438929
 21
7.260121729805336
 31
0.0
  0
LINE
  5
68
330
2
100
AcDbEntity
  8
image
100
AcDbLine
 10
1.499464434124281
 20
5.763610986379275
 30
0.0
 11
1.40758316444888
 21
5.763610986379275
 31
0.0
  0
LINE
  5
69
330
2
100
AcDbEntity
  8
image
100
AcDbLine
 10
1.40758316444888
 20
5.763610986379275
 30
0.0
 11
1.248151095116962
 21
5.030626132456303
 31
0.0
  0
LINE
  5
6A
330
2
100
AcDbEntity
  8
image
100
AcDbLine
 10
1.541963629277537
 20
5.717799433009097
 30
0.0
 11
1.40758316444888
 21
5.717799433009097
 31
0.0
  0
TEXT
  5
6B
330
2
100
AcDbEntity
  8
image
100
AcDbText
 10
4.421973097395614
 20
6.839602427577639
 30
0.0
 40
0.15625
  1
3" MIN.
  7
ROMANS
100
AcDbText
  0
POINT
  5
6D
330
2
100
AcDbEntity
  8
image
100
AcDbPoint
 10
3.740490920380263
 20
7.33197958694335
 30
0.0
  0
LINE
  5
6E
330
2
100
AcDbEntity
  8
image
100
AcDbLine
 10
5.547277840060683
 20
7.718237263507199
 30
0.0
 11
1.831431795903288
 21
7.718237263507192
 31
0.0
  0
LINE
  5
6F
330
2
100
AcDbEntity
  8
image
100
AcDbLine
 10
5.547277840060683
 20
7.33440085942203
 30
0.0
 11
5.547277840060683
 21
7.718237263507192
 31
0.0
  0
LINE
  5
70
330
2
100
AcDbEntity
  8
image
100
AcDbLine
 10
5.646060218654942
 20
7.718237263507192
 30
0.0
 11
5.584978147494696
 21
7.718237263507199
 31
0.0
  0
LINE
  5
71
330
2
100
AcDbEntity
  8
image
100
AcDbLine
 10
5.584978147494696
 20
7.305933283175526
 30
0.0
 11
5.478084522964255
 21
7.305933283175526
 31
0.0
  0
LINE
  5
72
330
2
100
AcDbEntity
  8
image
100
AcDbLine
 10
5.523896076334439
 20
7.260121729805336
 30
0.0
 11
5.575932973615128
 21
7.260121729805336
 31
0.0
  0
LINE
  5
73
330
2
100
AcDbEntity
  8
image
100
AcDbLine
 10
5.523896076334439
 20
7.260121729805336
 30
0.0
 11
5.523896076334439
 21
7.03106396295442
 31
0.0
  0
LINE
  5
74
330
2
100
AcDbEntity
  8
image
100
AcDbLine
 10
5.478084522964255
 20
7.305933283175526
 30
0.0
 11
5.478084522964255
 21
7.03106396295442
 31
0.0
  0
LINE
  5
75
330
2
100
AcDbEntity
  8
image
100
AcDbLine
 10
5.584978147494696
 20
7.718237263507192
 30
0.0
 11
5.584978147494696
 21
7.305933283175526
 31
0.0
  0
LINE
  5
76
330
2
100
AcDbEntity
  8
image
100
AcDbLine
 10
5.575932973615128
 20
7.260121729805336
 30
0.0
 11
5.662475234949449
 21
6.913952684468028
 31
0.0
  0
LINE
  5
77
330
2
100
AcDbEntity
  8
image
100
AcDbLine
 10
5.646060218654942
 20
7.168498623064973
 30
0.0
 11
5.707142289815188
 21
6.924170338423985
 31
0.0
  0
LINE
  5
78
330
2
100
AcDbEntity
  8
image
100
AcDbLine
 10
5.646060218654942
 20
7.718237263507192
 30
0.0
 11
5.646060218654942
 21
7.168498623064973
 31
0.0
  0
LINE
  5
79
330
2
100
AcDbEntity
  8
image
100
AcDbLine
 10
5.523896076334439
 20
7.03106396295442
 30
0.0
 11
5.478084522964255
 21
7.031063962954423
 31
0.0
  0
LINE
  5
7A
330
2
100
AcDbEntity
  8
image
100
AcDbLine
 10
5.646060218654942
 20
7.718237263507192
 30
0.0
 11
6.332861005907304
 21
7.718237263507192
 31
0.0
  0
LINE
  5
7B
330
2
100
AcDbEntity
  8
image
100
AcDbLine
 10
1.736807664399109
 20
7.718237263507192
 30
0.0
 11
1.0444590396059
 21
7.718237263507192
 31
0.0
  0
LINE
  5
7C
330
2
100
AcDbEntity
  8
image
100
AcDbLine
 10
1.797889735559355
 20
7.718237263507192
 30
0.0
 11
1.736807664399109
 21
7.718237263507192
 31
0.0
  0
LINE
  5
7D
330
2
100
AcDbEntity
  8
image
100
AcDbLine
 10
3.337326147277359
 20
5.625597760441383
 30
0.0
 11
3.337326147277359
 21
5.229155406239591
 31
0.0
  0
LINE
  5
7E
330
2
100
AcDbEntity
  8
image
100
AcDbLine
 10
3.337326147277359
 20
5.229155406239591
 30
0.0
 11
3.639858089772958
 21
5.229155406239591
 31
0.0
  0
LINE
  5
7F
330
2
100
AcDbEntity
  8
image
100
AcDbLine
 10
3.639858089772958
 20
5.229155406239591
 30
0.0
 11
3.639858089772958
 21
5.625597760441383
 31
0.0
  0
LINE
  5
80
330
2
100
AcDbEntity
  8
image
100
AcDbLine
 10
3.639858089772958
 20
5.625597760441383
 30
0.0
 11
3.337326147277359
 21
5.625597760441383
 31
0.0
  0
LINE
  5
81
330
2
100
AcDbEntity
  8
image
100
AcDbLine
 10
3.783581467006763
 20
5.736009841272422
 30
0.0
 11
3.828592339638451
 21
5.760693622577745
 31
0.0
  0
LWPOLYLINE
  5
82
330
2
100
AcDbEntity
  8
image
100
AcDbPolyline
 90
        5
 70
     0
 43
0.0
 10
4.109871093276062
 20
5.955225334960648
 10
4.109020018850515
 20
5.9511363945045
 10
4.113058451031504
 20
5.932207198221062
 10
4.111039234941014
 20
5.913751231844708
 10
4.113631237610132
 20
5.904031711973196
  0
LINE
  5
83
330
2
100
AcDbEntity
  8
image
100
AcDbLine
 10
4.160576862246959
 20
6.027640677846758
 30
0.0
 11
4.109871093276062
 21
5.955225334960648
 31
0.0
  0
LINE
  5
84
330
2
100
AcDbEntity
  8
image
100
AcDbLine
 10
4.276049739676007
 20
6.027640677846758
 30
0.0
 11
4.436306380020315
 21
5.91369518517123
 31
0.0
  0
LINE
  5
85
330
2
100
AcDbEntity
  8
image
100
AcDbLine
 10
4.211096246122164
 20
6.027640677846758
 30
0.0
 11
4.225530355800799
 21
6.027640677846758
 31
0.0
  0
LINE
  5
86
330
2
100
AcDbEntity
  8
image
100
AcDbLine
 10
3.828592339638451
 20
5.861732390328153
 30
0.0
 11
3.828592339638451
 21
5.760693622577745
 31
0.0
  0
LINE
  5
87
330
2
100
AcDbEntity
  8
image
100
AcDbLine
 10
4.05723244174897
 20
5.935949838917806
 30
0.0
 11
4.05723244174897
 21
5.876601190104442
 31
0.0
  0
LINE
  5
88
330
2
100
AcDbEntity
  8
image
100
AcDbLine
 10
4.117274533211068
 20
5.919468829042688
 30
0.0
 11
4.114656975585573
 21
5.904623922069435
 31
0.0
  0
LINE
  5
89
330
2
100
AcDbEntity
  8
image
100
AcDbLine
 10
4.140369108696873
 20
5.919468829042688
 30
0.0
 11
4.062126660974479
 21
5.874295530788113
 31
0.0
  0
LINE
  5
8A
330
2
100
AcDbEntity
  8
image
100
AcDbLine
 10
4.319352068711896
 20
5.919468829042688
 30
0.0
 11
4.321969626337384
 21
5.904623922069435
 31
0.0
  0
LINE
  5
8B
330
2
100
AcDbEntity
  8
image
100
AcDbLine
 10
4.296257493226089
 20
5.919468829042688
 30
0.0
 11
4.374499940948481
 21
5.874295530788113
 31
0.0
  0
LINE
  5
8C
330
2
100
AcDbEntity
  8
image
100
AcDbLine
 10
4.030669875139281
 20
5.91369518517123
 30
0.0
 11
3.944065217067499
 21
5.91369518517123
 31
0.0
  0
LINE
  5
8D
330
2
100
AcDbEntity
  8
image
100
AcDbLine
 10
4.030669875139281
 20
5.91369518517123
 30
0.0
 11
4.030669875139281
 21
5.884826965813972
 31
0.0
  0
LINE
  5
8E
330
2
100
AcDbEntity
  8
image
100
AcDbLine
 10
3.944065217067499
 20
5.91369518517123
 30
0.0
 11
3.944065217067499
 21
5.884826965813972
 31
0.0
  0
LINE
  5
8F
330
2
100
AcDbEntity
  8
image
100
AcDbLine
 10
4.073972204175168
 20
5.861732390328153
 30
0.0
 11
3.9007628880316
 21
5.861732390328153
 31
0.0
  0
LINE
  5
90
330
2
100
AcDbEntity
  8
image
100
AcDbLine
 10
4.073972204175168
 20
5.86750603419961
 30
0.0
 11
4.073972204175168
 21
5.861732390328153
 31
0.0
  0
LINE
  5
91
330
2
100
AcDbEntity
  8
image
100
AcDbLine
 10
3.9007628880316
 20
5.86750603419961
 30
0.0
 11
3.9007628880316
 21
5.861732390328153
 31
0.0
  0
LINE
  5
92
330
2
100
AcDbEntity
  8
image
100
AcDbLine
 10
3.98736754610339
 20
5.91369518517123
 30
0.0
 11
3.98736754610339
 21
5.884826965813972
 31
0.0
  0
ARC
  5
93
330
2
100
AcDbEntity
  8
image
100
AcDbCircle
 10
3.965716381585444
 20
5.767910677417054
 30
0.0
 40
0.1189041269994126
100
AcDbArc
 50
79.50852298766858
 51
123.111341960372
  0
ARC
  5
94
330
2
100
AcDbEntity
  8
image
100
AcDbCircle
 10
4.009018710621331
 20
5.767910677417054
 30
0.0
 40
0.1189041269994126
100
AcDbArc
 50
56.888658039628
 51
100.4914770123314
  0
ARC
  5
95
330
2
100
AcDbEntity
  8
image
100
AcDbCircle
 10
4.427607891301621
 20
5.767910677417054
 30
0.0
 40
0.1189041269994126
100
AcDbArc
 50
79.50852298766858
 51
123.111341960372
  0
ARC
  5
96
330
2
100
AcDbEntity
  8
image
100
AcDbCircle
 10
4.470910220337515
 20
5.767910677417054
 30
0.0
 40
0.1189041269994126
100
AcDbArc
 50
56.88865803962798
 51
100.4914770123314
  0
LINE
  5
97
330
2
100
AcDbEntity
  8
image
100
AcDbLine
 10
4.44925905581957
 20
5.91369518517123
 30
0.0
 11
4.44925905581957
 21
5.884826965813972
 31
0.0
  0
LINE
  5
98
330
2
100
AcDbEntity
  8
image
100
AcDbLine
 10
4.535863713891352
 20
5.86750603419961
 30
0.0
 11
4.535863713891352
 21
5.861732390328153
 31
0.0
  0
LINE
  5
99
330
2
100
AcDbEntity
  8
image
100
AcDbLine
 10
4.362654397747787
 20
5.86750603419961
 30
0.0
 11
4.362654397747787
 21
5.861732390328153
 31
0.0
  0
LINE
  5
9A
330
2
100
AcDbEntity
  8
image
100
AcDbLine
 10
4.362654397747787
 20
5.861732390328153
 30
0.0
 11
4.535863713891352
 21
5.861732390328153
 31
0.0
  0
LINE
  5
9B
330
2
100
AcDbEntity
  8
image
100
AcDbLine
 10
4.492561384855465
 20
5.91369518517123
 30
0.0
 11
4.492561384855465
 21
5.884826965813972
 31
0.0
  0
LINE
  5
9C
330
2
100
AcDbEntity
  8
image
100
AcDbLine
 10
4.405956726783677
 20
5.91369518517123
 30
0.0
 11
4.405956726783677
 21
5.884826965813972
 31
0.0
  0
LINE
  5
9D
330
2
100
AcDbEntity
  8
image
100
AcDbLine
 10
4.405956726783677
 20
5.91369518517123
 30
0.0
 11
4.492561384855465
 21
5.91369518517123
 31
0.0
  0
ARC
  5
9E
330
2
100
AcDbEntity
  8
image
100
AcDbCircle
 10
3.843026449317083
 20
5.717391293541857
 30
0.0
 40
0.0288682193572614
100
AcDbArc
 50
180.0
 51
270.0
  0
ARC
  5
9F
330
2
100
AcDbEntity
  8
image
100
AcDbCircle
 10
4.593600152605875
 20
5.717391293541857
 30
0.0
 40
0.0288682193572614
100
AcDbArc
 50
270.0
 51
0.0
  0
ARC
  5
A0
330
2
100
AcDbEntity
  8
image
100
AcDbCircle
 10
4.593600152605875
 20
5.832864170970903
 30
0.0
 40
0.0288682193572614
100
AcDbArc
 50
0.0
 51
90.0
  0
ARC
  5
A1
330
2
100
AcDbEntity
  8
image
100
AcDbCircle
 10
3.741766826051314
 20
5.267047071568581
 30
0.0
 40
0.0288682193572614
100
AcDbArc
 50
179.9999999999999
 51
270.0
  0
ARC
  5
A2
330
2
100
AcDbEntity
  8
image
100
AcDbCircle
 10
3.741766826051314
 20
5.590371128369909
 30
0.0
 40
0.0288682193572614
100
AcDbArc
 50
89.99999999999973
 51
180.0
  0
LINE
  5
A3
330
2
100
AcDbEntity
  8
image
100
AcDbLine
 10
4.635842055023923
 20
5.619239347727168
 30
0.0
 11
4.60314769387439
 21
5.619239347727168
 31
0.0
  0
LINE
  5
A4
330
2
100
AcDbEntity
  8
image
100
AcDbLine
 10
3.741766826051313
 20
5.619239347727168
 30
0.0
 11
3.85834801216458
 21
5.619239347727168
 31
0.0
  0
LINE
  5
A5
330
2
100
AcDbEntity
  8
image
100
AcDbLine
 10
4.290483849354631
 20
5.919468829042688
 30
0.0
 11
4.297700904193951
 21
5.861732390328153
 31
0.0
  0
LINE
  5
A6
330
2
100
AcDbEntity
  8
image
100
AcDbLine
 10
4.146142752568326
 20
5.919468829042688
 30
0.0
 11
4.138925697729012
 21
5.861732390328153
 31
0.0
  0
LINE
  5
A7
330
2
100
AcDbEntity
  8
image
100
AcDbLine
 10
4.225530355800799
 20
5.968544801950029
 30
0.0
 11
4.276049739676007
 21
5.968544801950029
 31
0.0
  0
LINE
  5
A8
330
2
100
AcDbEntity
  8
image
100
AcDbLine
 10
4.225530355800799
 20
5.919468829042688
 30
0.0
 11
4.319352068711896
 21
5.919468829042688
 31
0.0
  0
LINE
  5
A9
330
2
100
AcDbEntity
  8
image
100
AcDbLine
 10
4.225530355800799
 20
5.861732390328153
 30
0.0
 11
4.225530355800799
 21
6.027640677846758
 31
0.0
  0
LINE
  5
AA
330
2
100
AcDbEntity
  8
image
100
AcDbLine
 10
4.211096246122164
 20
5.861732390328153
 30
0.0
 11
4.211096246122164
 21
6.027640677846758
 31
0.0
  0
LINE
  5
AB
330
2
100
AcDbEntity
  8
image
100
AcDbLine
 10
4.622468371963139
 20
5.832864170970903
 30
0.0
 11
4.622468371963139
 21
5.717391293541857
 31
0.0
  0
LINE
  5
AC
330
2
100
AcDbEntity
  8
image
100
AcDbLine
 10
3.843026449317083
 20
5.688523074184593
 30
0.0
 11
4.593600152605875
 21
5.688523074184593
 31
0.0
  0
LINE
  5
AD
330
2
100
AcDbEntity
  8
image
100
AcDbLine
 10
3.828592339638451
 20
5.861732390328153
 30
0.0
 11
4.593600152605875
 21
5.861732390328153
 31
0.0
  0
LINE
  5
AE
330
2
100
AcDbEntity
  8
image
100
AcDbLine
 10
4.276049739676007
 20
5.968544801950029
 30
0.0
 11
4.319352068711896
 21
5.919468829042688
 31
0.0
  0
LINE
  5
AF
330
2
100
AcDbEntity
  8
image
100
AcDbLine
 10
4.160576862246959
 20
5.968544801950029
 30
0.0
 11
4.117274533211068
 21
5.919468829042688
 31
0.0
  0
LINE
  5
B0
330
2
100
AcDbEntity
  8
image
100
AcDbLine
 10
4.117274533211068
 20
5.919468829042688
 30
0.0
 11
4.211096246122164
 21
5.919468829042688
 31
0.0
  0
LINE
  5
B1
330
2
100
AcDbEntity
  8
image
100
AcDbLine
 10
4.276049739676007
 20
6.193716912936667
 30
0.0
 11
4.276049739676007
 21
5.968544801950029
 31
0.0
  0
LINE
  5
B2
330
2
100
AcDbEntity
  8
image
100
AcDbLine
 10
4.160576862246959
 20
6.193716912936667
 30
0.0
 11
4.160576862246959
 21
5.968544801950029
 31
0.0
  0
LINE
  5
B3
330
2
100
AcDbEntity
  8
image
100
AcDbLine
 10
4.160576862246959
 20
5.968544801950029
 30
0.0
 11
4.211096246122164
 21
5.968544801950029
 31
0.0
  0
LINE
  5
B4
330
2
100
AcDbEntity
  8
image
100
AcDbLine
 10
4.119728026764903
 20
6.193716912936667
 30
0.0
 11
4.316898575158052
 21
6.193716912936667
 31
0.0
  0
LINE
  5
B5
330
2
100
AcDbEntity
  8
image
100
AcDbLine
 10
3.712898606694055
 20
5.267047071568581
 30
0.0
 11
3.712898606694055
 21
5.590371128369909
 31
0.0
  0
LINE
  5
B6
330
2
100
AcDbEntity
  8
image
100
AcDbLine
 10
3.783581467006763
 20
5.736009841272422
 30
0.0
 11
3.783581467006763
 21
5.935949838917806
 31
0.0
  0
ARC
  5
B7
330
2
100
AcDbEntity
  8
image
100
AcDbCircle
 10
3.799724120281192
 20
5.734825991329968
 30
0.0
 40
0.0144341096786307
100
AcDbArc
 50
359.9999999999998
 51
66.30571927358836
  0
LINE
  5
B8
330
2
100
AcDbEntity
  8
image
100
AcDbLine
 10
3.814158229959824
 20
5.734825991329953
 30
0.0
 11
3.814158229959824
 21
5.717391293541857
 31
0.0
  0
LINE
  5
B9
330
2
100
AcDbEntity
  8
image
100
AcDbLine
 10
4.160046718370087
 20
6.534842316586351
 30
0.0
 11
4.275869383105012
 21
6.534842316586351
 31
0.0
  0
LINE
  5
BA
330
2
100
AcDbEntity
  8
image
100
AcDbLine
 10
4.275869383105011
 20
6.477105877871827
 30
0.0
 11
4.275869383105011
 21
6.534842316586351
 31
0.0
  0
LINE
  5
BB
330
2
100
AcDbEntity
  8
image
100
AcDbLine
 10
4.160046718370087
 20
6.477105877871827
 30
0.0
 11
4.160046718370087
 21
6.534842316586351
 31
0.0
  0
LINE
  5
BC
330
2
100
AcDbEntity
  8
image
100
AcDbLine
 10
4.023452820299963
 20
6.477105877871827
 30
0.0
 11
4.187063300961481
 21
6.47710587787183
 31
0.0
  0
LINE
  5
BD
330
2
100
AcDbEntity
  8
image
100
AcDbLine
 10
4.023452820299963
 20
6.368850055282096
 30
0.0
 11
4.187063300961481
 21
6.368850055282099
 31
0.0
  0
LINE
  5
BE
330
2
100
AcDbEntity
  8
image
100
AcDbLine
 10
3.712898606694055
 20
5.277036710711444
 30
0.0
 11
3.639858089772958
 21
5.277036710711442
 31
0.0
  0
LINE
  5
BF
330
2
100
AcDbEntity
  8
image
100
AcDbLine
 10
3.712898606694055
 20
5.580381489227057
 30
0.0
 11
3.639858089772958
 21
5.580381489227057
 31
0.0
  0
LINE
  5
C0
330
2
100
AcDbEntity
  8
image
100
AcDbLine
 10
3.67570225588012
 20
5.307371188563005
 30
0.0
 11
3.675684278043982
 21
5.550047016702809
 31
0.0
  0
LINE
  5
C1
330
2
100
AcDbEntity
  8
image
100
AcDbLine
 10
4.295477357468799
 20
6.534509118610749
 30
0.0
 11
4.987583228763044
 21
6.534509118610749
 31
0.0
  0
LINE
  5
C2
330
2
100
AcDbEntity
  8
image
100
AcDbLine
 10
4.760111213914938
 20
7.17815085942203
 30
0.0
 11
4.760111213914938
 21
7.04024674657325
 31
0.0
  0
SOLID
  5
C3
330
2
100
AcDbEntity
  8
image
100
AcDbTrace
 10
4.734069547248271
 20
7.17815085942203
 30
0.0
 11
4.786152880581605
 21
7.17815085942203
 31
0.0
 12
4.760111213914938
 22
7.33440085942203
 32
0.0
 13
4.760111213914938
 23
7.33440085942203
 33
0.0
  0
SOLID
  5
C4
330
2
100
AcDbEntity
  8
image
100
AcDbTrace
 10
4.734653098477585
 20
6.690759118610748
 30
0.0
 11
4.786736431810918
 21
6.690759118610748
 31
0.0
 12
4.760694765144251
 22
6.534509118610749
 32
0.0
 13
4.760694765144251
 23
6.534509118610749
 33
0.0
  0
POINT
  5
C5
330
2
100
AcDbEntity
  8
image
100
AcDbPoint
 10
4.567697153827415
 20
7.33440085942203
 30
0.0
  0
POINT
  5
C6
330
2
100
AcDbEntity
  8
image
100
AcDbPoint
 10
4.305336818162871
 20
6.534509118610749
 30
0.0
  0
LINE
  5
C7
330
2
100
AcDbEntity
  8
image
100
AcDbLine
 10
4.760694765144251
 20
6.8154745196331
 30
0.0
 11
4.760694765144251
 21
6.690759118610748
 31
0.0
  0
LWPOLYLINE
  5
C8
330
2
100
AcDbEntity
  8
image
100
AcDbPolyline
 90
        2
 70
     0
 43
0.0
 10
4.60314769387439
 20
5.690162194855214
 10
4.60314769387439
 20
5.428709099969246
  0
LWPOLYLINE
  5
C9
330
2
100
AcDbEntity
  8
image
100
AcDbPolyline
 90
        2
 70
     0
 43
0.0
 10
3.92084801216458
 20
5.688523074184593
 10
3.920848012164581
 20
5.428709099969244
  0
LWPOLYLINE
  5
CA
330
2
100
AcDbEntity
  8
image
100
AcDbPolyline
 90
        4
 70
     0
 43
0.0
 10
3.85834801216458
 20
5.688523074184593
 10
3.85834801216458
 20
5.245322401342781
 42
-0.4142135623730951
 10
3.851204463033114
 20
5.238178852211314
 10
3.741766826051313
 20
5.238178852211314
  0
LWPOLYLINE
  5
CB
330
2
100
AcDbEntity
  8
image
100
AcDbPolyline
 90
        2
 70
     0
 43
0.0
 10
4.251901469224109
 20
5.688523074184593
 10
4.25190146922411
 20
5.428709099969244
  0
LWPOLYLINE
  5
CC
330
2
100
AcDbEntity
  8
image
100
AcDbPolyline
 90
        2
 70
     0
 43
0.0
 10
4.189401469224109
 20
5.688523074184593
 10
4.189401469224109
 20
5.428709099969244
  0
LINE
  5
CD
330
2
100
AcDbEntity
  8
image
100
AcDbLine
 10
4.119728026764903
 20
6.193716912936667
 30
0.0
 11
4.119728026764903
 21
6.368850055282096
 31
0.0
  0
LINE
  5
CE
330
2
100
AcDbEntity
  8
image
100
AcDbLine
 10
4.316898575158052
 20
6.193716912936667
 30
0.0
 11
4.316898575158052
 21
6.368850055282096
 31
0.0
  0
LWPOLYLINE
  5
CF
330
2
100
AcDbEntity
  8
image
100
AcDbPolyline
 90
        2
 70
     0
 43
0.0
 10
4.413173781622997
 20
6.477105877871828
 10
4.413173781622997
 20
6.368850055282097
  0
LWPOLYLINE
  5
D0
330
2
100
AcDbEntity
  8
image
100
AcDbPolyline
 90
        2
 70
     0
 43
0.0
 10
4.023452820299963
 20
6.477105877871828
 10
4.023452820299963
 20
6.368850055282097
  0
LWPOLYLINE
  5
D1
330
2
100
AcDbEntity
  8
image
100
AcDbPolyline
 90
        2
 70
     0
 43
0.0
 10
4.18706330096148
 20
6.477105877871828
 10
4.18706330096148
 20
6.368850055282097
  0
LWPOLYLINE
  5
D2
330
2
100
AcDbEntity
  8
image
100
AcDbPolyline
 90
        2
 70
     0
 43
0.0
 10
4.24956330096148
 20
6.477105877871828
 10
4.24956330096148
 20
6.368850055282097
  0
LINE
  5
D3
330
2
100
AcDbEntity
  8
image
100
AcDbLine
 10
4.249563300961481
 20
6.47710587787183
 30
0.0
 11
4.413173781622997
 21
6.477105877871827
 31
0.0
  0
LINE
  5
D4
330
2
100
AcDbEntity
  8
image
100
AcDbLine
 10
4.249563300961481
 20
6.368850055282099
 30
0.0
 11
4.413173781622997
 21
6.368850055282096
 31
0.0
  0
LINE
  5
D5
330
2
100
AcDbEntity
  8
image
100
AcDbLine
 10
4.18706330096148
 20
6.445630928011155
 30
0.0
 11
4.24956330096148
 21
6.445630928011154
 31
0.0
  0
LINE
  5
D6
330
2
100
AcDbEntity
  8
image
100
AcDbLine
 10
4.18706330096148
 20
6.400325005142769
 30
0.0
 11
4.24956330096148
 21
6.400325005142771
 31
0.0
  0
LWPOLYLINE
  5
D7
330
2
100
AcDbEntity
  8
image
100
AcDbPolyline
 90
        2
 70
     0
 43
0.0
 10
4.540647693874389
 20
5.688523074184593
 10
4.540647693874389
 20
5.506385577385281
  0
LINE
  5
D8
330
2
100
AcDbEntity
  8
image
100
AcDbLine
 10
4.540647693874389
 20
5.506385577385281
 30
0.0
 11
4.54064769387439
 21
5.245322401342781
 31
0.0
  0
LINE
  5
D9
330
2
100
AcDbEntity
  8
image
100
AcDbLine
 10
3.623762727962729
 20
6.047006165126435
 30
0.0
 11
4.086497420498687
 21
6.047006165126437
 31
0.0
  0
LINE
  5
DA
330
2
100
AcDbEntity
  8
image
100
AcDbLine
 10
3.623762727962729
 20
5.935949838917806
 30
0.0
 11
4.086497420498687
 21
5.935949838917806
 31
0.0
  0
LINE
  5
DB
330
2
100
AcDbEntity
  8
image
100
AcDbLine
 10
3.789977029521645
 20
6.243020580884667
 30
0.0
 11
4.054661273652213
 21
6.243020580884667
 31
0.0
  0
LINE
  5
DC
330
2
100
AcDbEntity
  8
image
100
AcDbLine
 10
3.80200813152758
 20
6.243020580884667
 30
0.0
 11
3.80200813152758
 21
6.047006165126437
 31
0.0
  0
LINE
  5
DD
330
2
100
AcDbEntity
  8
image
100
AcDbLine
 10
3.789977029521645
 20
6.047006165126437
 30
0.0
 11
3.789977029521645
 21
6.243020580884667
 31
0.0
  0
LINE
  5
DE
330
2
100
AcDbEntity
  8
image
100
AcDbLine
 10
3.758140882675171
 20
5.817859945382632
 30
0.0
 11
3.758140882675171
 21
6.047006165126437
 31
0.0
  0
LINE
  5
DF
330
2
100
AcDbEntity
  8
image
100
AcDbLine
 10
3.721122107272294
 20
5.817859945382632
 30
0.0
 11
3.721122107272294
 21
6.047006165126437
 31
0.0
  0
LINE
  5
E0
330
2
100
AcDbEntity
  8
image
100
AcDbLine
 10
3.721122107272294
 20
5.817859945382632
 30
0.0
 11
3.758140882675171
 21
5.817859945382632
 31
0.0
  0
LINE
  5
E1
330
2
100
AcDbEntity
  8
image
100
AcDbLine
 10
3.660781503365606
 20
6.047006165126437
 30
0.0
 11
3.660781503365606
 21
5.935949838917806
 31
0.0
  0
LINE
  5
E2
330
2
100
AcDbEntity
  8
image
100
AcDbLine
 10
3.623762727962729
 20
6.047006165126437
 30
0.0
 11
3.623762727962729
 21
5.935949838917806
 31
0.0
  0
LINE
  5
E3
330
2
100
AcDbEntity
  8
image
100
AcDbLine
 10
4.042630171646278
 20
6.243020580884667
 30
0.0
 11
4.042630171646278
 21
6.047006165126437
 31
0.0
  0
LINE
  5
E4
330
2
100
AcDbEntity
  8
image
100
AcDbLine
 10
4.000984049318041
 20
6.243020580884667
 30
0.0
 11
4.000984049318041
 21
6.047006165126437
 31
0.0
  0
LINE
  5
E5
330
2
100
AcDbEntity
  8
image
100
AcDbLine
 10
3.945455886213727
 20
6.243020580884667
 30
0.0
 11
3.945455886213727
 21
6.047006165126437
 31
0.0
  0
LINE
  5
E6
330
2
100
AcDbEntity
  8
image
100
AcDbLine
 10
3.899182416960131
 20
6.243020580884667
 30
0.0
 11
3.899182416960131
 21
6.047006165126437
 31
0.0
  0
LINE
  5
E7
330
2
100
AcDbEntity
  8
image
100
AcDbLine
 10
3.843654253855817
 20
6.243020580884667
 30
0.0
 11
3.843654253855817
 21
6.047006165126437
 31
0.0
  0
LINE
  5
E8
330
2
100
AcDbEntity
  8
image
100
AcDbLine
 10
4.054661273652213
 20
6.047006165126437
 30
0.0
 11
4.054661273652213
 21
6.243020580884667
 31
0.0
  0
LINE
  5
E9
330
2
100
AcDbEntity
  8
image
100
AcDbLine
 10
3.916934384156471
 20
6.047006165126437
 30
0.0
 11
3.916934384156471
 21
5.935949838917806
 31
0.0
  0
LINE
  5
EA
330
2
100
AcDbEntity
  8
image
100
AcDbLine
 10
3.927703919017387
 20
6.047006165126437
 30
0.0
 11
3.927703919017387
 21
5.935949838917806
 31
0.0
  0
LINE
  5
EB
330
2
100
AcDbEntity
  8
image
100
AcDbLine
 10
4.086497420498687
 20
6.047006165126437
 30
0.0
 11
4.086497420498687
 21
5.935949838917806
 31
0.0
  0
LINE
  5
EC
330
2
100
AcDbEntity
  8
image
100
AcDbLine
 10
4.30288356660434
 20
5.258308718087626
 30
0.0
 11
4.30288356660434
 21
5.228562408172228
 31
0.0
  0
LINE
  5
ED
330
2
100
AcDbEntity
  8
image
100
AcDbLine
 10
4.133032534870759
 20
5.258308718087626
 30
0.0
 11
4.133032534870759
 21
5.228562408172228
 31
0.0
  0
LINE
  5
EE
330
2
100
AcDbEntity
  8
image
100
AcDbLine
 10
4.056282400788955
 20
5.270865041354658
 30
0.0
 11
4.120476211603727
 21
5.270865041354658
 31
0.0
  0
LINE
  5
EF
330
2
100
AcDbEntity
  8
image
100
AcDbLine
 10
4.547791243005857
 20
5.238178852211314
 30
0.0
 11
4.657228879987656
 21
5.238178852211314
 31
0.0
  0
LINE
  5
F0
330
2
100
AcDbEntity
  8
image
100
AcDbLine
 10
4.657228879987656
 20
5.619239347727168
 30
0.0
 11
4.60314769387439
 21
5.619239347727168
 31
0.0
  0
LINE
  5
F1
330
2
100
AcDbEntity
  8
image
100
AcDbLine
 10
4.686097099344915
 20
5.267047071568581
 30
0.0
 11
4.686097099344915
 21
5.590371128369909
 31
0.0
  0
ARC
  5
F2
330
2
100
AcDbEntity
  8
image
100
AcDbCircle
 10
4.657228879987656
 20
5.267047071568581
 30
0.0
 40
0.0288682193572614
100
AcDbArc
 50
270.0
 51
0.0000000000000579
  0
ARC
  5
F3
330
2
100
AcDbEntity
  8
image
100
AcDbCircle
 10
4.657228879987656
 20
5.590371128369909
 30
0.0
 40
0.0288682193572614
100
AcDbArc
 50
0.000000000000007
 51
90.00000000000026
  0
LINE
  5
F4
330
2
100
AcDbEntity
  8
image
100
AcDbLine
 10
3.85834801216458
 20
5.428709099969244
 30
0.0
 11
3.920848012164581
 21
5.428709099969244
 31
0.0
  0
LINE
  5
F5
330
2
100
AcDbEntity
  8
image
100
AcDbLine
 10
4.540647693874388
 20
5.428709099969244
 30
0.0
 11
4.60314769387439
 21
5.428709099969244
 31
0.0
  0
LINE
  5
F6
330
2
100
AcDbEntity
  8
image
100
AcDbLine
 10
4.189401469224109
 20
5.428709099969244
 30
0.0
 11
4.25190146922411
 21
5.428709099969244
 31
0.0
  0
ARC
  5
F7
330
2
100
AcDbEntity
  8
image
100
AcDbCircle
 10
3.957315206476767
 20
6.006276818379709
 30
0.0
 40
0.7420410954503605
100
AcDbArc
 50
262.3355331415188
 51
277.6644668584811
  0
ARC
  5
F8
330
2
100
AcDbEntity
  8
image
100
AcDbCircle
 10
3.801831167492093
 20
6.873773572757789
 30
0.0
 40
1.622979109591753
100
AcDbArc
 50
279.0200653521827
 51
297.0792479580132
  0
ARC
  5
F9
330
2
100
AcDbEntity
  8
image
100
AcDbCircle
 10
4.21795805073755
 20
5.228322358296976
 30
0.0
 40
0.0949853837544853
100
AcDbArc
 50
23.16768142207857
 51
66.64339045708148
  0
ARC
  5
FA
330
2
100
AcDbEntity
  8
image
100
AcDbCircle
 10
4.21795805073755
 20
5.228322358296976
 30
0.0
 40
0.0949853837544853
100
AcDbArc
 50
141.7411440853695
 51
156.8323185779214
  0
LINE
  5
FB
330
2
100
AcDbEntity
  8
image
100
AcDbLine
 10
4.133032534870759
 20
5.228562408172228
 30
0.0
 11
4.30288356660434
 21
5.228562408172228
 31
0.0
  0
LINE
  5
FC
330
2
100
AcDbEntity
  8
image
100
AcDbLine
 10
4.315439889871372
 20
5.270865041354658
 30
0.0
 11
4.54064769387439
 21
5.270865041354658
 31
0.0
  0
ARC
  5
FD
330
2
100
AcDbEntity
  8
image
100
AcDbCircle
 10
4.120476211603726
 20
5.258308718087626
 30
0.0
 40
0.0125563232670323
100
AcDbArc
 50
0.0
 51
90.0
  0
ARC
  5
FE
330
2
100
AcDbEntity
  8
image
100
AcDbCircle
 10
4.315439889871372
 20
5.258308718087626
 30
0.0
 40
0.0125563232670323
100
AcDbArc
 50
89.99999999999987
 51
180.0
  0
LINE
  5
FF
330
2
100
AcDbEntity
  8
image
100
AcDbLine
 10
4.686097099344915
 20
5.590371128369909
 30
0.0
 11
4.686097099344915
 21
5.267047071568581
 31
0.0
  0
ARC
  5
100
330
2
100
AcDbEntity
  8
image
100
AcDbCircle
 10
4.547791243005857
 20
5.245322401342781
 30
0.0
 40
0.0071435491314664
100
AcDbArc
 50
180.0000000000001
 51
270.0
  0
LINE
  5
101
330
2
100
AcDbEntity
  8
image
100
AcDbLine
 10
5.035167656915924
 20
5.277036710711437
 30
0.0
 11
5.766581166206874
 21
5.277036710711437
 31
0.0
  0
LWPOLYLINE
  5
102
330
2
100
AcDbEntity
  8
image
100
AcDbPolyline
 90
        4
 70
     0
 43
0.0
 10
5.766581166206874
 20
5.580381489227057
 42
-0.6579550248282814
 10
5.766581166206874
 20
5.428709099969248
 42
0.6579550248282905
 10
5.766581166206874
 20
5.277036710711437
 42
0.7034136138651875
 10
5.766581166206874
 20
5.428709099969248
 42
0.7034136138651875
  0
LINE
  5
103
330
2
100
AcDbEntity
  8
image
100
AcDbLine
 10
5.035167656915925
 20
5.580381489227057
 30
0.0
 11
5.766581166206879
 21
5.580381489227055
 31
0.0
  0
LINE
  5
104
330
2
100
AcDbEntity
  8
image
100
AcDbLine
 10
4.732635714420325
 20
5.626930277070143
 30
0.0
 11
5.035167656915924
 21
5.626930277070143
 31
0.0
  0
LINE
  5
105
330
2
100
AcDbEntity
  8
image
100
AcDbLine
 10
5.035167656915924
 20
5.626930277070143
 30
0.0
 11
5.035167656915924
 21
5.23048792286835
 31
0.0
  0
LINE
  5
106
330
2
100
AcDbEntity
  8
image
100
AcDbLine
 10
4.732635714420325
 20
5.23048792286835
 30
0.0
 11
4.732635714420325
 21
5.626930277070143
 31
0.0
  0
LINE
  5
107
330
2
100
AcDbEntity
  8
image
100
AcDbLine
 10
5.035167656915924
 20
5.23048792286835
 30
0.0
 11
4.732635714420325
 21
5.23048792286835
 31
0.0
  0
LINE
  5
108
330
2
100
AcDbEntity
  8
image
100
AcDbLine
 10
4.732635714420325
 20
5.580381489227057
 30
0.0
 11
4.686097099344916
 21
5.580381489227057
 31
0.0
  0
LINE
  5
109
330
2
100
AcDbEntity
  8
image
100
AcDbLine
 10
4.732635714420325
 20
5.277036710711438
 30
0.0
 11
4.686097099344916
 21
5.277036710711437
 31
0.0
  0
LWPOLYLINE
  5
10A
330
2
100
AcDbEntity
  8
image
100
AcDbPolyline
 90
        2
 70
     0
 43
0.0
 10
2.719679896179318
 20
6.691785649748354
 10
2.719679896179318
 20
6.998381529142983
  0
LWPOLYLINE
  5
10B
330
2
100
AcDbEntity
  8
image
100
AcDbPolyline
 90
        4
 70
     1
 43
0.0
 10
2.726913166575926
 20
6.691785649748354
 10
2.146632829868576
 20
6.691785649748354
 10
2.146632829868576
 20
6.998381529142983
 10
2.726913166575926
 20
6.998381529142983
  0
LWPOLYLINE
  5
10C
330
2
100
AcDbEntity
  8
image
100
AcDbPolyline
 90
        2
 70
     0
 43
0.0
 10
2.760806371888194
 20
6.8285419284161
 10
2.726673478029348
 20
6.8285419284161
  0
LWPOLYLINE
  5
10D
330
2
100
AcDbEntity
  8
image
100
AcDbPolyline
 90
        2
 70
     0
 43
0.0
 10
2.760806371888191
 20
6.84136519200579
 10
2.726673478029348
 20
6.84136519200579
  0
LWPOLYLINE
  5
10E
330
2
100
AcDbEntity
  8
image
100
AcDbPolyline
 90
        2
 70
     0
 43
0.0
 10
2.760806371888191
 20
6.861855324855175
 10
2.726673478029348
 20
6.861855324855175
  0
LWPOLYLINE
  5
10F
330
2
100
AcDbEntity
  8
image
100
AcDbPolyline
 90
        2
 70
     0
 43
0.0
 10
2.760806371888194
 20
6.849032061265487
 10
2.726673478029348
 20
6.849032061265487
  0
LWPOLYLINE
  5
110
330
2
100
AcDbEntity
  8
image
100
AcDbPolyline
 90
       16
 70
     1
 43
0.0
 10
5.462123745041697
 20
4.984559094338115
 42
0.1615511064879552
 10
5.448320611536275
 20
4.966193080481739
 42
0.1061532262602322
 10
5.444447036864042
 20
4.931952386288217
 42
0.0703450477663066
 10
5.453210817565049
 20
4.896035329939991
 42
0.0566056099584688
 10
5.474912110797273
 20
4.855629615379076
 42
0.0566056099584683
 10
5.505121955202753
 20
4.821119715377407
 42
0.0703450477663069
 10
5.535672939710004
 20
4.800299625691324
 42
0.1061532262602343
 10
5.569092782983434
 20
4.791900590319692
 42
0.1615511064879549
 10
5.591136654086184
 20
4.798373974778103
 42
0.1615511064879543
 10
5.604939787591609
 20
4.816739988634461
 42
0.106153226260232
 10
5.608813362263838
 20
4.850980682827961
 42
0.0703450477663075
 10
5.600049581562841
 20
4.88689773917622
 42
0.0566056099584687
 10
5.578348288330606
 20
4.927303453737118
 42
0.05660560995847
 10
5.548138443925124
 20
4.961813353738786
 42
0.0703450477663058
 10
5.51758745941788
 20
4.98263344342487
 42
0.1061532262602316
 10
5.484167616144445
 20
4.991032478796485
 42
0.1615511064879538
  0
LWPOLYLINE
  5
111
330
2
100
AcDbEntity
  8
image
100
AcDbPolyline
 90
       16
 70
     1
 43
0.0
 10
5.404757900057691
 20
4.783014655276086
 42
0.0708989349029243
 10
5.384312461726845
 20
4.764061977164561
 42
0.0824870853856804
 10
5.372445412534285
 20
4.743195966792167
 42
0.1068139206260733
 10
5.369253626727128
 20
4.72049476439726
 42
0.1340008839894652
 10
5.375379244897624
 20
4.703153148327514
 42
0.1340008839894659
 10
5.389464754103887
 20
4.691327190595424
 42
0.106813920626075
 10
5.411840797938989
 20
4.686342739863098
 42
0.0824870853856831
 10
5.435545404604749
 20
4.69012544633081
 42
0.0708989349029243
 10
5.460471388391939
 20
4.70261205068831
 42
0.0708989349029259
 10
5.480916826722785
 20
4.721564728799853
 42
0.0824870853856834
 10
5.492783875915339
 20
4.742430739172233
 42
0.1068139206260768
 10
5.495975661722499
 20
4.765131941567141
 42
0.1340008839894672
 10
5.489850043552003
 20
4.782473557636885
 42
0.1340008839894638
 10
5.475764534345737
 20
4.794299515368992
 42
0.1068139206260751
 10
5.453388490510638
 20
4.799283966101318
 42
0.082487085385683
 10
5.42968388384488
 20
4.795501259633589
 42
0.0708989349029251
  0
LWPOLYLINE
  5
112
330
2
100
AcDbEntity
  8
image
100
AcDbPolyline
 90
       16
 70
     1
 43
0.0
 10
5.272438365263857
 20
4.813165631996495
 42
0.0708989349029243
 10
5.251992926933011
 20
4.794212953884969
 42
0.0824870853856804
 10
5.240125877740451
 20
4.773346943512574
 42
0.1068139206260733
 10
5.236934091933297
 20
4.750645741117671
 42
0.1340008839894652
 10
5.24305971010379
 20
4.733304125047927
 42
0.1340008839894659
 10
5.257145219310054
 20
4.721478167315838
 42
0.106813920626075
 10
5.279521263145151
 20
4.716493716583512
 42
0.0824870853856831
 10
5.303225869810913
 20
4.720276423051223
 42
0.0708989349029243
 10
5.328151853598104
 20
4.732763027408719
 42
0.0708989349029259
 10
5.348597291928948
 20
4.75171570552026
 42
0.0824870853856834
 10
5.360464341121508
 20
4.772581715892647
 42
0.1068139206260768
 10
5.363656126928665
 20
4.795282918287564
 42
0.1340008839894672
 10
5.357530508758165
 20
4.812624534357296
 42
0.1340008839894638
 10
5.343444999551902
 20
4.824450492089403
 42
0.1068139206260751
 10
5.321068955716798
 20
4.829434942821746
 42
0.082487085385683
 10
5.297364349051045
 20
4.825652236353998
 42
0.0708989349029251
  0
LWPOLYLINE
  5
113
330
2
100
AcDbEntity
  8
image
100
AcDbPolyline
 90
       16
 70
     1
 43
0.0
 10
5.311831006782082
 20
5.071587128721617
 42
0.1096021439183502
 10
5.277964576219721
 20
5.065812821860011
 42
0.1024204874116924
 10
5.247489129696187
 20
5.045348599474057
 42
0.0936695383243779
 10
5.226777059990782
 20
5.014316149713444
 42
0.0882994724157594
 10
5.217932386801258
 20
4.975777815502053
 42
0.088299472415759
 10
5.222928260322158
 20
4.936554446251301
 42
0.0936695383243767
 10
5.240474717225561
 20
4.903628398511523
 42
0.1024204874116938
 10
5.268780420482974
 20
4.880254815094041
 42
0.1096021439183517
 10
5.301911129534046
 20
4.871164498458158
 42
0.109602143918351
 10
5.335777560096397
 20
4.876938805319786
 42
0.1024204874116929
 10
5.366253006619939
 20
4.897403027705736
 42
0.0936695383243769
 10
5.38696507632534
 20
4.928435477466331
 42
0.0882994724157586
 10
5.395809749514866
 20
4.966973811677726
 42
0.0882994724157589
 10
5.390813875993964
 20
5.006197180928499
 42
0.0936695383243761
 10
5.373267419090556
 20
5.039123228668269
 42
0.102420487411692
 10
5.344961715833147
 20
5.062496812085754
 42
0.1096021439183503
  0
LINE
  5
114
330
2
100
AcDbEntity
  8
image
100
AcDbLine
 10
2.939986104926005
 20
6.60139176707793
 30
0.0
 11
3.30096262817391
 21
6.60139176707793
 31
0.0
  0
LINE
  5
115
330
2
100
AcDbEntity
  8
image
100
AcDbLine
 10
2.939986104926005
 20
6.612594486764935
 30
0.0
 11
3.30096262817391
 21
6.612594486764935
 31
0.0
  0
LINE
  5
116
330
2
100
AcDbEntity
  8
image
100
AcDbLine
 10
2.939986104926005
 20
6.590189047390927
 30
0.0
 11
2.980066946472843
 21
6.590189047390927
 31
0.0
  0
LINE
  5
117
330
2
100
AcDbEntity
  8
image
100
AcDbLine
 10
2.939986104926005
 20
6.590189047390927
 30
0.0
 11
2.939986104926005
 21
6.612594486764935
 31
0.0
  0
LINE
  5
118
330
2
100
AcDbEntity
  8
image
100
AcDbLine
 10
2.98230749041024
 20
6.649936885721619
 30
0.0
 11
2.98230749041024
 21
6.612594486764935
 31
0.0
  0
LINE
  5
119
330
2
100
AcDbEntity
  8
image
100
AcDbLine
 10
3.054502795059823
 20
6.649936885721619
 30
0.0
 11
3.054502795059823
 21
6.612594486764935
 31
0.0
  0
LINE
  5
11A
330
2
100
AcDbEntity
  8
image
100
AcDbLine
 10
3.064460768114936
 20
6.649936885721619
 30
0.0
 11
3.064460768114936
 21
6.612594486764935
 31
0.0
  0
LINE
  5
11B
330
2
100
AcDbEntity
  8
image
100
AcDbLine
 10
2.98230749041024
 20
6.649936885721619
 30
0.0
 11
3.064460768114936
 21
6.649936885721619
 31
0.0
  0
LINE
  5
11C
330
2
100
AcDbEntity
  8
image
100
AcDbLine
 10
3.047407739258052
 20
6.527951715796463
 30
0.0
 11
2.980066946472843
 21
6.590189047390927
 31
0.0
  0
LINE
  5
11D
330
2
100
AcDbEntity
  8
image
100
AcDbLine
 10
2.980066946472843
 20
6.590189047390927
 30
0.0
 11
2.980066946472843
 21
6.60139176707793
 31
0.0
  0
LINE
  5
11E
330
2
100
AcDbEntity
  8
image
100
AcDbLine
 10
3.047407739258052
 20
6.527951715796463
 30
0.0
 11
3.193540993841858
 21
6.527951715796463
 31
0.0
  0
LINE
  5
11F
330
2
100
AcDbEntity
  8
image
100
AcDbLine
 10
3.176487964984978
 20
6.649936885721619
 30
0.0
 11
3.26859921574479
 21
6.649936885721619
 31
0.0
  0
LINE
  5
120
330
2
100
AcDbEntity
  8
image
100
AcDbLine
 10
3.260881786627071
 20
6.590189047390927
 30
0.0
 11
3.30096262817391
 21
6.590189047390927
 31
0.0
  0
LINE
  5
121
330
2
100
AcDbEntity
  8
image
100
AcDbLine
 10
3.186445938040093
 20
6.649936885721619
 30
0.0
 11
3.186445938040093
 21
6.612594486764935
 31
0.0
  0
LINE
  5
122
330
2
100
AcDbEntity
  8
image
100
AcDbLine
 10
3.176487964984978
 20
6.649936885721619
 30
0.0
 11
3.176487964984978
 21
6.612594486764935
 31
0.0
  0
LINE
  5
123
330
2
100
AcDbEntity
  8
image
100
AcDbLine
 10
3.260881786627071
 20
6.590189047390927
 30
0.0
 11
3.260881786627071
 21
6.60139176707793
 31
0.0
  0
LINE
  5
124
330
2
100
AcDbEntity
  8
image
100
AcDbLine
 10
3.26859921574479
 20
6.649936885721619
 30
0.0
 11
3.26859921574479
 21
6.612594486764935
 31
0.0
  0
LINE
  5
125
330
2
100
AcDbEntity
  8
image
100
AcDbLine
 10
3.30096262817391
 20
6.612594486764935
 30
0.0
 11
3.30096262817391
 21
6.590189047390927
 31
0.0
  0
LINE
  5
126
330
2
100
AcDbEntity
  8
image
100
AcDbLine
 10
3.193540993841858
 20
6.527951715796463
 30
0.0
 11
3.260881786627071
 21
6.590189047390927
 31
0.0
  0
LINE
  5
127
330
2
100
AcDbEntity
  8
image
100
AcDbLine
 10
3.193540993841858
 20
6.527951715796462
 30
0.0
 11
3.193540993841858
 21
6.515939760594471
 31
0.0
  0
LINE
  5
128
330
2
100
AcDbEntity
  8
image
100
AcDbLine
 10
3.047407739258052
 20
6.527951715796463
 30
0.0
 11
3.047407739258052
 21
6.517444620550914
 31
0.0
  0
ARC
  5
129
330
2
100
AcDbEntity
  8
image
100
AcDbCircle
 10
3.120474366549956
 20
6.08818273074996
 30
0.0
 40
0.0730666272919031
100
AcDbArc
 50
180.0
 51
0.0
  0
LINE
  5
12A
330
2
100
AcDbEntity
  8
image
100
AcDbLine
 10
3.402229367369067
 20
6.435826637909172
 30
0.0
 11
3.402229367369067
 21
5.996057652862657
 31
0.0
  0
LINE
  5
12B
330
2
100
AcDbEntity
  8
image
100
AcDbLine
 10
3.548362621952871
 20
6.43582663790917
 30
0.0
 11
3.548362621952871
 21
5.996057652862669
 31
0.0
  0
ARC
  5
12C
330
2
100
AcDbEntity
  8
image
100
AcDbCircle
 10
3.475295994660971
 20
5.996057652862669
 30
0.0
 40
0.0730666272919031
100
AcDbArc
 50
180.0
 51
0.0
  0
LINE
  5
12D
330
2
100
AcDbEntity
  8
image
100
AcDbLine
 10
3.294807733037019
 20
6.509266689190638
 30
0.0
 11
3.655784256284925
 21
6.509266689190638
 31
0.0
  0
LINE
  5
12E
330
2
100
AcDbEntity
  8
image
100
AcDbLine
 10
3.294807733037019
 20
6.520469408877644
 30
0.0
 11
3.655784256284925
 21
6.520469408877644
 31
0.0
  0
LINE
  5
12F
330
2
100
AcDbEntity
  8
image
100
AcDbLine
 10
3.337129118521253
 20
6.557811807834327
 30
0.0
 11
3.419282396225951
 21
6.557811807834327
 31
0.0
  0
LINE
  5
130
330
2
100
AcDbEntity
  8
image
100
AcDbLine
 10
3.402229367369067
 20
6.435826637909172
 30
0.0
 11
3.334888574583858
 21
6.498063969503633
 31
0.0
  0
LINE
  5
131
330
2
100
AcDbEntity
  8
image
100
AcDbLine
 10
3.294807733037019
 20
6.498063969503633
 30
0.0
 11
3.334888574583858
 21
6.498063969503633
 31
0.0
  0
LINE
  5
132
330
2
100
AcDbEntity
  8
image
100
AcDbLine
 10
3.294807733037019
 20
6.498063969503633
 30
0.0
 11
3.294807733037019
 21
6.520469408877644
 31
0.0
  0
LINE
  5
133
330
2
100
AcDbEntity
  8
image
100
AcDbLine
 10
3.337129118521253
 20
6.557811807834327
 30
0.0
 11
3.337129118521253
 21
6.520469408877644
 31
0.0
  0
LINE
  5
134
330
2
100
AcDbEntity
  8
image
100
AcDbLine
 10
3.334888574583858
 20
6.498063969503633
 30
0.0
 11
3.334888574583858
 21
6.509266689190638
 31
0.0
  0
LINE
  5
135
330
2
100
AcDbEntity
  8
image
100
AcDbLine
 10
3.615703414738085
 20
6.498063969503633
 30
0.0
 11
3.655784256284925
 21
6.498063969503633
 31
0.0
  0
LINE
  5
136
330
2
100
AcDbEntity
  8
image
100
AcDbLine
 10
3.409324423170837
 20
6.557811807834327
 30
0.0
 11
3.409324423170837
 21
6.520469408877644
 31
0.0
  0
LINE
  5
137
330
2
100
AcDbEntity
  8
image
100
AcDbLine
 10
3.419282396225951
 20
6.557811807834327
 30
0.0
 11
3.419282396225951
 21
6.520469408877644
 31
0.0
  0
LINE
  5
138
330
2
100
AcDbEntity
  8
image
100
AcDbLine
 10
3.402229367369067
 20
6.435826637909172
 30
0.0
 11
3.548362621952871
 21
6.435826637909172
 31
0.0
  0
LINE
  5
139
330
2
100
AcDbEntity
  8
image
100
AcDbLine
 10
3.531309593095992
 20
6.557811807834327
 30
0.0
 11
3.623420843855804
 21
6.557811807834327
 31
0.0
  0
LINE
  5
13A
330
2
100
AcDbEntity
  8
image
100
AcDbLine
 10
3.541267566151107
 20
6.557811807834327
 30
0.0
 11
3.541267566151107
 21
6.520469408877644
 31
0.0
  0
LINE
  5
13B
330
2
100
AcDbEntity
  8
image
100
AcDbLine
 10
3.531309593095992
 20
6.557811807834327
 30
0.0
 11
3.531309593095992
 21
6.520469408877644
 31
0.0
  0
LINE
  5
13C
330
2
100
AcDbEntity
  8
image
100
AcDbLine
 10
3.615703414738085
 20
6.498063969503633
 30
0.0
 11
3.615703414738085
 21
6.509266689190638
 31
0.0
  0
LINE
  5
13D
330
2
100
AcDbEntity
  8
image
100
AcDbLine
 10
3.623420843855804
 20
6.557811807834327
 30
0.0
 11
3.623420843855804
 21
6.520469408877644
 31
0.0
  0
LINE
  5
13E
330
2
100
AcDbEntity
  8
image
100
AcDbLine
 10
3.548362621952871
 20
6.435826637909172
 30
0.0
 11
3.615703414738085
 21
6.498063969503633
 31
0.0
  0
LINE
  5
13F
330
2
100
AcDbEntity
  8
image
100
AcDbLine
 10
3.655784256284925
 20
6.520469408877644
 30
0.0
 11
3.655784256284925
 21
6.498063969503633
 31
0.0
  0
LINE
  5
140
330
2
100
AcDbEntity
  8
image
100
AcDbLine
 10
1.917634189673615
 20
6.202871287630565
 30
0.0
 11
1.917634189673615
 21
5.763102302584051
 31
0.0
  0
LINE
  5
141
330
2
100
AcDbEntity
  8
image
100
AcDbLine
 10
2.06376744425742
 20
6.202871287630564
 30
0.0
 11
2.06376744425742
 21
5.763102302584062
 31
0.0
  0
ARC
  5
142
330
2
100
AcDbEntity
  8
image
100
AcDbCircle
 10
1.990700816965519
 20
5.763102302584062
 30
0.0
 40
0.0730666272919031
100
AcDbArc
 50
180.0
 51
0.0
  0
LINE
  5
143
330
2
100
AcDbEntity
  8
image
100
AcDbLine
 10
1.810212555341568
 20
6.276311338912031
 30
0.0
 11
2.171189078589473
 21
6.276311338912031
 31
0.0
  0
LINE
  5
144
330
2
100
AcDbEntity
  8
image
100
AcDbLine
 10
1.810212555341568
 20
6.287514058599037
 30
0.0
 11
2.171189078589473
 21
6.287514058599037
 31
0.0
  0
LINE
  5
145
330
2
100
AcDbEntity
  8
image
100
AcDbLine
 10
1.852533940825802
 20
6.324856457555721
 30
0.0
 11
1.934687218530499
 21
6.324856457555721
 31
0.0
  0
LINE
  5
146
330
2
100
AcDbEntity
  8
image
100
AcDbLine
 10
1.917634189673615
 20
6.202871287630565
 30
0.0
 11
1.850293396888407
 21
6.265108619225029
 31
0.0
  0
LINE
  5
147
330
2
100
AcDbEntity
  8
image
100
AcDbLine
 10
1.810212555341568
 20
6.265108619225029
 30
0.0
 11
1.850293396888407
 21
6.265108619225029
 31
0.0
  0
LINE
  5
148
330
2
100
AcDbEntity
  8
image
100
AcDbLine
 10
1.810212555341568
 20
6.265108619225029
 30
0.0
 11
1.810212555341568
 21
6.287514058599037
 31
0.0
  0
LINE
  5
149
330
2
100
AcDbEntity
  8
image
100
AcDbLine
 10
1.852533940825802
 20
6.324856457555721
 30
0.0
 11
1.852533940825802
 21
6.287514058599037
 31
0.0
  0
LINE
  5
14A
330
2
100
AcDbEntity
  8
image
100
AcDbLine
 10
1.850293396888407
 20
6.265108619225029
 30
0.0
 11
1.850293396888407
 21
6.276311338912031
 31
0.0
  0
LINE
  5
14B
330
2
100
AcDbEntity
  8
image
100
AcDbLine
 10
2.131108237042633
 20
6.265108619225029
 30
0.0
 11
2.171189078589473
 21
6.265108619225029
 31
0.0
  0
LINE
  5
14C
330
2
100
AcDbEntity
  8
image
100
AcDbLine
 10
2.165034183452582
 20
6.172983541337736
 30
0.0
 11
2.165034183452582
 21
6.195388980711744
 31
0.0
  0
LINE
  5
14D
330
2
100
AcDbEntity
  8
image
100
AcDbLine
 10
1.924729245475385
 20
6.324856457555721
 30
0.0
 11
1.924729245475385
 21
6.287514058599037
 31
0.0
  0
LINE
  5
14E
330
2
100
AcDbEntity
  8
image
100
AcDbLine
 10
1.934687218530499
 20
6.324856457555721
 30
0.0
 11
1.934687218530499
 21
6.287514058599037
 31
0.0
  0
LINE
  5
14F
330
2
100
AcDbEntity
  8
image
100
AcDbLine
 10
1.917634189673615
 20
6.202871287630565
 30
0.0
 11
2.06376744425742
 21
6.202871287630565
 31
0.0
  0
LINE
  5
150
330
2
100
AcDbEntity
  8
image
100
AcDbLine
 10
2.046714415400541
 20
6.324856457555721
 30
0.0
 11
2.138825666160353
 21
6.324856457555721
 31
0.0
  0
LINE
  5
151
330
2
100
AcDbEntity
  8
image
100
AcDbLine
 10
2.056672388455655
 20
6.324856457555721
 30
0.0
 11
2.056672388455655
 21
6.287514058599037
 31
0.0
  0
LINE
  5
152
330
2
100
AcDbEntity
  8
image
100
AcDbLine
 10
2.046714415400541
 20
6.324856457555721
 30
0.0
 11
2.046714415400541
 21
6.287514058599037
 31
0.0
  0
LINE
  5
153
330
2
100
AcDbEntity
  8
image
100
AcDbLine
 10
2.131108237042633
 20
6.265108619225029
 30
0.0
 11
2.131108237042633
 21
6.276311338912031
 31
0.0
  0
LINE
  5
154
330
2
100
AcDbEntity
  8
image
100
AcDbLine
 10
2.138825666160353
 20
6.324856457555721
 30
0.0
 11
2.138825666160353
 21
6.287514058599037
 31
0.0
  0
LINE
  5
155
330
2
100
AcDbEntity
  8
image
100
AcDbLine
 10
2.06376744425742
 20
6.202871287630565
 30
0.0
 11
2.131108237042633
 21
6.265108619225029
 31
0.0
  0
LINE
  5
156
330
2
100
AcDbEntity
  8
image
100
AcDbLine
 10
2.171189078589473
 20
6.287514058599037
 30
0.0
 11
2.171189078589473
 21
6.265108619225029
 31
0.0
  0
LINE
  5
157
330
2
100
AcDbEntity
  8
image
100
AcDbLine
 10
2.401536043511555
 20
6.232731379668428
 30
0.0
 11
2.493647294271367
 21
6.232731379668428
 31
0.0
  0
LINE
  5
158
330
2
100
AcDbEntity
  8
image
100
AcDbLine
 10
2.401536043511555
 20
6.232731379668428
 30
0.0
 11
2.401536043511555
 21
6.195388980711744
 31
0.0
  0
LINE
  5
159
330
2
100
AcDbEntity
  8
image
100
AcDbLine
 10
2.41149401656667
 20
6.232731379668428
 30
0.0
 11
2.41149401656667
 21
6.195388980711744
 31
0.0
  0
LINE
  5
15A
330
2
100
AcDbEntity
  8
image
100
AcDbLine
 10
2.27245581778463
 20
6.110746209743274
 30
0.0
 11
2.418589072368435
 21
6.110746209743274
 31
0.0
  0
LINE
  5
15B
330
2
100
AcDbEntity
  8
image
100
AcDbLine
 10
2.289508846641513
 20
6.232731379668428
 30
0.0
 11
2.289508846641513
 21
6.195388980711744
 31
0.0
  0
LINE
  5
15C
330
2
100
AcDbEntity
  8
image
100
AcDbLine
 10
2.2795508735864
 20
6.232731379668428
 30
0.0
 11
2.2795508735864
 21
6.195388980711744
 31
0.0
  0
LINE
  5
15D
330
2
100
AcDbEntity
  8
image
100
AcDbLine
 10
2.20511502499942
 20
6.172983541337736
 30
0.0
 11
2.20511502499942
 21
6.18418626102474
 31
0.0
  0
LINE
  5
15E
330
2
100
AcDbEntity
  8
image
100
AcDbLine
 10
2.207355568936816
 20
6.232731379668428
 30
0.0
 11
2.207355568936816
 21
6.195388980711744
 31
0.0
  0
LINE
  5
15F
330
2
100
AcDbEntity
  8
image
100
AcDbLine
 10
2.27245581778463
 20
6.110746209743274
 30
0.0
 11
2.20511502499942
 21
6.172983541337736
 31
0.0
  0
LINE
  5
160
330
2
100
AcDbEntity
  8
image
100
AcDbLine
 10
2.207355568936816
 20
6.232731379668428
 30
0.0
 11
2.289508846641513
 21
6.232731379668428
 31
0.0
  0
LINE
  5
161
330
2
100
AcDbEntity
  8
image
100
AcDbLine
 10
2.418589072368435
 20
6.110746209743273
 30
0.0
 11
2.418589072368435
 21
5.67097722469677
 31
0.0
  0
LINE
  5
162
330
2
100
AcDbEntity
  8
image
100
AcDbLine
 10
2.27245581778463
 20
6.110746209743274
 30
0.0
 11
2.27245581778463
 21
5.670977224696757
 31
0.0
  0
LINE
  5
163
330
2
100
AcDbEntity
  8
image
100
AcDbLine
 10
2.418589072368435
 20
6.110746209743274
 30
0.0
 11
2.485929865153647
 21
6.172983541337736
 31
0.0
  0
LINE
  5
164
330
2
100
AcDbEntity
  8
image
100
AcDbLine
 10
2.165034183452582
 20
6.195388980711744
 30
0.0
 11
2.526010706700487
 21
6.195388980711744
 31
0.0
  0
LINE
  5
165
330
2
100
AcDbEntity
  8
image
100
AcDbLine
 10
2.165034183452582
 20
6.18418626102474
 30
0.0
 11
2.526010706700487
 21
6.18418626102474
 31
0.0
  0
LINE
  5
166
330
2
100
AcDbEntity
  8
image
100
AcDbLine
 10
2.165034183452582
 20
6.172983541337736
 30
0.0
 11
2.20511502499942
 21
6.172983541337736
 31
0.0
  0
LINE
  5
167
330
2
100
AcDbEntity
  8
image
100
AcDbLine
 10
2.493647294271367
 20
6.232731379668428
 30
0.0
 11
2.493647294271367
 21
6.195388980711744
 31
0.0
  0
LINE
  5
168
330
2
100
AcDbEntity
  8
image
100
AcDbLine
 10
2.485929865153647
 20
6.172983541337736
 30
0.0
 11
2.485929865153647
 21
6.18418626102474
 31
0.0
  0
LINE
  5
169
330
2
100
AcDbEntity
  8
image
100
AcDbLine
 10
2.485929865153647
 20
6.172983541337736
 30
0.0
 11
2.526010706700487
 21
6.172983541337736
 31
0.0
  0
ARC
  5
16A
330
2
100
AcDbEntity
  8
image
100
AcDbCircle
 10
2.345522445076532
 20
5.67097722469677
 30
0.0
 40
0.0730666272919031
100
AcDbArc
 50
180.0
 51
0.0
  0
LINE
  5
16B
330
2
100
AcDbEntity
  8
image
100
AcDbLine
 10
2.526010706700487
 20
6.195388980711744
 30
0.0
 11
2.526010706700487
 21
6.172983541337736
 31
0.0
  0
POLYLINE
  5
16C
330
2
100
AcDbEntity
  8
image
100
AcDb2dPolyline
 66
     1
 10
0.0
 20
0.0
 30
0.0
 70
     4
 75
     6
  0
VERTEX
  5
16D
330
16C
100
AcDbEntity
  8
image
100
AcDbVertex
100
AcDb2dVertex
 10
2.726673478029347
 20
6.861855324855175
 30
0.0
 70
    16
  0
VERTEX
  5
16E
330
16C
100
AcDbEntity
  8
image
100
AcDbVertex
100
AcDb2dVertex
 10
2.726673478029347
 20
6.861855324855175
 30
0.0
 70
     8
  0
VERTEX
  5
16F
330
16C
100
AcDbEntity
  8
image
100
AcDbVertex
100
AcDb2dVertex
 10
2.743535645988405
 20
6.861767305080642
 30
0.0
 70
     8
  0
VERTEX
  5
170
330
16C
100
AcDbEntity
  8
image
100
AcDbVertex
100
AcDb2dVertex
 10
2.757494545557545
 20
6.861654682370729
 30
0.0
 70
     8
  0
VERTEX
  5
171
330
16C
100
AcDbEntity
  8
image
100
AcDbVertex
100
AcDb2dVertex
 10
2.768922937909849
 20
6.861516876623037
 30
0.0
 70
     8
  0
VERTEX
  5
172
330
16C
100
AcDbEntity
  8
image
100
AcDbVertex
100
AcDb2dVertex
 10
2.778193584218399
 20
6.86135330773517
 30
0.0
 70
     8
  0
VERTEX
  5
173
330
16C
100
AcDbEntity
  8
image
100
AcDbVertex
100
AcDb2dVertex
 10
2.785679245656275
 20
6.861163395604732
 30
0.0
 70
     8
  0
VERTEX
  5
174
330
16C
100
AcDbEntity
  8
image
100
AcDbVertex
100
AcDb2dVertex
 10
2.791752683396563
 20
6.860946560129323
 30
0.0
 70
     8
  0
VERTEX
  5
175
330
16C
100
AcDbEntity
  8
image
100
AcDbVertex
100
AcDb2dVertex
 10
2.796786658612337
 20
6.860702221206548
 30
0.0
 70
     8
  0
VERTEX
  5
176
330
16C
100
AcDbEntity
  8
image
100
AcDbVertex
100
AcDb2dVertex
 10
2.801153932476683
 20
6.860429798734009
 30
0.0
 70
     8
  0
VERTEX
  5
177
330
16C
100
AcDbEntity
  8
image
100
AcDbVertex
100
AcDb2dVertex
 10
2.805172159231295
 20
6.860126420406344
 30
0.0
 70
     8
  0
VERTEX
  5
178
330
16C
100
AcDbEntity
  8
image
100
AcDbVertex
100
AcDb2dVertex
 10
2.808938565392333
 20
6.859780045106331
 30
0.0
 70
     8
  0
VERTEX
  5
179
330
16C
100
AcDbEntity
  8
image
100
AcDbVertex
100
AcDb2dVertex
 10
2.81249527054457
 20
6.859376339513781
 30
0.0
 70
     8
  0
VERTEX
  5
17A
330
16C
100
AcDbEntity
  8
image
100
AcDbVertex
100
AcDb2dVertex
 10
2.815884394272778
 20
6.858900970308507
 30
0.0
 70
     8
  0
VERTEX
  5
17B
330
16C
100
AcDbEntity
  8
image
100
AcDbVertex
100
AcDb2dVertex
 10
2.819148056161733
 20
6.858339604170322
 30
0.0
 70
     8
  0
VERTEX
  5
17C
330
16C
100
AcDbEntity
  8
image
100
AcDbVertex
100
AcDb2dVertex
 10
2.822328375796208
 20
6.857677907779038
 30
0.0
 70
     8
  0
VERTEX
  5
17D
330
16C
100
AcDbEntity
  8
image
100
AcDbVertex
100
AcDb2dVertex
 10
2.825467472760976
 20
6.856901547814467
 30
0.0
 70
     8
  0
VERTEX
  5
17E
330
16C
100
AcDbEntity
  8
image
100
AcDbVertex
100
AcDb2dVertex
 10
2.828607466640814
 20
6.855996190956422
 30
0.0
 70
     8
  0
VERTEX
  5
17F
330
16C
100
AcDbEntity
  8
image
100
AcDbVertex
100
AcDb2dVertex
 10
2.831779723047469
 20
6.854951385794472
 30
0.0
 70
     8
  0
VERTEX
  5
180
330
16C
100
AcDbEntity
  8
image
100
AcDbVertex
100
AcDb2dVertex
 10
2.834972591700609
 20
6.853772208557216
 30
0.0
 70
     8
  0
VERTEX
  5
181
330
16C
100
AcDbEntity
  8
image
100
AcDbVertex
100
AcDb2dVertex
 10
2.838163668346878
 20
6.852467617383004
 30
0.0
 70
     8
  0
VERTEX
  5
182
330
16C
100
AcDbEntity
  8
image
100
AcDbVertex
100
AcDb2dVertex
 10
2.841330548732917
 20
6.851046570410193
 30
0.0
 70
     8
  0
VERTEX
  5
183
330
16C
100
AcDbEntity
  8
image
100
AcDbVertex
100
AcDb2dVertex
 10
2.844450828605372
 20
6.849518025777135
 30
0.0
 70
     8
  0
VERTEX
  5
184
330
16C
100
AcDbEntity
  8
image
100
AcDbVertex
100
AcDb2dVertex
 10
2.847502103710887
 20
6.847890941622184
 30
0.0
 70
     8
  0
VERTEX
  5
185
330
16C
100
AcDbEntity
  8
image
100
AcDbVertex
100
AcDb2dVertex
 10
2.850461969796104
 20
6.846174276083695
 30
0.0
 70
     8
  0
VERTEX
  5
186
330
16C
100
AcDbEntity
  8
image
100
AcDbVertex
100
AcDb2dVertex
 10
2.853308022607665
 20
6.844376987300022
 30
0.0
 70
     8
  0
VERTEX
  5
187
330
16C
100
AcDbEntity
  8
image
100
AcDbVertex
100
AcDb2dVertex
 10
2.856025027265445
 20
6.842498179568654
 30
0.0
 70
     8
  0
VERTEX
  5
188
330
16C
100
AcDbEntity
  8
image
100
AcDbVertex
100
AcDb2dVertex
 10
2.858626426382233
 20
6.840497541823627
 30
0.0
 70
     8
  0
VERTEX
  5
189
330
16C
100
AcDbEntity
  8
image
100
AcDbVertex
100
AcDb2dVertex
 10
2.861132831944047
 20
6.838324909158114
 30
0.0
 70
     8
  0
VERTEX
  5
18A
330
16C
100
AcDbEntity
  8
image
100
AcDbVertex
100
AcDb2dVertex
 10
2.863564855936907
 20
6.835930116665287
 30
0.0
 70
     8
  0
VERTEX
  5
18B
330
16C
100
AcDbEntity
  8
image
100
AcDbVertex
100
AcDb2dVertex
 10
2.86594311034683
 20
6.833262999438318
 30
0.0
 70
     8
  0
VERTEX
  5
18C
330
16C
100
AcDbEntity
  8
image
100
AcDbVertex
100
AcDb2dVertex
 10
2.868288207159833
 20
6.830273392570377
 30
0.0
 70
     8
  0
VERTEX
  5
18D
330
16C
100
AcDbEntity
  8
image
100
AcDbVertex
100
AcDb2dVertex
 10
2.870620758361937
 20
6.826911131154639
 30
0.0
 70
     8
  0
VERTEX
  5
18E
330
16C
100
AcDbEntity
  8
image
100
AcDbVertex
100
AcDb2dVertex
 10
2.872961375939159
 20
6.823126050284275
 30
0.0
 70
     8
  0
VERTEX
  5
18F
330
16C
100
AcDbEntity
  8
image
100
AcDbVertex
100
AcDb2dVertex
 10
2.875323950592829
 20
6.818881272761398
 30
0.0
 70
     8
  0
VERTEX
  5
190
330
16C
100
AcDbEntity
  8
image
100
AcDbVertex
100
AcDb2dVertex
 10
2.877695487885521
 20
6.814193072223881
 30
0.0
 70
     8
  0
VERTEX
  5
191
330
16C
100
AcDbEntity
  8
image
100
AcDbVertex
100
AcDb2dVertex
 10
2.880056272095115
 20
6.809091010018538
 30
0.0
 70
     8
  0
VERTEX
  5
192
330
16C
100
AcDbEntity
  8
image
100
AcDbVertex
100
AcDb2dVertex
 10
2.8823865874995
 20
6.803604647492181
 30
0.0
 70
     8
  0
VERTEX
  5
193
330
16C
100
AcDbEntity
  8
image
100
AcDbVertex
100
AcDb2dVertex
 10
2.884666718376553
 20
6.797763545991625
 30
0.0
 70
     8
  0
VERTEX
  5
194
330
16C
100
AcDbEntity
  8
image
100
AcDbVertex
100
AcDb2dVertex
 10
2.886876949004161
 20
6.791597266863682
 30
0.0
 70
     8
  0
VERTEX
  5
195
330
16C
100
AcDbEntity
  8
image
100
AcDbVertex
100
AcDb2dVertex
 10
2.888997563660211
 20
6.785135371455167
 30
0.0
 70
     8
  0
VERTEX
  5
196
330
16C
100
AcDbEntity
  8
image
100
AcDbVertex
100
AcDb2dVertex
 10
2.891008846622581
 20
6.778407421112895
 30
0.0
 70
     8
  0
VERTEX
  5
197
330
16C
100
AcDbEntity
  8
image
100
AcDbVertex
100
AcDb2dVertex
 10
2.892897504699211
 20
6.771445515349242
 30
0.0
 70
     8
  0
VERTEX
  5
198
330
16C
100
AcDbEntity
  8
image
100
AcDbVertex
100
AcDb2dVertex
 10
2.894675934818263
 20
6.76429190633886
 30
0.0
 70
     8
  0
VERTEX
  5
199
330
16C
100
AcDbEntity
  8
image
100
AcDbVertex
100
AcDb2dVertex
 10
2.896362956437949
 20
6.756991384421962
 30
0.0
 70
     8
  0
VERTEX
  5
19A
330
16C
100
AcDbEntity
  8
image
100
AcDbVertex
100
AcDb2dVertex
 10
2.897977389016483
 20
6.749588739938762
 30
0.0
 70
     8
  0
VERTEX
  5
19B
330
16C
100
AcDbEntity
  8
image
100
AcDbVertex
100
AcDb2dVertex
 10
2.899538052012081
 20
6.742128763229477
 30
0.0
 70
     8
  0
VERTEX
  5
19C
330
16C
100
AcDbEntity
  8
image
100
AcDbVertex
100
AcDb2dVertex
 10
2.901063764882955
 20
6.734656244634319
 30
0.0
 70
     8
  0
VERTEX
  5
19D
330
16C
100
AcDbEntity
  8
image
100
AcDbVertex
100
AcDb2dVertex
 10
2.902573347087322
 20
6.727215974493504
 30
0.0
 70
     8
  0
VERTEX
  5
19E
330
16C
100
AcDbEntity
  8
image
100
AcDbVertex
100
AcDb2dVertex
 10
2.904085618083396
 20
6.719852743147246
 30
0.0
 70
     8
  0
VERTEX
  5
19F
330
16C
100
AcDbEntity
  8
image
100
AcDbVertex
100
AcDb2dVertex
 10
2.905619845374518
 20
6.712611340965058
 30
0.0
 70
     8
  0
VERTEX
  5
1A0
330
16C
100
AcDbEntity
  8
image
100
AcDbVertex
100
AcDb2dVertex
 10
2.907197088644551
 20
6.705536558433632
 30
0.0
 70
     8
  0
VERTEX
  5
1A1
330
16C
100
AcDbEntity
  8
image
100
AcDbVertex
100
AcDb2dVertex
 10
2.90883885562248
 20
6.698673186068965
 30
0.0
 70
     8
  0
VERTEX
  5
1A2
330
16C
100
AcDbEntity
  8
image
100
AcDbVertex
100
AcDb2dVertex
 10
2.910566654037292
 20
6.692066014387044
 30
0.0
 70
     8
  0
VERTEX
  5
1A3
330
16C
100
AcDbEntity
  8
image
100
AcDbVertex
100
AcDb2dVertex
 10
2.912401991617981
 20
6.685759833903865
 30
0.0
 70
     8
  0
VERTEX
  5
1A4
330
16C
100
AcDbEntity
  8
image
100
AcDbVertex
100
AcDb2dVertex
 10
2.91436637609353
 20
6.679799435135415
 30
0.0
 70
     8
  0
VERTEX
  5
1A5
330
16C
100
AcDbEntity
  8
image
100
AcDbVertex
100
AcDb2dVertex
 10
2.91648131519293
 20
6.67422960859769
 30
0.0
 70
     8
  0
VERTEX
  5
1A6
330
16C
100
AcDbEntity
  8
image
100
AcDbVertex
100
AcDb2dVertex
 10
2.91876831664517
 20
6.669095144806683
 30
0.0
 70
     8
  0
VERTEX
  5
1A7
330
16C
100
AcDbEntity
  8
image
100
AcDbVertex
100
AcDb2dVertex
 10
2.92124649844604
 20
6.664428890108561
 30
0.0
 70
     8
  0
VERTEX
  5
1A8
330
16C
100
AcDbEntity
  8
image
100
AcDbVertex
100
AcDb2dVertex
 10
2.923925419658555
 20
6.660215914170193
 30
0.0
 70
     8
  0
VERTEX
  5
1A9
330
16C
100
AcDbEntity
  8
image
100
AcDbVertex
100
AcDb2dVertex
 10
2.926812249612533
 20
6.656429342488636
 30
0.0
 70
     8
  0
VERTEX
  5
1AA
330
16C
100
AcDbEntity
  8
image
100
AcDbVertex
100
AcDb2dVertex
 10
2.929914157637792
 20
6.653042300560936
 30
0.0
 70
     8
  0
VERTEX
  5
1AB
330
16C
100
AcDbEntity
  8
image
100
AcDbVertex
100
AcDb2dVertex
 10
2.933238313064151
 20
6.65002791388414
 30
0.0
 70
     8
  0
VERTEX
  5
1AC
330
16C
100
AcDbEntity
  8
image
100
AcDbVertex
100
AcDb2dVertex
 10
2.936791885221428
 20
6.647359307955304
 30
0.0
 70
     8
  0
VERTEX
  5
1AD
330
16C
100
AcDbEntity
  8
image
100
AcDbVertex
100
AcDb2dVertex
 10
2.940582043439441
 20
6.645009608271474
 30
0.0
 70
     8
  0
VERTEX
  5
1AE
330
16C
100
AcDbEntity
  8
image
100
AcDbVertex
100
AcDb2dVertex
 10
2.944615957048007
 20
6.642951940329701
 30
0.0
 70
     8
  0
VERTEX
  5
1AF
330
16C
100
AcDbEntity
  8
image
100
AcDbVertex
100
AcDb2dVertex
 10
2.948892562390334
 20
6.641162863670887
 30
0.0
 70
     8
  0
VERTEX
  5
1B0
330
16C
100
AcDbEntity
  8
image
100
AcDbVertex
100
AcDb2dVertex
 10
2.95337786386319
 20
6.639632674011351
 30
0.0
 70
     8
  0
VERTEX
  5
1B1
330
16C
100
AcDbEntity
  8
image
100
AcDbVertex
100
AcDb2dVertex
 10
2.958029632876733
 20
6.638355101111272
 30
0.0
 70
     8
  0
VERTEX
  5
1B2
330
16C
100
AcDbEntity
  8
image
100
AcDbVertex
100
AcDb2dVertex
 10
2.96280564084112
 20
6.637323874730816
 30
0.0
 70
     8
  0
VERTEX
  5
1B3
330
16C
100
AcDbEntity
  8
image
100
AcDbVertex
100
AcDb2dVertex
 10
2.967663659166506
 20
6.636532724630162
 30
0.0
 70
     8
  0
VERTEX
  5
1B4
330
16C
100
AcDbEntity
  8
image
100
AcDbVertex
100
AcDb2dVertex
 10
2.972561459263049
 20
6.635975380569478
 30
0.0
 70
     8
  0
VERTEX
  5
1B5
330
16C
100
AcDbEntity
  8
image
100
AcDbVertex
100
AcDb2dVertex
 10
2.977456812540909
 20
6.635645572308942
 30
0.0
 70
     8
  0
VERTEX
  5
1B6
330
16C
100
AcDbEntity
  8
image
100
AcDbVertex
100
AcDb2dVertex
 10
2.982307490410239
 20
6.635537029608725
 30
0.0
 70
     8
  0
VERTEX
  5
1B7
330
16C
100
AcDbEntity
  8
image
100
AcDbVertex
100
AcDb2dVertex
 10
2.775841627038346
 20
6.861652893723686
 30
0.0
 70
    16
  0
VERTEX
  5
1B8
330
16C
100
AcDbEntity
  8
image
100
AcDbVertex
100
AcDb2dVertex
 10
2.804289294379067
 20
6.860735544357061
 30
0.0
 70
    16
  0
VERTEX
  5
1B9
330
16C
100
AcDbEntity
  8
image
100
AcDbVertex
100
AcDb2dVertex
 10
2.828148623975842
 20
6.857525046568814
 30
0.0
 70
    16
  0
VERTEX
  5
1BA
330
16C
100
AcDbEntity
  8
image
100
AcDbVertex
100
AcDb2dVertex
 10
2.854761009562444
 20
6.845141415106218
 30
0.0
 70
    16
  0
VERTEX
  5
1BB
330
16C
100
AcDbEntity
  8
image
100
AcDbVertex
100
AcDb2dVertex
 10
2.872655473420365
 20
6.82817121680645
 30
0.0
 70
    16
  0
VERTEX
  5
1BC
330
16C
100
AcDbEntity
  8
image
100
AcDbVertex
100
AcDb2dVertex
 10
2.892385352391052
 20
6.780930019373644
 30
0.0
 70
    16
  0
VERTEX
  5
1BD
330
16C
100
AcDbEntity
  8
image
100
AcDbVertex
100
AcDb2dVertex
 10
2.903856196750911
 20
6.718553232376343
 30
0.0
 70
    16
  0
VERTEX
  5
1BE
330
16C
100
AcDbEntity
  8
image
100
AcDbVertex
100
AcDb2dVertex
 10
2.916703569105683
 20
6.663973510004464
 30
0.0
 70
    16
  0
VERTEX
  5
1BF
330
16C
100
AcDbEntity
  8
image
100
AcDbVertex
100
AcDb2dVertex
 10
2.941939426697372
 20
6.640123596445898
 30
0.0
 70
    16
  0
VERTEX
  5
1C0
330
16C
100
AcDbEntity
  8
image
100
AcDbVertex
100
AcDb2dVertex
 10
2.969469453161032
 20
6.635537029608725
 30
0.0
 70
    16
  0
VERTEX
  5
1C1
330
16C
100
AcDbEntity
  8
image
100
AcDbVertex
100
AcDb2dVertex
 10
2.982307490410239
 20
6.635537029608725
 30
0.0
 70
    16
  0
SEQEND
  5
1C2
330
16C
100
AcDbEntity
  8
image
  0
POLYLINE
  5
1C3
330
2
100
AcDbEntity
  8
image
100
AcDb2dPolyline
 66
     1
 10
0.0
 20
0.0
 30
0.0
 70
     4
 75
     6
  0
VERTEX
  5
1C4
330
1C3
100
AcDbEntity
  8
image
100
AcDbVertex
100
AcDb2dVertex
 10
2.726620683571759
 20
6.849032169945561
 30
0.0
 70
    16
  0
VERTEX
  5
1C5
330
1C3
100
AcDbEntity
  8
image
100
AcDbVertex
100
AcDb2dVertex
 10
2.726620683571759
 20
6.849032169945561
 30
0.0
 70
     8
  0
VERTEX
  5
1C6
330
1C3
100
AcDbEntity
  8
image
100
AcDbVertex
100
AcDb2dVertex
 10
2.743404233681632
 20
6.848945097150946
 30
0.0
 70
     8
  0
VERTEX
  5
1C7
330
1C3
100
AcDbEntity
  8
image
100
AcDbVertex
100
AcDb2dVertex
 10
2.757262608121735
 20
6.848835059047318
 30
0.0
 70
     8
  0
VERTEX
  5
1C8
330
1C3
100
AcDbEntity
  8
image
100
AcDbVertex
100
AcDb2dVertex
 10
2.768568726860138
 20
6.848701926123145
 30
0.0
 70
     8
  0
VERTEX
  5
1C9
330
1C3
100
AcDbEntity
  8
image
100
AcDbVertex
100
AcDb2dVertex
 10
2.777695509864908
 20
6.848545568866895
 30
0.0
 70
     8
  0
VERTEX
  5
1CA
330
1C3
100
AcDbEntity
  8
image
100
AcDbVertex
100
AcDb2dVertex
 10
2.785015877104118
 20
6.848365857767041
 30
0.0
 70
     8
  0
VERTEX
  5
1CB
330
1C3
100
AcDbEntity
  8
image
100
AcDbVertex
100
AcDb2dVertex
 10
2.790902748545834
 20
6.848162663312047
 30
0.0
 70
     8
  0
VERTEX
  5
1CC
330
1C3
100
AcDbEntity
  8
image
100
AcDbVertex
100
AcDb2dVertex
 10
2.795729044158127
 20
6.847935855990384
 30
0.0
 70
     8
  0
VERTEX
  5
1CD
330
1C3
100
AcDbEntity
  8
image
100
AcDbVertex
100
AcDb2dVertex
 10
2.799867683909065
 20
6.847685306290523
 30
0.0
 70
     8
  0
VERTEX
  5
1CE
330
1C3
100
AcDbEntity
  8
image
100
AcDbVertex
100
AcDb2dVertex
 10
2.803636534086344
 20
6.847408859654716
 30
0.0
 70
     8
  0
VERTEX
  5
1CF
330
1C3
100
AcDbEntity
  8
image
100
AcDbVertex
100
AcDb2dVertex
 10
2.807133246256173
 20
6.847096261340352
 30
0.0
 70
     8
  0
VERTEX
  5
1D0
330
1C3
100
AcDbEntity
  8
image
100
AcDbVertex
100
AcDb2dVertex
 10
2.81040041830438
 20
6.846735231558606
 30
0.0
 70
     8
  0
VERTEX
  5
1D1
330
1C3
100
AcDbEntity
  8
image
100
AcDbVertex
100
AcDb2dVertex
 10
2.813480648116801
 20
6.846313490520655
 30
0.0
 70
     8
  0
VERTEX
  5
1D2
330
1C3
100
AcDbEntity
  8
image
100
AcDbVertex
100
AcDb2dVertex
 10
2.816416533579264
 20
6.845818758437666
 30
0.0
 70
     8
  0
VERTEX
  5
1D3
330
1C3
100
AcDbEntity
  8
image
100
AcDbVertex
100
AcDb2dVertex
 10
2.819250672577608
 20
6.845238755520819
 30
0.0
 70
     8
  0
VERTEX
  5
1D4
330
1C3
100
AcDbEntity
  8
image
100
AcDbVertex
100
AcDb2dVertex
 10
2.822025662997658
 20
6.844561201981286
 30
0.0
 70
     8
  0
VERTEX
  5
1D5
330
1C3
100
AcDbEntity
  8
image
100
AcDbVertex
100
AcDb2dVertex
 10
2.824784102725251
 20
6.843773818030238
 30
0.0
 70
     8
  0
VERTEX
  5
1D6
330
1C3
100
AcDbEntity
  8
image
100
AcDbVertex
100
AcDb2dVertex
 10
2.827558168482362
 20
6.842867941589822
 30
0.0
 70
     8
  0
VERTEX
  5
1D7
330
1C3
100
AcDbEntity
  8
image
100
AcDbVertex
100
AcDb2dVertex
 10
2.830338352335532
 20
6.841849381426033
 30
0.0
 70
     8
  0
VERTEX
  5
1D8
330
1C3
100
AcDbEntity
  8
image
100
AcDbVertex
100
AcDb2dVertex
 10
2.833104725187451
 20
6.840727564015845
 30
0.0
 70
     8
  0
VERTEX
  5
1D9
330
1C3
100
AcDbEntity
  8
image
100
AcDbVertex
100
AcDb2dVertex
 10
2.835837357940809
 20
6.839511915836228
 30
0.0
 70
     8
  0
VERTEX
  5
1DA
330
1C3
100
AcDbEntity
  8
image
100
AcDbVertex
100
AcDb2dVertex
 10
2.838516321498289
 20
6.838211863364149
 30
0.0
 70
     8
  0
VERTEX
  5
1DB
330
1C3
100
AcDbEntity
  8
image
100
AcDbVertex
100
AcDb2dVertex
 10
2.84112168676258
 20
6.836836833076578
 30
0.0
 70
     8
  0
VERTEX
  5
1DC
330
1C3
100
AcDbEntity
  8
image
100
AcDbVertex
100
AcDb2dVertex
 10
2.84363352463637
 20
6.835396251450483
 30
0.0
 70
     8
  0
VERTEX
  5
1DD
330
1C3
100
AcDbEntity
  8
image
100
AcDbVertex
100
AcDb2dVertex
 10
2.846031906022345
 20
6.833899544962837
 30
0.0
 70
     8
  0
VERTEX
  5
1DE
330
1C3
100
AcDbEntity
  8
image
100
AcDbVertex
100
AcDb2dVertex
 10
2.84830422102874
 20
6.832345839660859
 30
0.0
 70
     8
  0
VERTEX
  5
1DF
330
1C3
100
AcDbEntity
  8
image
100
AcDbVertex
100
AcDb2dVertex
 10
2.850467136585979
 20
6.830693059872795
 30
0.0
 70
     8
  0
VERTEX
  5
1E0
330
1C3
100
AcDbEntity
  8
image
100
AcDbVertex
100
AcDb2dVertex
 10
2.852544638830037
 20
6.828888829497144
 30
0.0
 70
     8
  0
VERTEX
  5
1E1
330
1C3
100
AcDbEntity
  8
image
100
AcDbVertex
100
AcDb2dVertex
 10
2.854560713896884
 20
6.826880772432407
 30
0.0
 70
     8
  0
VERTEX
  5
1E2
330
1C3
100
AcDbEntity
  8
image
100
AcDbVertex
100
AcDb2dVertex
 10
2.856539347922488
 20
6.824616512577081
 30
0.0
 70
     8
  0
VERTEX
  5
1E3
330
1C3
100
AcDbEntity
  8
image
100
AcDbVertex
100
AcDb2dVertex
 10
2.858504527042825
 20
6.822043673829665
 30
0.0
 70
     8
  0
VERTEX
  5
1E4
330
1C3
100
AcDbEntity
  8
image
100
AcDbVertex
100
AcDb2dVertex
 10
2.860480237393867
 20
6.81910988008866
 30
0.0
 70
     8
  0
VERTEX
  5
1E5
330
1C3
100
AcDbEntity
  8
image
100
AcDbVertex
100
AcDb2dVertex
 10
2.862490465111584
 20
6.815762755252564
 30
0.0
 70
     8
  0
VERTEX
  5
1E6
330
1C3
100
AcDbEntity
  8
image
100
AcDbVertex
100
AcDb2dVertex
 10
2.864551741294027
 20
6.811962540312904
 30
0.0
 70
     8
  0
VERTEX
  5
1E7
330
1C3
100
AcDbEntity
  8
image
100
AcDbVertex
100
AcDb2dVertex
 10
2.866650776887578
 20
6.80771994463332
 30
0.0
 70
     8
  0
VERTEX
  5
1E8
330
1C3
100
AcDbEntity
  8
image
100
AcDbVertex
100
AcDb2dVertex
 10
2.868766827800691
 20
6.803058294670481
 30
0.0
 70
     8
  0
VERTEX
  5
1E9
330
1C3
100
AcDbEntity
  8
image
100
AcDbVertex
100
AcDb2dVertex
 10
2.870879149941824
 20
6.798000916881059
 30
0.0
 70
     8
  0
VERTEX
  5
1EA
330
1C3
100
AcDbEntity
  8
image
100
AcDbVertex
100
AcDb2dVertex
 10
2.872966999219437
 20
6.79257113772172
 30
0.0
 70
     8
  0
VERTEX
  5
1EB
330
1C3
100
AcDbEntity
  8
image
100
AcDbVertex
100
AcDb2dVertex
 10
2.875009631541988
 20
6.786792283649135
 30
0.0
 70
     8
  0
VERTEX
  5
1EC
330
1C3
100
AcDbEntity
  8
image
100
AcDbVertex
100
AcDb2dVertex
 10
2.876986302817932
 20
6.780687681119969
 30
0.0
 70
     8
  0
VERTEX
  5
1ED
330
1C3
100
AcDbEntity
  8
image
100
AcDbVertex
100
AcDb2dVertex
 10
2.878876268955732
 20
6.774280656590897
 30
0.0
 70
     8
  0
VERTEX
  5
1EE
330
1C3
100
AcDbEntity
  8
image
100
AcDbVertex
100
AcDb2dVertex
 10
2.880665302477293
 20
6.767597344032307
 30
0.0
 70
     8
  0
VERTEX
  5
1EF
330
1C3
100
AcDbEntity
  8
image
100
AcDbVertex
100
AcDb2dVertex
 10
2.882365242358323
 20
6.760675107469494
 30
0.0
 70
     8
  0
VERTEX
  5
1F0
330
1C3
100
AcDbEntity
  8
image
100
AcDbVertex
100
AcDb2dVertex
 10
2.88399444418798
 20
6.753554118441475
 30
0.0
 70
     8
  0
VERTEX
  5
1F1
330
1C3
100
AcDbEntity
  8
image
100
AcDbVertex
100
AcDb2dVertex
 10
2.885571263555421
 20
6.746274548487266
 30
0.0
 70
     8
  0
VERTEX
  5
1F2
330
1C3
100
AcDbEntity
  8
image
100
AcDbVertex
100
AcDb2dVertex
 10
2.887114056049805
 20
6.738876569145884
 30
0.0
 70
     8
  0
VERTEX
  5
1F3
330
1C3
100
AcDbEntity
  8
image
100
AcDbVertex
100
AcDb2dVertex
 10
2.888641177260289
 20
6.731400351956346
 30
0.0
 70
     8
  0
VERTEX
  5
1F4
330
1C3
100
AcDbEntity
  8
image
100
AcDbVertex
100
AcDb2dVertex
 10
2.890170982776032
 20
6.72388606845767
 30
0.0
 70
     8
  0
VERTEX
  5
1F5
330
1C3
100
AcDbEntity
  8
image
100
AcDbVertex
100
AcDb2dVertex
 10
2.891721828186192
 20
6.71637389018887
 30
0.0
 70
     8
  0
VERTEX
  5
1F6
330
1C3
100
AcDbEntity
  8
image
100
AcDbVertex
100
AcDb2dVertex
 10
2.893313746185016
 20
6.70890600008036
 30
0.0
 70
     8
  0
VERTEX
  5
1F7
330
1C3
100
AcDbEntity
  8
image
100
AcDbVertex
100
AcDb2dVertex
 10
2.894973477887127
 20
6.701532626628124
 30
0.0
 70
     8
  0
VERTEX
  5
1F8
330
1C3
100
AcDbEntity
  8
image
100
AcDbVertex
100
AcDb2dVertex
 10
2.896729441512235
 20
6.694306009719547
 30
0.0
 70
     8
  0
VERTEX
  5
1F9
330
1C3
100
AcDbEntity
  8
image
100
AcDbVertex
100
AcDb2dVertex
 10
2.89861005528005
 20
6.687278389242004
 30
0.0
 70
     8
  0
VERTEX
  5
1FA
330
1C3
100
AcDbEntity
  8
image
100
AcDbVertex
100
AcDb2dVertex
 10
2.900643737410286
 20
6.680502005082883
 30
0.0
 70
     8
  0
VERTEX
  5
1FB
330
1C3
100
AcDbEntity
  8
image
100
AcDbVertex
100
AcDb2dVertex
 10
2.902858906122654
 20
6.674029097129559
 30
0.0
 70
     8
  0
VERTEX
  5
1FC
330
1C3
100
AcDbEntity
  8
image
100
AcDbVertex
100
AcDb2dVertex
 10
2.905283979636864
 20
6.667911905269416
 30
0.0
 70
     8
  0
VERTEX
  5
1FD
330
1C3
100
AcDbEntity
  8
image
100
AcDbVertex
100
AcDb2dVertex
 10
2.907947376172629
 20
6.662202669389833
 30
0.0
 70
     8
  0
VERTEX
  5
1FE
330
1C3
100
AcDbEntity
  8
image
100
AcDbVertex
100
AcDb2dVertex
 10
2.910873008145568
 20
6.656942194366273
 30
0.0
 70
     8
  0
VERTEX
  5
1FF
330
1C3
100
AcDbEntity
  8
image
100
AcDbVertex
100
AcDb2dVertex
 10
2.914066764754934
 20
6.652125545026508
 30
0.0
 70
     8
  0
VERTEX
  5
200
330
1C3
100
AcDbEntity
  8
image
100
AcDbVertex
100
AcDb2dVertex
 10
2.917530029395891
 20
6.647736351186393
 30
0.0
 70
     8
  0
VERTEX
  5
201
330
1C3
100
AcDbEntity
  8
image
100
AcDbVertex
100
AcDb2dVertex
 10
2.921264185463595
 20
6.643758242661785
 30
0.0
 70
     8
  0
VERTEX
  5
202
330
1C3
100
AcDbEntity
  8
image
100
AcDbVertex
100
AcDb2dVertex
 10
2.925270616353209
 20
6.640174849268533
 30
0.0
 70
     8
  0
VERTEX
  5
203
330
1C3
100
AcDbEntity
  8
image
100
AcDbVertex
100
AcDb2dVertex
 10
2.929550705459895
 20
6.636969800822497
 30
0.0
 70
     8
  0
VERTEX
  5
204
330
1C3
100
AcDbEntity
  8
image
100
AcDbVertex
100
AcDb2dVertex
 10
2.934105836178815
 20
6.634126727139528
 30
0.0
 70
     8
  0
VERTEX
  5
205
330
1C3
100
AcDbEntity
  8
image
100
AcDbVertex
100
AcDb2dVertex
 10
2.938937391905128
 20
6.631629258035479
 30
0.0
 70
     8
  0
VERTEX
  5
206
330
1C3
100
AcDbEntity
  8
image
100
AcDbVertex
100
AcDb2dVertex
 10
2.944036209832841
 20
6.629462169650566
 30
0.0
 70
     8
  0
VERTEX
  5
207
330
1C3
100
AcDbEntity
  8
image
100
AcDbVertex
100
AcDb2dVertex
 10
2.949350942351347
 20
6.627614823422446
 30
0.0
 70
     8
  0
VERTEX
  5
208
330
1C3
100
AcDbEntity
  8
image
100
AcDbVertex
100
AcDb2dVertex
 10
2.954819695648879
 20
6.626077727113124
 30
0.0
 70
     8
  0
VERTEX
  5
209
330
1C3
100
AcDbEntity
  8
image
100
AcDbVertex
100
AcDb2dVertex
 10
2.960380575913678
 20
6.624841388484621
 30
0.0
 70
     8
  0
VERTEX
  5
20A
330
1C3
100
AcDbEntity
  8
image
100
AcDbVertex
100
AcDb2dVertex
 10
2.965971689333976
 20
6.623896315298945
 30
0.0
 70
     8
  0
VERTEX
  5
20B
330
1C3
100
AcDbEntity
  8
image
100
AcDbVertex
100
AcDb2dVertex
 10
2.97153114209801
 20
6.623233015318114
 30
0.0
 70
     8
  0
VERTEX
  5
20C
330
1C3
100
AcDbEntity
  8
image
100
AcDbVertex
100
AcDb2dVertex
 10
2.976997040394021
 20
6.622841996304138
 30
0.0
 70
     8
  0
VERTEX
  5
20D
330
1C3
100
AcDbEntity
  8
image
100
AcDbVertex
100
AcDb2dVertex
 10
2.982307490410239
 20
6.622713766019033
 30
0.0
 70
     8
  0
VERTEX
  5
20E
330
1C3
100
AcDbEntity
  8
image
100
AcDbVertex
100
AcDb2dVertex
 10
2.775608535840509
 20
6.848830481117247
 30
0.0
 70
    16
  0
VERTEX
  5
20F
330
1C3
100
AcDbEntity
  8
image
100
AcDbVertex
100
AcDb2dVertex
 10
2.80322486677077
 20
6.847939939780976
 30
0.0
 70
    16
  0
VERTEX
  5
210
330
1C3
100
AcDbEntity
  8
image
100
AcDbVertex
100
AcDb2dVertex
 10
2.824506265995927
 20
6.845076326833846
 30
0.0
 70
    16
  0
VERTEX
  5
211
330
1C3
100
AcDbEntity
  8
image
100
AcDbVertex
100
AcDb2dVertex
 10
2.847454685597032
 20
6.834397661065072
 30
0.0
 70
    16
  0
VERTEX
  5
212
330
1C3
100
AcDbEntity
  8
image
100
AcDbVertex
100
AcDb2dVertex
 10
2.861866427750014
 20
6.820730298682878
 30
0.0
 70
    16
  0
VERTEX
  5
213
330
1C3
100
AcDbEntity
  8
image
100
AcDbVertex
100
AcDb2dVertex
 10
2.880022394072412
 20
6.777257675718792
 30
0.0
 70
    16
  0
VERTEX
  5
214
330
1C3
100
AcDbEntity
  8
image
100
AcDbVertex
100
AcDb2dVertex
 10
2.891301609694735
 20
6.715922937987326
 30
0.0
 70
    16
  0
VERTEX
  5
215
330
1C3
100
AcDbEntity
  8
image
100
AcDbVertex
100
AcDb2dVertex
 10
2.90510213626579
 20
6.657293913465118
 30
0.0
 70
    16
  0
VERTEX
  5
216
330
1C3
100
AcDbEntity
  8
image
100
AcDbVertex
100
AcDb2dVertex
 10
2.935974102277876
 20
6.628117424491204
 30
0.0
 70
    16
  0
VERTEX
  5
217
330
1C3
100
AcDbEntity
  8
image
100
AcDbVertex
100
AcDb2dVertex
 10
2.968408571461608
 20
6.622713766019033
 30
0.0
 70
    16
  0
VERTEX
  5
218
330
1C3
100
AcDbEntity
  8
image
100
AcDbVertex
100
AcDb2dVertex
 10
2.982307490410239
 20
6.622713766019033
 30
0.0
 70
    16
  0
SEQEND
  5
219
330
1C3
100
AcDbEntity
  8
image
  0
POLYLINE
  5
21A
330
2
100
AcDbEntity
  8
image
100
AcDb2dPolyline
 66
     1
 10
0.0
 20
0.0
 30
0.0
 70
     4
 75
     6
  0
VERTEX
  5
21B
330
21A
100
AcDbEntity
  8
image
100
AcDbVertex
100
AcDb2dVertex
 10
2.726673478029347
 20
6.84136519200579
 30
0.0
 70
    16
  0
VERTEX
  5
21C
330
21A
100
AcDbEntity
  8
image
100
AcDbVertex
100
AcDb2dVertex
 10
2.726673478029347
 20
6.84136519200579
 30
0.0
 70
     8
  0
VERTEX
  5
21D
330
21A
100
AcDbEntity
  8
image
100
AcDbVertex
100
AcDb2dVertex
 10
2.735826821865787
 20
6.841310069311453
 30
0.0
 70
     8
  0
VERTEX
  5
21E
330
21A
100
AcDbEntity
  8
image
100
AcDbVertex
100
AcDb2dVertex
 10
2.744518397019025
 20
6.84099869063768
 30
0.0
 70
     8
  0
VERTEX
  5
21F
330
21A
100
AcDbEntity
  8
image
100
AcDbVertex
100
AcDb2dVertex
 10
2.752723175341374
 20
6.840437010329488
 30
0.0
 70
     8
  0
VERTEX
  5
220
330
21A
100
AcDbEntity
  8
image
100
AcDbVertex
100
AcDb2dVertex
 10
2.760416128685147
 20
6.839630982731899
 30
0.0
 70
     8
  0
VERTEX
  5
221
330
21A
100
AcDbEntity
  8
image
100
AcDbVertex
100
AcDb2dVertex
 10
2.76757222890265
 20
6.838586562189925
 30
0.0
 70
     8
  0
VERTEX
  5
222
330
21A
100
AcDbEntity
  8
image
100
AcDbVertex
100
AcDb2dVertex
 10
2.774166447846202
 20
6.837309703048589
 30
0.0
 70
     8
  0
VERTEX
  5
223
330
21A
100
AcDbEntity
  8
image
100
AcDbVertex
100
AcDb2dVertex
 10
2.780173757368109
 20
6.835806359652908
 30
0.0
 70
     8
  0
VERTEX
  5
224
330
21A
100
AcDbEntity
  8
image
100
AcDbVertex
100
AcDb2dVertex
 10
2.785569129320684
 20
6.8340824863479
 30
0.0
 70
     8
  0
VERTEX
  5
225
330
21A
100
AcDbEntity
  8
image
100
AcDbVertex
100
AcDb2dVertex
 10
2.790344564672022
 20
6.832130617676837
 30
0.0
 70
     8
  0
VERTEX
  5
226
330
21A
100
AcDbEntity
  8
image
100
AcDbVertex
100
AcDb2dVertex
 10
2.794560180853341
 20
6.829889608976023
 30
0.0
 70
     8
  0
VERTEX
  5
227
330
21A
100
AcDbEntity
  8
image
100
AcDbVertex
100
AcDb2dVertex
 10
2.798293124411639
 20
6.827284895780008
 30
0.0
 70
     8
  0
VERTEX
  5
228
330
21A
100
AcDbEntity
  8
image
100
AcDbVertex
100
AcDb2dVertex
 10
2.801620541893917
 20
6.824241913623349
 30
0.0
 70
     8
  0
VERTEX
  5
229
330
21A
100
AcDbEntity
  8
image
100
AcDbVertex
100
AcDb2dVertex
 10
2.804619579847177
 20
6.820686098040598
 30
0.0
 70
     8
  0
VERTEX
  5
22A
330
21A
100
AcDbEntity
  8
image
100
AcDbVertex
100
AcDb2dVertex
 10
2.807367384818418
 20
6.81654288456631
 30
0.0
 70
     8
  0
VERTEX
  5
22B
330
21A
100
AcDbEntity
  8
image
100
AcDbVertex
100
AcDb2dVertex
 10
2.809941103354638
 20
6.811737708735041
 30
0.0
 70
     8
  0
VERTEX
  5
22C
330
21A
100
AcDbEntity
  8
image
100
AcDbVertex
100
AcDb2dVertex
 10
2.812417882002842
 20
6.806196006081346
 30
0.0
 70
     8
  0
VERTEX
  5
22D
330
21A
100
AcDbEntity
  8
image
100
AcDbVertex
100
AcDb2dVertex
 10
2.814869843417893
 20
6.799848220987077
 30
0.0
 70
     8
  0
VERTEX
  5
22E
330
21A
100
AcDbEntity
  8
image
100
AcDbVertex
100
AcDb2dVertex
 10
2.817349014686122
 20
6.792644833223291
 30
0.0
 70
     8
  0
VERTEX
  5
22F
330
21A
100
AcDbEntity
  8
image
100
AcDbVertex
100
AcDb2dVertex
 10
2.819902399001733
 20
6.78454133140834
 30
0.0
 70
     8
  0
VERTEX
  5
230
330
21A
100
AcDbEntity
  8
image
100
AcDbVertex
100
AcDb2dVertex
 10
2.822576999558918
 20
6.775493204160583
 30
0.0
 70
     8
  0
VERTEX
  5
231
330
21A
100
AcDbEntity
  8
image
100
AcDbVertex
100
AcDb2dVertex
 10
2.825419819551882
 20
6.76545594009837
 30
0.0
 70
     8
  0
VERTEX
  5
232
330
21A
100
AcDbEntity
  8
image
100
AcDbVertex
100
AcDb2dVertex
 10
2.828477862174821
 20
6.754385027840058
 30
0.0
 70
     8
  0
VERTEX
  5
233
330
21A
100
AcDbEntity
  8
image
100
AcDbVertex
100
AcDb2dVertex
 10
2.831798130621933
 20
6.742235956004002
 30
0.0
 70
     8
  0
VERTEX
  5
234
330
21A
100
AcDbEntity
  8
image
100
AcDbVertex
100
AcDb2dVertex
 10
2.835427628087419
 20
6.728964213208555
 30
0.0
 70
     8
  0
VERTEX
  5
235
330
21A
100
AcDbEntity
  8
image
100
AcDbVertex
100
AcDb2dVertex
 10
2.839411708363801
 20
6.714581751372389
 30
0.0
 70
     8
  0
VERTEX
  5
236
330
21A
100
AcDbEntity
  8
image
100
AcDbVertex
100
AcDb2dVertex
 10
2.84378912763691
 20
6.699326375615453
 30
0.0
 70
     8
  0
VERTEX
  5
237
330
21A
100
AcDbEntity
  8
image
100
AcDbVertex
100
AcDb2dVertex
 10
2.848596992690902
 20
6.683492354358009
 30
0.0
 70
     8
  0
VERTEX
  5
238
330
21A
100
AcDbEntity
  8
image
100
AcDbVertex
100
AcDb2dVertex
 10
2.853872410309932
 20
6.667373956020323
 30
0.0
 70
     8
  0
VERTEX
  5
239
330
21A
100
AcDbEntity
  8
image
100
AcDbVertex
100
AcDb2dVertex
 10
2.859652487278156
 20
6.651265449022655
 30
0.0
 70
     8
  0
VERTEX
  5
23A
330
21A
100
AcDbEntity
  8
image
100
AcDbVertex
100
AcDb2dVertex
 10
2.865974330379728
 20
6.635461101785273
 30
0.0
 70
     8
  0
VERTEX
  5
23B
330
21A
100
AcDbEntity
  8
image
100
AcDbVertex
100
AcDb2dVertex
 10
2.872875046398805
 20
6.620255182728437
 30
0.0
 70
     8
  0
VERTEX
  5
23C
330
21A
100
AcDbEntity
  8
image
100
AcDbVertex
100
AcDb2dVertex
 10
2.880391742119542
 20
6.605941960272414
 30
0.0
 70
     8
  0
VERTEX
  5
23D
330
21A
100
AcDbEntity
  8
image
100
AcDbVertex
100
AcDb2dVertex
 10
2.888555339905479
 20
6.592763773097288
 30
0.0
 70
     8
  0
VERTEX
  5
23E
330
21A
100
AcDbEntity
  8
image
100
AcDbVertex
100
AcDb2dVertex
 10
2.8973720244377
 20
6.580755240922425
 30
0.0
 70
     8
  0
VERTEX
  5
23F
330
21A
100
AcDbEntity
  8
image
100
AcDbVertex
100
AcDb2dVertex
 10
2.906841795976667
 20
6.569899053727011
 30
0.0
 70
     8
  0
VERTEX
  5
240
330
21A
100
AcDbEntity
  8
image
100
AcDbVertex
100
AcDb2dVertex
 10
2.916964654782848
 20
6.560177901490237
 30
0.0
 70
     8
  0
VERTEX
  5
241
330
21A
100
AcDbEntity
  8
image
100
AcDbVertex
100
AcDb2dVertex
 10
2.92774060111671
 20
6.551574474191288
 30
0.0
 70
     8
  0
VERTEX
  5
242
330
21A
100
AcDbEntity
  8
image
100
AcDbVertex
100
AcDb2dVertex
 10
2.939169635238718
 20
6.544071461809354
 30
0.0
 70
     8
  0
VERTEX
  5
243
330
21A
100
AcDbEntity
  8
image
100
AcDbVertex
100
AcDb2dVertex
 10
2.951251757409337
 20
6.537651554323617
 30
0.0
 70
     8
  0
VERTEX
  5
244
330
21A
100
AcDbEntity
  8
image
100
AcDbVertex
100
AcDb2dVertex
 10
2.963986967889038
 20
6.53229744171327
 30
0.0
 70
     8
  0
VERTEX
  5
245
330
21A
100
AcDbEntity
  8
image
100
AcDbVertex
100
AcDb2dVertex
 10
2.977352177919506
 20
6.527972031218863
 30
0.0
 70
     8
  0
VERTEX
  5
246
330
21A
100
AcDbEntity
  8
image
100
AcDbVertex
100
AcDb2dVertex
 10
2.991231942667349
 20
6.524559099126424
 30
0.0
 70
     8
  0
VERTEX
  5
247
330
21A
100
AcDbEntity
  8
image
100
AcDbVertex
100
AcDb2dVertex
 10
3.005487728280392
 20
6.521922638983341
 30
0.0
 70
     8
  0
VERTEX
  5
248
330
21A
100
AcDbEntity
  8
image
100
AcDbVertex
100
AcDb2dVertex
 10
3.019981000906462
 20
6.519926644337004
 30
0.0
 70
     8
  0
VERTEX
  5
249
330
21A
100
AcDbEntity
  8
image
100
AcDbVertex
100
AcDb2dVertex
 10
3.034573226693387
 20
6.518435108734808
 30
0.0
 70
     8
  0
VERTEX
  5
24A
330
21A
100
AcDbEntity
  8
image
100
AcDbVertex
100
AcDb2dVertex
 10
3.049125871788996
 20
6.517312025724138
 30
0.0
 70
     8
  0
VERTEX
  5
24B
330
21A
100
AcDbEntity
  8
image
100
AcDbVertex
100
AcDb2dVertex
 10
3.063500402341116
 20
6.516421388852387
 30
0.0
 70
     8
  0
VERTEX
  5
24C
330
21A
100
AcDbEntity
  8
image
100
AcDbVertex
100
AcDb2dVertex
 10
3.077558284497575
 20
6.515627191666949
 30
0.0
 70
     8
  0
VERTEX
  5
24D
330
21A
100
AcDbEntity
  8
image
100
AcDbVertex
100
AcDb2dVertex
 10
3.091186547158491
 20
6.514826811163556
 30
0.0
 70
     8
  0
VERTEX
  5
24E
330
21A
100
AcDbEntity
  8
image
100
AcDbVertex
100
AcDb2dVertex
 10
3.104374470233143
 20
6.514051158131327
 30
0.0
 70
     8
  0
VERTEX
  5
24F
330
21A
100
AcDbEntity
  8
image
100
AcDbVertex
100
AcDb2dVertex
 10
3.117136896383097
 20
6.513364526807725
 30
0.0
 70
     8
  0
VERTEX
  5
250
330
21A
100
AcDbEntity
  8
image
100
AcDbVertex
100
AcDb2dVertex
 10
3.129488668269925
 20
6.512831211430213
 30
0.0
 70
     8
  0
VERTEX
  5
251
330
21A
100
AcDbEntity
  8
image
100
AcDbVertex
100
AcDb2dVertex
 10
3.141444628555197
 20
6.512515506236254
 30
0.0
 70
     8
  0
VERTEX
  5
252
330
21A
100
AcDbEntity
  8
image
100
AcDbVertex
100
AcDb2dVertex
 10
3.153019619900479
 20
6.512481705463311
 30
0.0
 70
     8
  0
VERTEX
  5
253
330
21A
100
AcDbEntity
  8
image
100
AcDbVertex
100
AcDb2dVertex
 10
3.164228484967342
 20
6.512794103348848
 30
0.0
 70
     8
  0
VERTEX
  5
254
330
21A
100
AcDbEntity
  8
image
100
AcDbVertex
100
AcDb2dVertex
 10
3.175086066417353
 20
6.513516994130325
 30
0.0
 70
     8
  0
VERTEX
  5
255
330
21A
100
AcDbEntity
  8
image
100
AcDbVertex
100
AcDb2dVertex
 10
3.185612154639585
 20
6.514695919581254
 30
0.0
 70
     8
  0
VERTEX
  5
256
330
21A
100
AcDbEntity
  8
image
100
AcDbVertex
100
AcDb2dVertex
 10
3.195846330933106
 20
6.516301411619323
 30
0.0
 70
     8
  0
VERTEX
  5
257
330
21A
100
AcDbEntity
  8
image
100
AcDbVertex
100
AcDb2dVertex
 10
3.205833124324488
 20
6.518285249698268
 30
0.0
 70
     8
  0
VERTEX
  5
258
330
21A
100
AcDbEntity
  8
image
100
AcDbVertex
100
AcDb2dVertex
 10
3.215617063840303
 20
6.520599213271825
 30
0.0
 70
     8
  0
VERTEX
  5
259
330
21A
100
AcDbEntity
  8
image
100
AcDbVertex
100
AcDb2dVertex
 10
3.225242678507122
 20
6.523195081793732
 30
0.0
 70
     8
  0
VERTEX
  5
25A
330
21A
100
AcDbEntity
  8
image
100
AcDbVertex
100
AcDb2dVertex
 10
3.234754497351516
 20
6.526024634717721
 30
0.0
 70
     8
  0
VERTEX
  5
25B
330
21A
100
AcDbEntity
  8
image
100
AcDbVertex
100
AcDb2dVertex
 10
3.244197049400057
 20
6.529039651497531
 30
0.0
 70
     8
  0
VERTEX
  5
25C
330
21A
100
AcDbEntity
  8
image
100
AcDbVertex
100
AcDb2dVertex
 10
3.253614863679317
 20
6.532191911586894
 30
0.0
 70
     8
  0
VERTEX
  5
25D
330
21A
100
AcDbEntity
  8
image
100
AcDbVertex
100
AcDb2dVertex
 10
3.263059732530541
 20
6.535415884535921
 30
0.0
 70
     8
  0
VERTEX
  5
25E
330
21A
100
AcDbEntity
  8
image
100
AcDbVertex
100
AcDb2dVertex
 10
3.272612501553673
 20
6.538576800280208
 30
0.0
 70
     8
  0
VERTEX
  5
25F
330
21A
100
AcDbEntity
  8
image
100
AcDbVertex
100
AcDb2dVertex
 10
3.282361279663335
 20
6.541522578851723
 30
0.0
 70
     8
  0
VERTEX
  5
260
330
21A
100
AcDbEntity
  8
image
100
AcDbVertex
100
AcDb2dVertex
 10
3.292394175774145
 20
6.54410114028244
 30
0.0
 70
     8
  0
VERTEX
  5
261
330
21A
100
AcDbEntity
  8
image
100
AcDbVertex
100
AcDb2dVertex
 10
3.302799298800723
 20
6.546160404604322
 30
0.0
 70
     8
  0
VERTEX
  5
262
330
21A
100
AcDbEntity
  8
image
100
AcDbVertex
100
AcDb2dVertex
 10
3.313664757657686
 20
6.547548291849341
 30
0.0
 70
     8
  0
VERTEX
  5
263
330
21A
100
AcDbEntity
  8
image
100
AcDbVertex
100
AcDb2dVertex
 10
3.325078661259656
 20
6.548112722049467
 30
0.0
 70
     8
  0
VERTEX
  5
264
330
21A
100
AcDbEntity
  8
image
100
AcDbVertex
100
AcDb2dVertex
 10
3.337129118521254
 20
6.54770161523667
 30
0.0
 70
     8
  0
VERTEX
  5
265
330
21A
100
AcDbEntity
  8
image
100
AcDbVertex
100
AcDb2dVertex
 10
2.75167583926173
 20
6.8415651655446
 30
0.0
 70
    16
  0
VERTEX
  5
266
330
21A
100
AcDbEntity
  8
image
100
AcDbVertex
100
AcDb2dVertex
 10
2.792363430302231
 20
6.836371292367194
 30
0.0
 70
    16
  0
VERTEX
  5
267
330
21A
100
AcDbEntity
  8
image
100
AcDbVertex
100
AcDb2dVertex
 10
2.812629010973708
 20
6.814847646485319
 30
0.0
 70
    16
  0
VERTEX
  5
268
330
21A
100
AcDbEntity
  8
image
100
AcDbVertex
100
AcDb2dVertex
 10
2.83162781781999
 20
6.741414158179601
 30
0.0
 70
    16
  0
VERTEX
  5
269
330
21A
100
AcDbEntity
  8
image
100
AcDbVertex
100
AcDb2dVertex
 10
2.873425486270843
 20
6.593281000047604
 30
0.0
 70
    16
  0
VERTEX
  5
26A
330
21A
100
AcDbEntity
  8
image
100
AcDbVertex
100
AcDb2dVertex
 10
2.957020689813894
 20
6.521113603264468
 30
0.0
 70
    16
  0
VERTEX
  5
26B
330
21A
100
AcDbEntity
  8
image
100
AcDbVertex
100
AcDb2dVertex
 10
3.082413561807801
 20
6.516049237174139
 30
0.0
 70
    16
  0
VERTEX
  5
26C
330
21A
100
AcDbEntity
  8
image
100
AcDbVertex
100
AcDb2dVertex
 10
3.178674769940357
 20
6.508452598040671
 30
0.0
 70
    16
  0
VERTEX
  5
26D
330
21A
100
AcDbEntity
  8
image
100
AcDbVertex
100
AcDb2dVertex
 10
3.253403756934893
 20
6.531242335445126
 30
0.0
 70
    16
  0
VERTEX
  5
26E
330
21A
100
AcDbEntity
  8
image
100
AcDbVertex
100
AcDb2dVertex
 10
3.304067508575613
 20
6.550233798281835
 30
0.0
 70
    16
  0
VERTEX
  5
26F
330
21A
100
AcDbEntity
  8
image
100
AcDbVertex
100
AcDb2dVertex
 10
3.337129118521254
 20
6.54770161523667
 30
0.0
 70
    16
  0
SEQEND
  5
270
330
21A
100
AcDbEntity
  8
image
  0
POLYLINE
  5
271
330
2
100
AcDbEntity
  8
image
100
AcDb2dPolyline
 66
     1
 10
0.0
 20
0.0
 30
0.0
 70
     4
 75
     6
  0
VERTEX
  5
272
330
271
100
AcDbEntity
  8
image
100
AcDbVertex
100
AcDb2dVertex
 10
2.726776037597959
 20
6.828542338554798
 30
0.0
 70
    16
  0
VERTEX
  5
273
330
271
100
AcDbEntity
  8
image
100
AcDbVertex
100
AcDb2dVertex
 10
2.726776037597957
 20
6.828542338554798
 30
0.0
 70
     8
  0
VERTEX
  5
274
330
271
100
AcDbEntity
  8
image
100
AcDbVertex
100
AcDb2dVertex
 10
2.735522467617794
 20
6.828502000398574
 30
0.0
 70
     8
  0
VERTEX
  5
275
330
271
100
AcDbEntity
  8
image
100
AcDbVertex
100
AcDb2dVertex
 10
2.743661221248407
 20
6.828243542007951
 30
0.0
 70
     8
  0
VERTEX
  5
276
330
271
100
AcDbEntity
  8
image
100
AcDbVertex
100
AcDb2dVertex
 10
2.751194195135372
 20
6.82777796985882
 30
0.0
 70
     8
  0
VERTEX
  5
277
330
271
100
AcDbEntity
  8
image
100
AcDbVertex
100
AcDb2dVertex
 10
2.758123285924259
 20
6.827116290427076
 30
0.0
 70
     8
  0
VERTEX
  5
278
330
271
100
AcDbEntity
  8
image
100
AcDbVertex
100
AcDb2dVertex
 10
2.764450390260646
 20
6.826269510188611
 30
0.0
 70
     8
  0
VERTEX
  5
279
330
271
100
AcDbEntity
  8
image
100
AcDbVertex
100
AcDb2dVertex
 10
2.770177404790103
 20
6.82524863561932
 30
0.0
 70
     8
  0
VERTEX
  5
27A
330
271
100
AcDbEntity
  8
image
100
AcDbVertex
100
AcDb2dVertex
 10
2.775306226158203
 20
6.824064673195096
 30
0.0
 70
     8
  0
VERTEX
  5
27B
330
271
100
AcDbEntity
  8
image
100
AcDbVertex
100
AcDb2dVertex
 10
2.779838751010519
 20
6.822728629391833
 30
0.0
 70
     8
  0
VERTEX
  5
27C
330
271
100
AcDbEntity
  8
image
100
AcDbVertex
100
AcDb2dVertex
 10
2.783790033981436
 20
6.821234840817353
 30
0.0
 70
     8
  0
VERTEX
  5
27D
330
271
100
AcDbEntity
  8
image
100
AcDbVertex
100
AcDb2dVertex
 10
2.787227761660579
 20
6.819510964607202
 30
0.0
 70
     8
  0
VERTEX
  5
27E
330
271
100
AcDbEntity
  8
image
100
AcDbVertex
100
AcDb2dVertex
 10
2.790232778626393
 20
6.817467988028858
 30
0.0
 70
     8
  0
VERTEX
  5
27F
330
271
100
AcDbEntity
  8
image
100
AcDbVertex
100
AcDb2dVertex
 10
2.792885929457316
 20
6.815016898349797
 30
0.0
 70
     8
  0
VERTEX
  5
280
330
271
100
AcDbEntity
  8
image
100
AcDbVertex
100
AcDb2dVertex
 10
2.795268058731789
 20
6.812068682837495
 30
0.0
 70
     8
  0
VERTEX
  5
281
330
271
100
AcDbEntity
  8
image
100
AcDbVertex
100
AcDb2dVertex
 10
2.797460011028249
 20
6.808534328759429
 30
0.0
 70
     8
  0
VERTEX
  5
282
330
271
100
AcDbEntity
  8
image
100
AcDbVertex
100
AcDb2dVertex
 10
2.799542630925138
 20
6.804324823383076
 30
0.0
 70
     8
  0
VERTEX
  5
283
330
271
100
AcDbEntity
  8
image
100
AcDbVertex
100
AcDb2dVertex
 10
2.801596763000894
 20
6.79935115397591
 30
0.0
 70
     8
  0
VERTEX
  5
284
330
271
100
AcDbEntity
  8
image
100
AcDbVertex
100
AcDb2dVertex
 10
2.803696718098402
 20
6.793530358503292
 30
0.0
 70
     8
  0
VERTEX
  5
285
330
271
100
AcDbEntity
  8
image
100
AcDbVertex
100
AcDb2dVertex
 10
2.805890672118312
 20
6.786803677722088
 30
0.0
 70
     8
  0
VERTEX
  5
286
330
271
100
AcDbEntity
  8
image
100
AcDbVertex
100
AcDb2dVertex
 10
2.808220267225721
 20
6.779118403087057
 30
0.0
 70
     8
  0
VERTEX
  5
287
330
271
100
AcDbEntity
  8
image
100
AcDbVertex
100
AcDb2dVertex
 10
2.810727145585717
 20
6.77042182605295
 30
0.0
 70
     8
  0
VERTEX
  5
288
330
271
100
AcDbEntity
  8
image
100
AcDbVertex
100
AcDb2dVertex
 10
2.8134529493634
 20
6.760661238074519
 30
0.0
 70
     8
  0
VERTEX
  5
289
330
271
100
AcDbEntity
  8
image
100
AcDbVertex
100
AcDb2dVertex
 10
2.81643932072386
 20
6.749783930606517
 30
0.0
 70
     8
  0
VERTEX
  5
28A
330
271
100
AcDbEntity
  8
image
100
AcDbVertex
100
AcDb2dVertex
 10
2.819727901832195
 20
6.737737195103696
 30
0.0
 70
     8
  0
VERTEX
  5
28B
330
271
100
AcDbEntity
  8
image
100
AcDbVertex
100
AcDb2dVertex
 10
2.823360334853497
 20
6.724468323020812
 30
0.0
 70
     8
  0
VERTEX
  5
28C
330
271
100
AcDbEntity
  8
image
100
AcDbVertex
100
AcDb2dVertex
 10
2.827378595814106
 20
6.709984157209846
 30
0.0
 70
     8
  0
VERTEX
  5
28D
330
271
100
AcDbEntity
  8
image
100
AcDbVertex
100
AcDb2dVertex
 10
2.831825996185365
 20
6.694529746111711
 30
0.0
 70
     8
  0
VERTEX
  5
28E
330
271
100
AcDbEntity
  8
image
100
AcDbVertex
100
AcDb2dVertex
 10
2.836746181299853
 20
6.678409689564545
 30
0.0
 70
     8
  0
VERTEX
  5
28F
330
271
100
AcDbEntity
  8
image
100
AcDbVertex
100
AcDb2dVertex
 10
2.842182796490156
 20
6.661928587406491
 30
0.0
 70
     8
  0
VERTEX
  5
290
330
271
100
AcDbEntity
  8
image
100
AcDbVertex
100
AcDb2dVertex
 10
2.848179487088859
 20
6.645391039475692
 30
0.0
 70
     8
  0
VERTEX
  5
291
330
271
100
AcDbEntity
  8
image
100
AcDbVertex
100
AcDb2dVertex
 10
2.854779898428549
 20
6.629101645610288
 30
0.0
 70
     8
  0
VERTEX
  5
292
330
271
100
AcDbEntity
  8
image
100
AcDbVertex
100
AcDb2dVertex
 10
2.862027675841806
 20
6.613365005648417
 30
0.0
 70
     8
  0
VERTEX
  5
293
330
271
100
AcDbEntity
  8
image
100
AcDbVertex
100
AcDb2dVertex
 10
2.869966464661221
 20
6.598485719428228
 30
0.0
 70
     8
  0
VERTEX
  5
294
330
271
100
AcDbEntity
  8
image
100
AcDbVertex
100
AcDb2dVertex
 10
2.878630260490911
 20
6.584716972350025
 30
0.0
 70
     8
  0
VERTEX
  5
295
330
271
100
AcDbEntity
  8
image
100
AcDbVertex
100
AcDb2dVertex
 10
2.888014460021167
 20
6.572106292062785
 30
0.0
 70
     8
  0
VERTEX
  5
296
330
271
100
AcDbEntity
  8
image
100
AcDbVertex
100
AcDb2dVertex
 10
2.898104810213807
 20
6.560649791777657
 30
0.0
 70
     8
  0
VERTEX
  5
297
330
271
100
AcDbEntity
  8
image
100
AcDbVertex
100
AcDb2dVertex
 10
2.908887058030655
 20
6.550343584705784
 30
0.0
 70
     8
  0
VERTEX
  5
298
330
271
100
AcDbEntity
  8
image
100
AcDbVertex
100
AcDb2dVertex
 10
2.920346950433534
 20
6.541183784058318
 30
0.0
 70
     8
  0
VERTEX
  5
299
330
271
100
AcDbEntity
  8
image
100
AcDbVertex
100
AcDb2dVertex
 10
2.932470234384268
 20
6.533166503046397
 30
0.0
 70
     8
  0
VERTEX
  5
29A
330
271
100
AcDbEntity
  8
image
100
AcDbVertex
100
AcDb2dVertex
 10
2.945242656844678
 20
6.526287854881172
 30
0.0
 70
     8
  0
VERTEX
  5
29B
330
271
100
AcDbEntity
  8
image
100
AcDbVertex
100
AcDb2dVertex
 10
2.958649964776588
 20
6.520543952773787
 30
0.0
 70
     8
  0
VERTEX
  5
29C
330
271
100
AcDbEntity
  8
image
100
AcDbVertex
100
AcDb2dVertex
 10
2.97265720086589
 20
6.515907173474056
 30
0.0
 70
     8
  0
VERTEX
  5
29D
330
271
100
AcDbEntity
  8
image
100
AcDbVertex
100
AcDb2dVertex
 10
2.987146590694752
 20
6.512254947886458
 30
0.0
 70
     8
  0
VERTEX
  5
29E
330
271
100
AcDbEntity
  8
image
100
AcDbVertex
100
AcDb2dVertex
 10
3.00197965556941
 20
6.50944097045414
 30
0.0
 70
     8
  0
VERTEX
  5
29F
330
271
100
AcDbEntity
  8
image
100
AcDbVertex
100
AcDb2dVertex
 10
3.017017916796103
 20
6.507318935620252
 30
0.0
 70
     8
  0
VERTEX
  5
2A0
330
271
100
AcDbEntity
  8
image
100
AcDbVertex
100
AcDb2dVertex
 10
3.032122895681061
 20
6.505742537827942
 30
0.0
 70
     8
  0
VERTEX
  5
2A1
330
271
100
AcDbEntity
  8
image
100
AcDbVertex
100
AcDb2dVertex
 10
3.047156113530524
 20
6.504565471520358
 30
0.0
 70
     8
  0
VERTEX
  5
2A2
330
271
100
AcDbEntity
  8
image
100
AcDbVertex
100
AcDb2dVertex
 10
3.06197909165073
 20
6.503641431140644
 30
0.0
 70
     8
  0
VERTEX
  5
2A3
330
271
100
AcDbEntity
  8
image
100
AcDbVertex
100
AcDb2dVertex
 10
3.076453351347913
 20
6.50282411113195
 30
0.0
 70
     8
  0
VERTEX
  5
2A4
330
271
100
AcDbEntity
  8
image
100
AcDbVertex
100
AcDb2dVertex
 10
3.090466807461769
 20
6.502002631263009
 30
0.0
 70
     8
  0
VERTEX
  5
2A5
330
271
100
AcDbEntity
  8
image
100
AcDbVertex
100
AcDb2dVertex
 10
3.10401294896582
 20
6.5012078126049
 30
0.0
 70
     8
  0
VERTEX
  5
2A6
330
271
100
AcDbEntity
  8
image
100
AcDbVertex
100
AcDb2dVertex
 10
3.117111658367051
 20
6.500505901554288
 30
0.0
 70
     8
  0
VERTEX
  5
2A7
330
271
100
AcDbEntity
  8
image
100
AcDbVertex
100
AcDb2dVertex
 10
3.12978281817244
 20
6.499963144507836
 30
0.0
 70
     8
  0
VERTEX
  5
2A8
330
271
100
AcDbEntity
  8
image
100
AcDbVertex
100
AcDb2dVertex
 10
3.142046310888972
 20
6.499645787862212
 30
0.0
 70
     8
  0
VERTEX
  5
2A9
330
271
100
AcDbEntity
  8
image
100
AcDbVertex
100
AcDb2dVertex
 10
3.153922019023625
 20
6.499620078014076
 30
0.0
 70
     8
  0
VERTEX
  5
2AA
330
271
100
AcDbEntity
  8
image
100
AcDbVertex
100
AcDb2dVertex
 10
3.165429825083386
 20
6.499952261360096
 30
0.0
 70
     8
  0
VERTEX
  5
2AB
330
271
100
AcDbEntity
  8
image
100
AcDbVertex
100
AcDb2dVertex
 10
3.176589611575234
 20
6.500708584296934
 30
0.0
 70
     8
  0
VERTEX
  5
2AC
330
271
100
AcDbEntity
  8
image
100
AcDbVertex
100
AcDb2dVertex
 10
3.187423201375503
 20
6.501935204468805
 30
0.0
 70
     8
  0
VERTEX
  5
2AD
330
271
100
AcDbEntity
  8
image
100
AcDbVertex
100
AcDb2dVertex
 10
3.197960178837941
 20
6.503597924510112
 30
0.0
 70
     8
  0
VERTEX
  5
2AE
330
271
100
AcDbEntity
  8
image
100
AcDbVertex
100
AcDb2dVertex
 10
3.208232068685646
 20
6.505642458302808
 30
0.0
 70
     8
  0
VERTEX
  5
2AF
330
271
100
AcDbEntity
  8
image
100
AcDbVertex
100
AcDb2dVertex
 10
3.218270395641717
 20
6.508014519728843
 30
0.0
 70
     8
  0
VERTEX
  5
2B0
330
271
100
AcDbEntity
  8
image
100
AcDbVertex
100
AcDb2dVertex
 10
3.228106684429256
 20
6.510659822670171
 30
0.0
 70
     8
  0
VERTEX
  5
2B1
330
271
100
AcDbEntity
  8
image
100
AcDbVertex
100
AcDb2dVertex
 10
3.23777245977136
 20
6.513524081008745
 30
0.0
 70
     8
  0
VERTEX
  5
2B2
330
271
100
AcDbEntity
  8
image
100
AcDbVertex
100
AcDb2dVertex
 10
3.247299246391129
 20
6.516553008626516
 30
0.0
 70
     8
  0
VERTEX
  5
2B3
330
271
100
AcDbEntity
  8
image
100
AcDbVertex
100
AcDb2dVertex
 10
3.256718569011662
 20
6.519692319405437
 30
0.0
 70
     8
  0
VERTEX
  5
2B4
330
271
100
AcDbEntity
  8
image
100
AcDbVertex
100
AcDb2dVertex
 10
3.26607008212591
 20
6.52287337084534
 30
0.0
 70
     8
  0
VERTEX
  5
2B5
330
271
100
AcDbEntity
  8
image
100
AcDbVertex
100
AcDb2dVertex
 10
3.275425959306234
 20
6.525970094917586
 30
0.0
 70
     8
  0
VERTEX
  5
2B6
330
271
100
AcDbEntity
  8
image
100
AcDbVertex
100
AcDb2dVertex
 10
3.284866503894848
 20
6.528842067211416
 30
0.0
 70
     8
  0
VERTEX
  5
2B7
330
271
100
AcDbEntity
  8
image
100
AcDbVertex
100
AcDb2dVertex
 10
3.294472019233962
 20
6.531348863316071
 30
0.0
 70
     8
  0
VERTEX
  5
2B8
330
271
100
AcDbEntity
  8
image
100
AcDbVertex
100
AcDb2dVertex
 10
3.304322808665791
 20
6.533350058820791
 30
0.0
 70
     8
  0
VERTEX
  5
2B9
330
271
100
AcDbEntity
  8
image
100
AcDbVertex
100
AcDb2dVertex
 10
3.314499175532546
 20
6.534705229314816
 30
0.0
 70
     8
  0
VERTEX
  5
2BA
330
271
100
AcDbEntity
  8
image
100
AcDbVertex
100
AcDb2dVertex
 10
3.325081423176438
 20
6.535273950387391
 30
0.0
 70
     8
  0
VERTEX
  5
2BB
330
271
100
AcDbEntity
  8
image
100
AcDbVertex
100
AcDb2dVertex
 10
3.336149854939682
 20
6.534915797627752
 30
0.0
 70
     8
  0
VERTEX
  5
2BC
330
271
100
AcDbEntity
  8
image
100
AcDbVertex
100
AcDb2dVertex
 10
2.750911772076991
 20
6.82873538065153
 30
0.0
 70
    16
  0
VERTEX
  5
2BD
330
271
100
AcDbEntity
  8
image
100
AcDbVertex
100
AcDb2dVertex
 10
2.786179016292766
 20
6.824233428358728
 30
0.0
 70
    16
  0
VERTEX
  5
2BE
330
271
100
AcDbEntity
  8
image
100
AcDbVertex
100
AcDb2dVertex
 10
2.801038290922939
 20
6.808451706118149
 30
0.0
 70
    16
  0
VERTEX
  5
2BF
330
271
100
AcDbEntity
  8
image
100
AcDbVertex
100
AcDb2dVertex
 10
2.819248398020842
 20
6.738066671024141
 30
0.0
 70
    16
  0
VERTEX
  5
2C0
330
271
100
AcDbEntity
  8
image
100
AcDbVertex
100
AcDb2dVertex
 10
2.862130126114667
 20
6.586091547910157
 30
0.0
 70
    16
  0
VERTEX
  5
2C1
330
271
100
AcDbEntity
  8
image
100
AcDbVertex
100
AcDb2dVertex
 10
2.952029885487808
 20
6.5084814539046
 30
0.0
 70
    16
  0
VERTEX
  5
2C2
330
271
100
AcDbEntity
  8
image
100
AcDbVertex
100
AcDb2dVertex
 10
3.081650120593627
 20
6.503246353114163
 30
0.0
 70
    16
  0
VERTEX
  5
2C3
330
271
100
AcDbEntity
  8
image
100
AcDbVertex
100
AcDb2dVertex
 10
3.180089740225163
 20
6.49547780043044
 30
0.0
 70
    16
  0
VERTEX
  5
2C4
330
271
100
AcDbEntity
  8
image
100
AcDbVertex
100
AcDb2dVertex
 10
3.257528587957118
 20
6.519093950945685
 30
0.0
 70
    16
  0
VERTEX
  5
2C5
330
271
100
AcDbEntity
  8
image
100
AcDbVertex
100
AcDb2dVertex
 10
3.305914410663262
 20
6.537231525128187
 30
0.0
 70
    16
  0
VERTEX
  5
2C6
330
271
100
AcDbEntity
  8
image
100
AcDbVertex
100
AcDb2dVertex
 10
3.336149854939682
 20
6.534915797627752
 30
0.0
 70
    16
  0
SEQEND
  5
2C7
330
271
100
AcDbEntity
  8
image
  0
POLYLINE
  5
2C8
330
2
100
AcDbEntity
  8
image
100
AcDb2dPolyline
 66
     1
 10
0.0
 20
0.0
 30
0.0
 70
     4
 75
     6
  0
VERTEX
  5
2C9
330
2C8
100
AcDbEntity
  8
image
100
AcDbVertex
100
AcDb2dVertex
 10
3.268599215744789
 20
6.637700580945296
 30
0.0
 70
    16
  0
VERTEX
  5
2CA
330
2C8
100
AcDbEntity
  8
image
100
AcDbVertex
100
AcDb2dVertex
 10
3.268599215744789
 20
6.637700580945296
 30
0.0
 70
     8
  0
VERTEX
  5
2CB
330
2C8
100
AcDbEntity
  8
image
100
AcDbVertex
100
AcDb2dVertex
 10
3.300900936946227
 20
6.639444604594021
 30
0.0
 70
     8
  0
VERTEX
  5
2CC
330
2C8
100
AcDbEntity
  8
image
100
AcDbVertex
100
AcDb2dVertex
 10
3.332182293944608
 20
6.640956091666407
 30
0.0
 70
     8
  0
VERTEX
  5
2CD
330
2C8
100
AcDbEntity
  8
image
100
AcDbVertex
100
AcDb2dVertex
 10
3.362411812709868
 20
6.642235042074569
 30
0.0
 70
     8
  0
VERTEX
  5
2CE
330
2C8
100
AcDbEntity
  8
image
100
AcDbVertex
100
AcDb2dVertex
 10
3.391558019211945
 20
6.643281455730611
 30
0.0
 70
     8
  0
VERTEX
  5
2CF
330
2C8
100
AcDbEntity
  8
image
100
AcDbVertex
100
AcDb2dVertex
 10
3.419589439420768
 20
6.644095332546652
 30
0.0
 70
     8
  0
VERTEX
  5
2D0
330
2C8
100
AcDbEntity
  8
image
100
AcDbVertex
100
AcDb2dVertex
 10
3.446474599306275
 20
6.644676672434798
 30
0.0
 70
     8
  0
VERTEX
  5
2D1
330
2C8
100
AcDbEntity
  8
image
100
AcDbVertex
100
AcDb2dVertex
 10
3.472182024838399
 20
6.645025475307163
 30
0.0
 70
     8
  0
VERTEX
  5
2D2
330
2C8
100
AcDbEntity
  8
image
100
AcDbVertex
100
AcDb2dVertex
 10
3.496680241987071
 20
6.645141741075858
 30
0.0
 70
     8
  0
VERTEX
  5
2D3
330
2C8
100
AcDbEntity
  8
image
100
AcDbVertex
100
AcDb2dVertex
 10
3.51994221466678
 20
6.645025469711587
 30
0.0
 70
     8
  0
VERTEX
  5
2D4
330
2C8
100
AcDbEntity
  8
image
100
AcDbVertex
100
AcDb2dVertex
 10
3.541958658570202
 20
6.644676661419421
 30
0.0
 70
     8
  0
VERTEX
  5
2D5
330
2C8
100
AcDbEntity
  8
image
100
AcDbVertex
100
AcDb2dVertex
 10
3.562724727334568
 20
6.64409531646303
 30
0.0
 70
     8
  0
VERTEX
  5
2D6
330
2C8
100
AcDbEntity
  8
image
100
AcDbVertex
100
AcDb2dVertex
 10
3.582235574597108
 20
6.643281435106076
 30
0.0
 70
     8
  0
VERTEX
  5
2D7
330
2C8
100
AcDbEntity
  8
image
100
AcDbVertex
100
AcDb2dVertex
 10
3.600486353995052
 20
6.642235017612227
 30
0.0
 70
     8
  0
VERTEX
  5
2D8
330
2C8
100
AcDbEntity
  8
image
100
AcDbVertex
100
AcDb2dVertex
 10
3.617472219165625
 20
6.640956064245149
 30
0.0
 70
     8
  0
VERTEX
  5
2D9
330
2C8
100
AcDbEntity
  8
image
100
AcDbVertex
100
AcDb2dVertex
 10
3.633188323746061
 20
6.63944457526851
 30
0.0
 70
     8
  0
VERTEX
  5
2DA
330
2C8
100
AcDbEntity
  8
image
100
AcDbVertex
100
AcDb2dVertex
 10
3.647629821373586
 20
6.63770055094597
 30
0.0
 70
     8
  0
VERTEX
  5
2DB
330
2C8
100
AcDbEntity
  8
image
100
AcDbVertex
100
AcDb2dVertex
 10
3.660810443626441
 20
6.635719954390793
 30
0.0
 70
     8
  0
VERTEX
  5
2DC
330
2C8
100
AcDbEntity
  8
image
100
AcDbVertex
100
AcDb2dVertex
 10
3.672818233846902
 20
6.633482600114618
 30
0.0
 70
     8
  0
VERTEX
  5
2DD
330
2C8
100
AcDbEntity
  8
image
100
AcDbVertex
100
AcDb2dVertex
 10
3.68375981331825
 20
6.630964265478675
 30
0.0
 70
     8
  0
VERTEX
  5
2DE
330
2C8
100
AcDbEntity
  8
image
100
AcDbVertex
100
AcDb2dVertex
 10
3.693741803323771
 20
6.628140727844191
 30
0.0
 70
     8
  0
VERTEX
  5
2DF
330
2C8
100
AcDbEntity
  8
image
100
AcDbVertex
100
AcDb2dVertex
 10
3.702870825146746
 20
6.624987764572401
 30
0.0
 70
     8
  0
VERTEX
  5
2E0
330
2C8
100
AcDbEntity
  8
image
100
AcDbVertex
100
AcDb2dVertex
 10
3.711253500070464
 20
6.621481153024536
 30
0.0
 70
     8
  0
VERTEX
  5
2E1
330
2C8
100
AcDbEntity
  8
image
100
AcDbVertex
100
AcDb2dVertex
 10
3.718996449378206
 20
6.617596670561827
 30
0.0
 70
     8
  0
VERTEX
  5
2E2
330
2C8
100
AcDbEntity
  8
image
100
AcDbVertex
100
AcDb2dVertex
 10
3.726206294353255
 20
6.613310094545505
 30
0.0
 70
     8
  0
VERTEX
  5
2E3
330
2C8
100
AcDbEntity
  8
image
100
AcDbVertex
100
AcDb2dVertex
 10
3.732980771085136
 20
6.608608506193877
 30
0.0
 70
     8
  0
VERTEX
  5
2E4
330
2C8
100
AcDbEntity
  8
image
100
AcDbVertex
100
AcDb2dVertex
 10
3.739382074888322
 20
6.603524202153562
 30
0.0
 70
     8
  0
VERTEX
  5
2E5
330
2C8
100
AcDbEntity
  8
image
100
AcDbVertex
100
AcDb2dVertex
 10
3.745463515883516
 20
6.598100782928257
 30
0.0
 70
     8
  0
VERTEX
  5
2E6
330
2C8
100
AcDbEntity
  8
image
100
AcDbVertex
100
AcDb2dVertex
 10
3.751278404191433
 20
6.592381849021657
 30
0.0
 70
     8
  0
VERTEX
  5
2E7
330
2C8
100
AcDbEntity
  8
image
100
AcDbVertex
100
AcDb2dVertex
 10
3.756880049932782
 20
6.586411000937459
 30
0.0
 70
     8
  0
VERTEX
  5
2E8
330
2C8
100
AcDbEntity
  8
image
100
AcDbVertex
100
AcDb2dVertex
 10
3.762321763228275
 20
6.580231839179353
 30
0.0
 70
     8
  0
VERTEX
  5
2E9
330
2C8
100
AcDbEntity
  8
image
100
AcDbVertex
100
AcDb2dVertex
 10
3.767656854198616
 20
6.573887964251043
 30
0.0
 70
     8
  0
VERTEX
  5
2EA
330
2C8
100
AcDbEntity
  8
image
100
AcDbVertex
100
AcDb2dVertex
 10
3.772938632964521
 20
6.567422976656219
 30
0.0
 70
     8
  0
VERTEX
  5
2EB
330
2C8
100
AcDbEntity
  8
image
100
AcDbVertex
100
AcDb2dVertex
 10
3.778204255104126
 20
6.56084979505939
 30
0.0
 70
     8
  0
VERTEX
  5
2EC
330
2C8
100
AcDbEntity
  8
image
100
AcDbVertex
100
AcDb2dVertex
 10
3.783426258025301
 20
6.554058610768305
 30
0.0
 70
     8
  0
VERTEX
  5
2ED
330
2C8
100
AcDbEntity
  8
image
100
AcDbVertex
100
AcDb2dVertex
 10
3.788561024593342
 20
6.546908933251525
 30
0.0
 70
     8
  0
VERTEX
  5
2EE
330
2C8
100
AcDbEntity
  8
image
100
AcDbVertex
100
AcDb2dVertex
 10
3.793564937673547
 20
6.539260271977611
 30
0.0
 70
     8
  0
VERTEX
  5
2EF
330
2C8
100
AcDbEntity
  8
image
100
AcDbVertex
100
AcDb2dVertex
 10
3.798394380131213
 20
6.530972136415123
 30
0.0
 70
     8
  0
VERTEX
  5
2F0
330
2C8
100
AcDbEntity
  8
image
100
AcDbVertex
100
AcDb2dVertex
 10
3.803005734831637
 20
6.521904036032625
 30
0.0
 70
     8
  0
VERTEX
  5
2F1
330
2C8
100
AcDbEntity
  8
image
100
AcDbVertex
100
AcDb2dVertex
 10
3.80735538464012
 20
6.511915480298674
 30
0.0
 70
     8
  0
VERTEX
  5
2F2
330
2C8
100
AcDbEntity
  8
image
100
AcDbVertex
100
AcDb2dVertex
 10
3.811399712421954
 20
6.500865978681833
 30
0.0
 70
     8
  0
VERTEX
  5
2F3
330
2C8
100
AcDbEntity
  8
image
100
AcDbVertex
100
AcDb2dVertex
 10
3.815106813031539
 20
6.488650566985378
 30
0.0
 70
     8
  0
VERTEX
  5
2F4
330
2C8
100
AcDbEntity
  8
image
100
AcDbVertex
100
AcDb2dVertex
 10
3.818491629279664
 20
6.475306386351459
 30
0.0
 70
     8
  0
VERTEX
  5
2F5
330
2C8
100
AcDbEntity
  8
image
100
AcDbVertex
100
AcDb2dVertex
 10
3.821580815966218
 20
6.460906104256933
 30
0.0
 70
     8
  0
VERTEX
  5
2F6
330
2C8
100
AcDbEntity
  8
image
100
AcDbVertex
100
AcDb2dVertex
 10
3.82440102789109
 20
6.445522388178669
 30
0.0
 70
     8
  0
VERTEX
  5
2F7
330
2C8
100
AcDbEntity
  8
image
100
AcDbVertex
100
AcDb2dVertex
 10
3.826978919854168
 20
6.429227905593529
 30
0.0
 70
     8
  0
VERTEX
  5
2F8
330
2C8
100
AcDbEntity
  8
image
100
AcDbVertex
100
AcDb2dVertex
 10
3.829341146655341
 20
6.412095323978374
 30
0.0
 70
     8
  0
VERTEX
  5
2F9
330
2C8
100
AcDbEntity
  8
image
100
AcDbVertex
100
AcDb2dVertex
 10
3.831514363094498
 20
6.394197310810071
 30
0.0
 70
     8
  0
VERTEX
  5
2FA
330
2C8
100
AcDbEntity
  8
image
100
AcDbVertex
100
AcDb2dVertex
 10
3.83352522397153
 20
6.37560653356548
 30
0.0
 70
     8
  0
VERTEX
  5
2FB
330
2C8
100
AcDbEntity
  8
image
100
AcDbVertex
100
AcDb2dVertex
 10
3.83539391605335
 20
6.356449756766411
 30
0.0
 70
     8
  0
VERTEX
  5
2FC
330
2C8
100
AcDbEntity
  8
image
100
AcDbVertex
100
AcDb2dVertex
 10
3.837114753974983
 20
6.337070133114466
 30
0.0
 70
     8
  0
VERTEX
  5
2FD
330
2C8
100
AcDbEntity
  8
image
100
AcDbVertex
100
AcDb2dVertex
 10
3.838675584338483
 20
6.317864912356192
 30
0.0
 70
     8
  0
VERTEX
  5
2FE
330
2C8
100
AcDbEntity
  8
image
100
AcDbVertex
100
AcDb2dVertex
 10
3.840064253745902
 20
6.299231344238132
 30
0.0
 70
     8
  0
VERTEX
  5
2FF
330
2C8
100
AcDbEntity
  8
image
100
AcDbVertex
100
AcDb2dVertex
 10
3.841268608799293
 20
6.281566678506835
 30
0.0
 70
     8
  0
VERTEX
  5
300
330
2C8
100
AcDbEntity
  8
image
100
AcDbVertex
100
AcDb2dVertex
 10
3.842276496100708
 20
6.265268164908845
 30
0.0
 70
     8
  0
VERTEX
  5
301
330
2C8
100
AcDbEntity
  8
image
100
AcDbVertex
100
AcDb2dVertex
 10
3.843075762252198
 20
6.250733053190711
 30
0.0
 70
     8
  0
VERTEX
  5
302
330
2C8
100
AcDbEntity
  8
image
100
AcDbVertex
100
AcDb2dVertex
 10
3.843654253855817
 20
6.238358593098978
 30
0.0
 70
     8
  0
VERTEX
  5
303
330
2C8
100
AcDbEntity
  8
image
100
AcDbVertex
100
AcDb2dVertex
 10
3.356069647637079
 20
6.642661359365559
 30
0.0
 70
    16
  0
VERTEX
  5
304
330
2C8
100
AcDbEntity
  8
image
100
AcDbVertex
100
AcDb2dVertex
 10
3.509914187731231
 20
6.647622137785821
 30
0.0
 70
    16
  0
VERTEX
  5
305
330
2C8
100
AcDbEntity
  8
image
100
AcDbVertex
100
AcDb2dVertex
 10
3.661277323407503
 20
6.640180925156438
 30
0.0
 70
    16
  0
VERTEX
  5
306
330
2C8
100
AcDbEntity
  8
image
100
AcDbVertex
100
AcDb2dVertex
 10
3.730755446880268
 20
6.617857467264246
 30
0.0
 70
    16
  0
VERTEX
  5
307
330
2C8
100
AcDbEntity
  8
image
100
AcDbVertex
100
AcDb2dVertex
 10
3.772938655190962
 20
6.568249773059596
 30
0.0
 70
    16
  0
VERTEX
  5
308
330
2C8
100
AcDbEntity
  8
image
100
AcDbVertex
100
AcDb2dVertex
 10
3.815121730143005
 20
6.513681300434683
 30
0.0
 70
    16
  0
VERTEX
  5
309
330
2C8
100
AcDbEntity
  8
image
100
AcDbVertex
100
AcDb2dVertex
 10
3.834972698768739
 20
6.382220897292665
 30
0.0
 70
    16
  0
VERTEX
  5
30A
330
2C8
100
AcDbEntity
  8
image
100
AcDbVertex
100
AcDb2dVertex
 10
3.842416778663725
 20
6.268123173622577
 30
0.0
 70
    16
  0
VERTEX
  5
30B
330
2C8
100
AcDbEntity
  8
image
100
AcDbVertex
100
AcDb2dVertex
 10
3.843654253855817
 20
6.238358593098978
 30
0.0
 70
    16
  0
SEQEND
  5
30C
330
2C8
100
AcDbEntity
  8
image
  0
POLYLINE
  5
30D
330
2
100
AcDbEntity
  8
image
100
AcDb2dPolyline
 66
     1
 10
0.0
 20
0.0
 30
0.0
 70
     4
 75
     6
  0
VERTEX
  5
30E
330
30D
100
AcDbEntity
  8
image
100
AcDbVertex
100
AcDb2dVertex
 10
3.623420843855804
 20
6.545926315167402
 30
0.0
 70
    16
  0
VERTEX
  5
30F
330
30D
100
AcDbEntity
  8
image
100
AcDbVertex
100
AcDb2dVertex
 10
3.623420843855804
 20
6.545926315167402
 30
0.0
 70
     8
  0
VERTEX
  5
310
330
30D
100
AcDbEntity
  8
image
100
AcDbVertex
100
AcDb2dVertex
 10
3.63871482361983
 20
6.547389761953144
 30
0.0
 70
     8
  0
VERTEX
  5
311
330
30D
100
AcDbEntity
  8
image
100
AcDbVertex
100
AcDb2dVertex
 10
3.65257298478764
 20
6.548099889208227
 30
0.0
 70
     8
  0
VERTEX
  5
312
330
30D
100
AcDbEntity
  8
image
100
AcDbVertex
100
AcDb2dVertex
 10
3.665131209580241
 20
6.548117253002244
 30
0.0
 70
     8
  0
VERTEX
  5
313
330
30D
100
AcDbEntity
  8
image
100
AcDbVertex
100
AcDb2dVertex
 10
3.676525380218633
 20
6.547502409404784
 30
0.0
 70
     8
  0
VERTEX
  5
314
330
30D
100
AcDbEntity
  8
image
100
AcDbVertex
100
AcDb2dVertex
 10
3.686891378923826
 20
6.546315914485441
 30
0.0
 70
     8
  0
VERTEX
  5
315
330
30D
100
AcDbEntity
  8
image
100
AcDbVertex
100
AcDb2dVertex
 10
3.696365087916824
 20
6.544618324313798
 30
0.0
 70
     8
  0
VERTEX
  5
316
330
30D
100
AcDbEntity
  8
image
100
AcDbVertex
100
AcDb2dVertex
 10
3.705082389418627
 20
6.542470194959453
 30
0.0
 70
     8
  0
VERTEX
  5
317
330
30D
100
AcDbEntity
  8
image
100
AcDbVertex
100
AcDb2dVertex
 10
3.713179165650251
 20
6.539932082491991
 30
0.0
 70
     8
  0
VERTEX
  5
318
330
30D
100
AcDbEntity
  8
image
100
AcDbVertex
100
AcDb2dVertex
 10
3.720773094371033
 20
6.53705889109641
 30
0.0
 70
     8
  0
VERTEX
  5
319
330
30D
100
AcDbEntity
  8
image
100
AcDbVertex
100
AcDb2dVertex
 10
3.727909035493688
 20
6.533882917419327
 30
0.0
 70
     8
  0
VERTEX
  5
31A
330
30D
100
AcDbEntity
  8
image
100
AcDbVertex
100
AcDb2dVertex
 10
3.734613644469272
 20
6.530430806222767
 30
0.0
 70
     8
  0
VERTEX
  5
31B
330
30D
100
AcDbEntity
  8
image
100
AcDbVertex
100
AcDb2dVertex
 10
3.740913576748837
 20
6.526729202268753
 30
0.0
 70
     8
  0
VERTEX
  5
31C
330
30D
100
AcDbEntity
  8
image
100
AcDbVertex
100
AcDb2dVertex
 10
3.746835487783439
 20
6.522804750319312
 30
0.0
 70
     8
  0
VERTEX
  5
31D
330
30D
100
AcDbEntity
  8
image
100
AcDbVertex
100
AcDb2dVertex
 10
3.752406033024129
 20
6.518684095136463
 30
0.0
 70
     8
  0
VERTEX
  5
31E
330
30D
100
AcDbEntity
  8
image
100
AcDbVertex
100
AcDb2dVertex
 10
3.757651867921966
 20
6.514393881482233
 30
0.0
 70
     8
  0
VERTEX
  5
31F
330
30D
100
AcDbEntity
  8
image
100
AcDbVertex
100
AcDb2dVertex
 10
3.762599647927999
 20
6.509960754118644
 30
0.0
 70
     8
  0
VERTEX
  5
320
330
30D
100
AcDbEntity
  8
image
100
AcDbVertex
100
AcDb2dVertex
 10
3.767268355009596
 20
6.505390768734685
 30
0.0
 70
     8
  0
VERTEX
  5
321
330
30D
100
AcDbEntity
  8
image
100
AcDbVertex
100
AcDb2dVertex
 10
3.771646277199362
 20
6.500607624727203
 30
0.0
 70
     8
  0
VERTEX
  5
322
330
30D
100
AcDbEntity
  8
image
100
AcDbVertex
100
AcDb2dVertex
 10
3.775714029046216
 20
6.49551443242001
 30
0.0
 70
     8
  0
VERTEX
  5
323
330
30D
100
AcDbEntity
  8
image
100
AcDbVertex
100
AcDb2dVertex
 10
3.779452225099076
 20
6.490014302136917
 30
0.0
 70
     8
  0
VERTEX
  5
324
330
30D
100
AcDbEntity
  8
image
100
AcDbVertex
100
AcDb2dVertex
 10
3.782841479906856
 20
6.484010344201736
 30
0.0
 70
     8
  0
VERTEX
  5
325
330
30D
100
AcDbEntity
  8
image
100
AcDbVertex
100
AcDb2dVertex
 10
3.785862408018479
 20
6.477405668938272
 30
0.0
 70
     8
  0
VERTEX
  5
326
330
30D
100
AcDbEntity
  8
image
100
AcDbVertex
100
AcDb2dVertex
 10
3.788495623982857
 20
6.470103386670346
 30
0.0
 70
     8
  0
VERTEX
  5
327
330
30D
100
AcDbEntity
  8
image
100
AcDbVertex
100
AcDb2dVertex
 10
3.790721742348912
 20
6.46200660772176
 30
0.0
 70
     8
  0
VERTEX
  5
328
330
30D
100
AcDbEntity
  8
image
100
AcDbVertex
100
AcDb2dVertex
 10
3.792539955498041
 20
6.453043472195147
 30
0.0
 70
     8
  0
VERTEX
  5
329
330
30D
100
AcDbEntity
  8
image
100
AcDbVertex
100
AcDb2dVertex
 10
3.794023767141567
 20
6.443242239308406
 30
0.0
 70
     8
  0
VERTEX
  5
32A
330
30D
100
AcDbEntity
  8
image
100
AcDbVertex
100
AcDb2dVertex
 10
3.795265258823302
 20
6.432656198058251
 30
0.0
 70
     8
  0
VERTEX
  5
32B
330
30D
100
AcDbEntity
  8
image
100
AcDbVertex
100
AcDb2dVertex
 10
3.796356512087051
 20
6.421338637441398
 30
0.0
 70
     8
  0
VERTEX
  5
32C
330
30D
100
AcDbEntity
  8
image
100
AcDbVertex
100
AcDb2dVertex
 10
3.797389608476619
 20
6.409342846454564
 30
0.0
 70
     8
  0
VERTEX
  5
32D
330
30D
100
AcDbEntity
  8
image
100
AcDbVertex
100
AcDb2dVertex
 10
3.798456629535815
 20
6.396722114094465
 30
0.0
 70
     8
  0
VERTEX
  5
32E
330
30D
100
AcDbEntity
  8
image
100
AcDbVertex
100
AcDb2dVertex
 10
3.799649656808444
 20
6.383529729357816
 30
0.0
 70
     8
  0
VERTEX
  5
32F
330
30D
100
AcDbEntity
  8
image
100
AcDbVertex
100
AcDb2dVertex
 10
3.801060771838317
 20
6.369818981241333
 30
0.0
 70
     8
  0
VERTEX
  5
330
330
30D
100
AcDbEntity
  8
image
100
AcDbVertex
100
AcDb2dVertex
 10
3.802769940110371
 20
6.355633693871896
 30
0.0
 70
     8
  0
VERTEX
  5
331
330
30D
100
AcDbEntity
  8
image
100
AcDbVertex
100
AcDb2dVertex
 10
3.804808662874091
 20
6.340979831897032
 30
0.0
 70
     8
  0
VERTEX
  5
332
330
30D
100
AcDbEntity
  8
image
100
AcDbVertex
100
AcDb2dVertex
 10
3.80719632532009
 20
6.325853895094433
 30
0.0
 70
     8
  0
VERTEX
  5
333
330
30D
100
AcDbEntity
  8
image
100
AcDbVertex
100
AcDb2dVertex
 10
3.809952312638987
 20
6.310252383241794
 30
0.0
 70
     8
  0
VERTEX
  5
334
330
30D
100
AcDbEntity
  8
image
100
AcDbVertex
100
AcDb2dVertex
 10
3.813096010021396
 20
6.294171796116807
 30
0.0
 70
     8
  0
VERTEX
  5
335
330
30D
100
AcDbEntity
  8
image
100
AcDbVertex
100
AcDb2dVertex
 10
3.816646802657936
 20
6.277608633497162
 30
0.0
 70
     8
  0
VERTEX
  5
336
330
30D
100
AcDbEntity
  8
image
100
AcDbVertex
100
AcDb2dVertex
 10
3.820624075739225
 20
6.260559395160551
 30
0.0
 70
     8
  0
VERTEX
  5
337
330
30D
100
AcDbEntity
  8
image
100
AcDbVertex
100
AcDb2dVertex
 10
3.825047214455873
 20
6.243020580884667
 30
0.0
 70
     8
  0
VERTEX
  5
338
330
30D
100
AcDbEntity
  8
image
100
AcDbVertex
100
AcDb2dVertex
 10
3.666239998884613
 20
6.550887093587665
 30
0.0
 70
    16
  0
VERTEX
  5
339
330
30D
100
AcDbEntity
  8
image
100
AcDbVertex
100
AcDb2dVertex
 10
3.718348691508174
 20
6.543445970956259
 30
0.0
 70
    16
  0
VERTEX
  5
33A
330
30D
100
AcDbEntity
  8
image
100
AcDbVertex
100
AcDb2dVertex
 10
3.765494575295974
 20
6.51120095622354
 30
0.0
 70
    16
  0
VERTEX
  5
33B
330
30D
100
AcDbEntity
  8
image
100
AcDbVertex
100
AcDb2dVertex
 10
3.795270894875923
 20
6.47151472886144
 30
0.0
 70
    16
  0
VERTEX
  5
33C
330
30D
100
AcDbEntity
  8
image
100
AcDbVertex
100
AcDb2dVertex
 10
3.797752299293803
 20
6.374779774661259
 30
0.0
 70
    16
  0
VERTEX
  5
33D
330
30D
100
AcDbEntity
  8
image
100
AcDbVertex
100
AcDb2dVertex
 10
3.812640459083777
 20
6.290446631514773
 30
0.0
 70
    16
  0
VERTEX
  5
33E
330
30D
100
AcDbEntity
  8
image
100
AcDbVertex
100
AcDb2dVertex
 10
3.825047214455873
 20
6.243020580884667
 30
0.0
 70
    16
  0
SEQEND
  5
33F
330
30D
100
AcDbEntity
  8
image
  0
POLYLINE
  5
340
330
2
100
AcDbEntity
  8
image
100
AcDb2dPolyline
 66
     1
 10
0.0
 20
0.0
 30
0.0
  0
VERTEX
  5
341
330
340
100
AcDbEntity
  8
image
100
AcDbVertex
100
AcDb2dVertex
 10
3.269325304656995
 20
6.624897890447503
 30
0.0
  0
VERTEX
  5
342
330
340
100
AcDbEntity
  8
image
100
AcDbVertex
100
AcDb2dVertex
 10
3.301559808742888
 20
6.626638542618607
 30
0.0
  0
VERTEX
  5
343
330
340
100
AcDbEntity
  8
image
100
AcDbVertex
100
AcDb2dVertex
 10
3.332756633568338
 20
6.628146764588023
 30
0.0
  0
VERTEX
  5
344
330
340
100
AcDbEntity
  8
image
100
AcDbVertex
100
AcDb2dVertex
 10
3.362884122394646
 20
6.629422856494847
 30
0.0
  0
VERTEX
  5
345
330
340
100
AcDbEntity
  8
image
100
AcDbVertex
100
AcDb2dVertex
 10
3.391910618483111
 20
6.630467118478178
 30
0.0
  0
VERTEX
  5
346
330
340
100
AcDbEntity
  8
image
100
AcDbVertex
100
AcDb2dVertex
 10
3.419804465095033
 20
6.631279850677114
 30
0.0
  0
VERTEX
  5
347
330
340
100
AcDbEntity
  8
image
100
AcDbVertex
100
AcDb2dVertex
 10
3.446534005491713
 20
6.631861353230755
 30
0.0
  0
VERTEX
  5
348
330
340
100
AcDbEntity
  8
image
100
AcDbVertex
100
AcDb2dVertex
 10
3.47206758293445
 20
6.632211926278195
 30
0.0
  0
VERTEX
  5
349
330
340
100
AcDbEntity
  8
image
100
AcDbVertex
100
AcDb2dVertex
 10
3.496373540684546
 20
6.632331869958536
 30
0.0
  0
VERTEX
  5
34A
330
340
100
AcDbEntity
  8
image
100
AcDbVertex
100
AcDb2dVertex
 10
3.519424140626869
 20
6.632221885071483
 30
0.0
  0
VERTEX
  5
34B
330
340
100
AcDbEntity
  8
image
100
AcDbVertex
100
AcDb2dVertex
 10
3.541207319140553
 20
6.631884275059154
 30
0.0
  0
VERTEX
  5
34C
330
340
100
AcDbEntity
  8
image
100
AcDbVertex
100
AcDb2dVertex
 10
3.561714931228308
 20
6.631321744024279
 30
0.0
  0
VERTEX
  5
34D
330
340
100
AcDbEntity
  8
image
100
AcDbVertex
100
AcDb2dVertex
 10
3.580938831892833
 20
6.630536996069588
 30
0.0
  0
VERTEX
  5
34E
330
340
100
AcDbEntity
  8
image
100
AcDbVertex
100
AcDb2dVertex
 10
3.598870876136839
 20
6.629532735297808
 30
0.0
  0
VERTEX
  5
34F
330
340
100
AcDbEntity
  8
image
100
AcDbVertex
100
AcDb2dVertex
 10
3.615502918963024
 20
6.628311665811666
 30
0.0
  0
VERTEX
  5
350
330
340
100
AcDbEntity
  8
image
100
AcDbVertex
100
AcDb2dVertex
 10
3.630826815374096
 20
6.626876491713892
 30
0.0
  0
VERTEX
  5
351
330
340
100
AcDbEntity
  8
image
100
AcDbVertex
100
AcDb2dVertex
 10
3.64483442037276
 20
6.625229917107212
 30
0.0
  0
VERTEX
  5
352
330
340
100
AcDbEntity
  8
image
100
AcDbVertex
100
AcDb2dVertex
 10
3.65753847585767
 20
6.623370110031463
 30
0.0
  0
VERTEX
  5
353
330
340
100
AcDbEntity
  8
image
100
AcDbVertex
100
AcDb2dVertex
 10
3.669035271311287
 20
6.62127709427492
 30
0.0
  0
VERTEX
  5
354
330
340
100
AcDbEntity
  8
image
100
AcDbVertex
100
AcDb2dVertex
 10
3.679441983112015
 20
6.618926357562969
 30
0.0
  0
VERTEX
  5
355
330
340
100
AcDbEntity
  8
image
100
AcDbVertex
100
AcDb2dVertex
 10
3.688875787638266
 20
6.616293387620991
 30
0.0
  0
VERTEX
  5
356
330
340
100
AcDbEntity
  8
image
100
AcDbVertex
100
AcDb2dVertex
 10
3.697453861268447
 20
6.613353672174368
 30
0.0
  0
VERTEX
  5
357
330
340
100
AcDbEntity
  8
image
100
AcDbVertex
100
AcDb2dVertex
 10
3.705293380380968
 20
6.610082698948489
 30
0.0
  0
VERTEX
  5
358
330
340
100
AcDbEntity
  8
image
100
AcDbVertex
100
AcDb2dVertex
 10
3.712511521354239
 20
6.606455955668731
 30
0.0
  0
VERTEX
  5
359
330
340
100
AcDbEntity
  8
image
100
AcDbVertex
100
AcDb2dVertex
 10
3.719225460566665
 20
6.602448930060483
 30
0.0
  0
VERTEX
  5
35A
330
340
100
AcDbEntity
  8
image
100
AcDbVertex
100
AcDb2dVertex
 10
3.725541019037777
 20
6.598047967990539
 30
0.0
  0
VERTEX
  5
35B
330
340
100
AcDbEntity
  8
image
100
AcDbVertex
100
AcDb2dVertex
 10
3.7315185963516
 20
6.593282847891354
 30
0.0
  0
VERTEX
  5
35C
330
340
100
AcDbEntity
  8
image
100
AcDbVertex
100
AcDb2dVertex
 10
3.737207236733272
 20
6.5881942063368
 30
0.0
  0
VERTEX
  5
35D
330
340
100
AcDbEntity
  8
image
100
AcDbVertex
100
AcDb2dVertex
 10
3.742655984407942
 20
6.582822679900741
 30
0.0
  0
VERTEX
  5
35E
330
340
100
AcDbEntity
  8
image
100
AcDbVertex
100
AcDb2dVertex
 10
3.74791388360075
 20
6.577208905157047
 30
0.0
  0
VERTEX
  5
35F
330
340
100
AcDbEntity
  8
image
100
AcDbVertex
100
AcDb2dVertex
 10
3.753029978536838
 20
6.571393518679587
 30
0.0
  0
VERTEX
  5
360
330
340
100
AcDbEntity
  8
image
100
AcDbVertex
100
AcDb2dVertex
 10
3.758053313441353
 20
6.56541715704223
 30
0.0
  0
VERTEX
  5
361
330
340
100
AcDbEntity
  8
image
100
AcDbVertex
100
AcDb2dVertex
 10
3.763032932539434
 20
6.559320456818842
 30
0.0
  0
VERTEX
  5
362
330
340
100
AcDbEntity
  8
image
100
AcDbVertex
100
AcDb2dVertex
 10
3.768002859711479
 20
6.553114224563595
 30
0.0
  0
VERTEX
  5
363
330
340
100
AcDbEntity
  8
image
100
AcDbVertex
100
AcDb2dVertex
 10
3.772937037458873
 20
6.546689946751841
 30
0.0
  0
VERTEX
  5
364
330
340
100
AcDbEntity
  8
image
100
AcDbVertex
100
AcDb2dVertex
 10
3.777794387938261
 20
6.539909279839237
 30
0.0
  0
VERTEX
  5
365
330
340
100
AcDbEntity
  8
image
100
AcDbVertex
100
AcDb2dVertex
 10
3.782533833306279
 20
6.532633880281442
 30
0.0
  0
VERTEX
  5
366
330
340
100
AcDbEntity
  8
image
100
AcDbVertex
100
AcDb2dVertex
 10
3.787114295719568
 20
6.524725404534106
 30
0.0
  0
VERTEX
  5
367
330
340
100
AcDbEntity
  8
image
100
AcDbVertex
100
AcDb2dVertex
 10
3.791494697334771
 20
6.516045509052891
 30
0.0
  0
VERTEX
  5
368
330
340
100
AcDbEntity
  8
image
100
AcDbVertex
100
AcDb2dVertex
 10
3.795633960308524
 20
6.506455850293449
 30
0.0
  0
VERTEX
  5
369
330
340
100
AcDbEntity
  8
image
100
AcDbVertex
100
AcDb2dVertex
 10
3.799491006797468
 20
6.495818084711437
 30
0.0
  0
VERTEX
  5
36A
330
340
100
AcDbEntity
  8
image
100
AcDbVertex
100
AcDb2dVertex
 10
3.80303567966475
 20
6.484027816698024
 30
0.0
  0
VERTEX
  5
36B
330
340
100
AcDbEntity
  8
image
100
AcDbVertex
100
AcDb2dVertex
 10
3.806281504599544
 20
6.471116442386431
 30
0.0
  0
VERTEX
  5
36C
330
340
100
AcDbEntity
  8
image
100
AcDbVertex
100
AcDb2dVertex
 10
3.80925292799753
 20
6.457149305845396
 30
0.0
  0
VERTEX
  5
36D
330
340
100
AcDbEntity
  8
image
100
AcDbVertex
100
AcDb2dVertex
 10
3.811974396254385
 20
6.442191751143653
 30
0.0
  0
VERTEX
  5
36E
330
340
100
AcDbEntity
  8
image
100
AcDbVertex
100
AcDb2dVertex
 10
3.814470355765791
 20
6.426309122349937
 30
0.0
  0
VERTEX
  5
36F
330
340
100
AcDbEntity
  8
image
100
AcDbVertex
100
AcDb2dVertex
 10
3.81676525292743
 20
6.409566763532986
 30
0.0
  0
VERTEX
  5
370
330
340
100
AcDbEntity
  8
image
100
AcDbVertex
100
AcDb2dVertex
 10
3.818883534134977
 20
6.392030018761532
 30
0.0
  0
VERTEX
  5
371
330
340
100
AcDbEntity
  8
image
100
AcDbVertex
100
AcDb2dVertex
 10
3.820849645784116
 20
6.373764232104314
 30
0.0
  0
VERTEX
  5
372
330
340
100
AcDbEntity
  8
image
100
AcDbVertex
100
AcDb2dVertex
 10
3.82268180000524
 20
6.354890591773388
 30
0.0
  0
VERTEX
  5
373
330
340
100
AcDbEntity
  8
image
100
AcDbVertex
100
AcDb2dVertex
 10
3.824373271867592
 20
6.335753662554086
 30
0.0
  0
VERTEX
  5
374
330
340
100
AcDbEntity
  8
image
100
AcDbVertex
100
AcDb2dVertex
 10
3.825911102175133
 20
6.316753853375065
 30
0.0
  0
VERTEX
  5
375
330
340
100
AcDbEntity
  8
image
100
AcDbVertex
100
AcDb2dVertex
 10
3.827282331731824
 20
6.29829157316498
 30
0.0
  0
VERTEX
  5
376
330
340
100
AcDbEntity
  8
image
100
AcDbVertex
100
AcDb2dVertex
 10
3.828474001341623
 20
6.280767230852485
 30
0.0
  0
VERTEX
  5
377
330
340
100
AcDbEntity
  8
image
100
AcDbVertex
100
AcDb2dVertex
 10
3.829473151808489
 20
6.264581235366235
 30
0.0
  0
VERTEX
  5
378
330
340
100
AcDbEntity
  8
image
100
AcDbVertex
100
AcDb2dVertex
 10
3.830266823936383
 20
6.250133995634883
 30
0.0
  0
VERTEX
  5
379
330
340
100
AcDbEntity
  8
image
100
AcDbVertex
100
AcDb2dVertex
 10
3.830599279029639
 20
6.243020580884667
 30
0.0
  0
SEQEND
  5
37A
330
340
100
AcDbEntity
  8
image
  0
POLYLINE
  5
37B
330
2
100
AcDbEntity
  8
image
100
AcDb2dPolyline
 66
     1
 10
0.0
 20
0.0
 30
0.0
  0
VERTEX
  5
37C
330
37B
100
AcDbEntity
  8
image
100
AcDbVertex
100
AcDb2dVertex
 10
3.624896601700438
 20
6.533188252996305
 30
0.0
  0
VERTEX
  5
37D
330
37B
100
AcDbEntity
  8
image
100
AcDbVertex
100
AcDb2dVertex
 10
3.639544456962624
 20
6.534604087321018
 30
0.0
  0
VERTEX
  5
37E
330
37B
100
AcDbEntity
  8
image
100
AcDbVertex
100
AcDb2dVertex
 10
3.652708157293689
 20
6.535312906501405
 30
0.0
  0
VERTEX
  5
37F
330
37B
100
AcDbEntity
  8
image
100
AcDbVertex
100
AcDb2dVertex
 10
3.664536485921946
 20
6.5353728864678
 30
0.0
  0
VERTEX
  5
380
330
37B
100
AcDbEntity
  8
image
100
AcDbVertex
100
AcDb2dVertex
 10
3.675178226075704
 20
6.534842203150539
 30
0.0
  0
VERTEX
  5
381
330
37B
100
AcDbEntity
  8
image
100
AcDbVertex
100
AcDb2dVertex
 10
3.684782160983278
 20
6.533779032479953
 30
0.0
  0
VERTEX
  5
382
330
37B
100
AcDbEntity
  8
image
100
AcDbVertex
100
AcDb2dVertex
 10
3.693497073872979
 20
6.532241550386379
 30
0.0
  0
VERTEX
  5
383
330
37B
100
AcDbEntity
  8
image
100
AcDbVertex
100
AcDb2dVertex
 10
3.701471747973119
 20
6.53028793280015
 30
0.0
  0
VERTEX
  5
384
330
37B
100
AcDbEntity
  8
image
100
AcDbVertex
100
AcDb2dVertex
 10
3.708854966512012
 20
6.5279763556516
 30
0.0
  0
VERTEX
  5
385
330
37B
100
AcDbEntity
  8
image
100
AcDbVertex
100
AcDb2dVertex
 10
3.715774442309319
 20
6.525359800943052
 30
0.0
  0
VERTEX
  5
386
330
37B
100
AcDbEntity
  8
image
100
AcDbVertex
100
AcDb2dVertex
 10
3.722273606550112
 20
6.522470474964799
 30
0.0
  0
VERTEX
  5
387
330
37B
100
AcDbEntity
  8
image
100
AcDbVertex
100
AcDb2dVertex
 10
3.728374820010817
 20
6.519335390079122
 30
0.0
  0
VERTEX
  5
388
330
37B
100
AcDbEntity
  8
image
100
AcDbVertex
100
AcDb2dVertex
 10
3.734100443467855
 20
6.515981558648301
 30
0.0
  0
VERTEX
  5
389
330
37B
100
AcDbEntity
  8
image
100
AcDbVertex
100
AcDb2dVertex
 10
3.73947283769765
 20
6.512435993034617
 30
0.0
  0
VERTEX
  5
38A
330
37B
100
AcDbEntity
  8
image
100
AcDbVertex
100
AcDb2dVertex
 10
3.744514363476627
 20
6.508725705600354
 30
0.0
  0
VERTEX
  5
38B
330
37B
100
AcDbEntity
  8
image
100
AcDbVertex
100
AcDb2dVertex
 10
3.749247381581206
 20
6.504877708707788
 30
0.0
  0
VERTEX
  5
38C
330
37B
100
AcDbEntity
  8
image
100
AcDbVertex
100
AcDb2dVertex
 10
3.753694252787813
 20
6.500919014719205
 30
0.0
  0
VERTEX
  5
38D
330
37B
100
AcDbEntity
  8
image
100
AcDbVertex
100
AcDb2dVertex
 10
3.757871408746609
 20
6.496854710161361
 30
0.0
  0
VERTEX
  5
38E
330
37B
100
AcDbEntity
  8
image
100
AcDbVertex
100
AcDb2dVertex
 10
3.761771564602716
 20
6.492602178218898
 30
0.0
  0
VERTEX
  5
38F
330
37B
100
AcDbEntity
  8
image
100
AcDbVertex
100
AcDb2dVertex
 10
3.765381506374994
 20
6.48805687624094
 30
0.0
  0
VERTEX
  5
390
330
37B
100
AcDbEntity
  8
image
100
AcDbVertex
100
AcDb2dVertex
 10
3.768688020082304
 20
6.483114261576608
 30
0.0
  0
VERTEX
  5
391
330
37B
100
AcDbEntity
  8
image
100
AcDbVertex
100
AcDb2dVertex
 10
3.771677891743507
 20
6.477669791575022
 30
0.0
  0
VERTEX
  5
392
330
37B
100
AcDbEntity
  8
image
100
AcDbVertex
100
AcDb2dVertex
 10
3.774337907377464
 20
6.471618923585304
 30
0.0
  0
VERTEX
  5
393
330
37B
100
AcDbEntity
  8
image
100
AcDbVertex
100
AcDb2dVertex
 10
3.776654853003034
 20
6.464857114956575
 30
0.0
  0
VERTEX
  5
394
330
37B
100
AcDbEntity
  8
image
100
AcDbVertex
100
AcDb2dVertex
 10
3.778615514639078
 20
6.457279823037954
 30
0.0
  0
VERTEX
  5
395
330
37B
100
AcDbEntity
  8
image
100
AcDbVertex
100
AcDb2dVertex
 10
3.78022319202641
 20
6.448807675812012
 30
0.0
  0
VERTEX
  5
396
330
37B
100
AcDbEntity
  8
image
100
AcDbVertex
100
AcDb2dVertex
 10
3.781547239793654
 20
6.439461983795111
 30
0.0
  0
VERTEX
  5
397
330
37B
100
AcDbEntity
  8
image
100
AcDbVertex
100
AcDb2dVertex
 10
3.782673526291384
 20
6.429289228137066
 30
0.0
  0
VERTEX
  5
398
330
37B
100
AcDbEntity
  8
image
100
AcDbVertex
100
AcDb2dVertex
 10
3.783687919870182
 20
6.418335889987686
 30
0.0
  0
VERTEX
  5
399
330
37B
100
AcDbEntity
  8
image
100
AcDbVertex
100
AcDb2dVertex
 10
3.784676288880618
 20
6.406648450496783
 30
0.0
  0
VERTEX
  5
39A
330
37B
100
AcDbEntity
  8
image
100
AcDbVertex
100
AcDb2dVertex
 10
3.785724501673271
 20
6.394273390814169
 30
0.0
  0
VERTEX
  5
39B
330
37B
100
AcDbEntity
  8
image
100
AcDbVertex
100
AcDb2dVertex
 10
3.78691842659872
 20
6.381257192089658
 30
0.0
  0
VERTEX
  5
39C
330
37B
100
AcDbEntity
  8
image
100
AcDbVertex
100
AcDb2dVertex
 10
3.788343932007538
 20
6.36764633547306
 30
0.0
  0
VERTEX
  5
39D
330
37B
100
AcDbEntity
  8
image
100
AcDbVertex
100
AcDb2dVertex
 10
3.790075660373332
 20
6.35348114130141
 30
0.0
  0
VERTEX
  5
39E
330
37B
100
AcDbEntity
  8
image
100
AcDbVertex
100
AcDb2dVertex
 10
3.792143350661817
 20
6.338777286660627
 30
0.0
  0
VERTEX
  5
39F
330
37B
100
AcDbEntity
  8
image
100
AcDbVertex
100
AcDb2dVertex
 10
3.794565515961734
 20
6.323544287823858
 30
0.0
  0
VERTEX
  5
3A0
330
37B
100
AcDbEntity
  8
image
100
AcDbVertex
100
AcDb2dVertex
 10
3.797360669361825
 20
6.307791661064241
 30
0.0
  0
VERTEX
  5
3A1
330
37B
100
AcDbEntity
  8
image
100
AcDbVertex
100
AcDb2dVertex
 10
3.800547323950834
 20
6.291528922654922
 30
0.0
  0
VERTEX
  5
3A2
330
37B
100
AcDbEntity
  8
image
100
AcDbVertex
100
AcDb2dVertex
 10
3.8041439928175
 20
6.274765588869044
 30
0.0
  0
VERTEX
  5
3A3
330
37B
100
AcDbEntity
  8
image
100
AcDbVertex
100
AcDb2dVertex
 10
3.808169189050573
 20
6.257511175979751
 30
0.0
  0
VERTEX
  5
3A4
330
37B
100
AcDbEntity
  8
image
100
AcDbVertex
100
AcDb2dVertex
 10
3.811823082811084
 20
6.243020580884667
 30
0.0
  0
SEQEND
  5
3A5
330
37B
100
AcDbEntity
  8
image
  0
LINE
  5
3A6
330
2
100
AcDbEntity
  8
image
100
AcDbLine
 10
3.047407739258052
 20
6.504549785581208
 30
0.0
 11
3.047407739258052
 21
6.088182730749949
 31
0.0
  0
LINE
  5
3A7
330
2
100
AcDbEntity
  8
image
100
AcDbLine
 10
3.193540993841858
 20
6.502900583409648
 30
0.0
 11
3.193540993841858
 21
6.08818273074996
 31
0.0
  0
POLYLINE
  5
3A8
330
2
100
AcDbEntity
  8
image
 62
     5
100
AcDb2dPolyline
 66
     1
 10
0.0
 20
0.0
 30
0.0
 70
     4
 40
0.0128125
 41
0.0128125
  0
VERTEX
  5
3A9
330
3A8
100
AcDbEntity
  8
image
 62
     5
100
AcDbVertex
100
AcDb2dVertex
 10
2.727697034215909
 20
6.855506519230844
 30
0.0
 70
    16
  0
VERTEX
  5
3AA
330
3A8
100
AcDbEntity
  8
image
 62
     5
100
AcDbVertex
100
AcDb2dVertex
 10
2.727697034215909
 20
6.855506519230844
 30
0.0
 70
     8
  0
VERTEX
  5
3AB
330
3A8
100
AcDbEntity
  8
image
 62
     5
100
AcDbVertex
100
AcDb2dVertex
 10
2.745406826091596
 20
6.855027841170245
 30
0.0
 70
     8
  0
VERTEX
  5
3AC
330
3A8
100
AcDbEntity
  8
image
 62
     5
100
AcDbVertex
100
AcDb2dVertex
 10
2.761041381121781
 20
6.853890978362899
 30
0.0
 70
     8
  0
VERTEX
  5
3AD
330
3A8
100
AcDbEntity
  8
image
 62
     5
100
AcDbVertex
100
AcDb2dVertex
 10
2.774752959039053
 20
6.852145831173608
 30
0.0
 70
     8
  0
VERTEX
  5
3AE
330
3A8
100
AcDbEntity
  8
image
 62
     5
100
AcDbVertex
100
AcDb2dVertex
 10
2.786693819576004
 20
6.849842299967173
 30
0.0
 70
     8
  0
VERTEX
  5
3AF
330
3A8
100
AcDbEntity
  8
image
 62
     5
100
AcDbVertex
100
AcDb2dVertex
 10
2.79701622246522
 20
6.847030285108398
 30
0.0
 70
     8
  0
VERTEX
  5
3B0
330
3A8
100
AcDbEntity
  8
image
 62
     5
100
AcDbVertex
100
AcDb2dVertex
 10
2.805872427439291
 20
6.843759686962087
 30
0.0
 70
     8
  0
VERTEX
  5
3B1
330
3A8
100
AcDbEntity
  8
image
 62
     5
100
AcDbVertex
100
AcDb2dVertex
 10
2.813414694230811
 20
6.840080405893041
 30
0.0
 70
     8
  0
VERTEX
  5
3B2
330
3A8
100
AcDbEntity
  8
image
 62
     5
100
AcDbVertex
100
AcDb2dVertex
 10
2.819795282572364
 20
6.836042342266066
 30
0.0
 70
     8
  0
VERTEX
  5
3B3
330
3A8
100
AcDbEntity
  8
image
 62
     5
100
AcDbVertex
100
AcDb2dVertex
 10
2.825159100914884
 20
6.831687937672831
 30
0.0
 70
     8
  0
VERTEX
  5
3B4
330
3A8
100
AcDbEntity
  8
image
 62
     5
100
AcDbVertex
100
AcDb2dVertex
 10
2.829621652582671
 20
6.827029798612479
 30
0.0
 70
     8
  0
VERTEX
  5
3B5
330
3A8
100
AcDbEntity
  8
image
 62
     5
100
AcDbVertex
100
AcDb2dVertex
 10
2.833291089618368
 20
6.822073072811025
 30
0.0
 70
     8
  0
VERTEX
  5
3B6
330
3A8
100
AcDbEntity
  8
image
 62
     5
100
AcDbVertex
100
AcDb2dVertex
 10
2.836275564064617
 20
6.816822907994478
 30
0.0
 70
     8
  0
VERTEX
  5
3B7
330
3A8
100
AcDbEntity
  8
image
 62
     5
100
AcDbVertex
100
AcDb2dVertex
 10
2.838683227964063
 20
6.811284451888853
 30
0.0
 70
     8
  0
VERTEX
  5
3B8
330
3A8
100
AcDbEntity
  8
image
 62
     5
100
AcDbVertex
100
AcDb2dVertex
 10
2.840622233359344
 20
6.805462852220163
 30
0.0
 70
     8
  0
VERTEX
  5
3B9
330
3A8
100
AcDbEntity
  8
image
 62
     5
100
AcDbVertex
100
AcDb2dVertex
 10
2.842200732293106
 20
6.799363256714416
 30
0.0
 70
     8
  0
VERTEX
  5
3BA
330
3A8
100
AcDbEntity
  8
image
 62
     5
100
AcDbVertex
100
AcDb2dVertex
 10
2.843526876807988
 20
6.792990813097629
 30
0.0
 70
     8
  0
VERTEX
  5
3BB
330
3A8
100
AcDbEntity
  8
image
 62
     5
100
AcDbVertex
100
AcDb2dVertex
 10
2.844692081133615
 20
6.786338228062164
 30
0.0
 70
     8
  0
VERTEX
  5
3BC
330
3A8
100
AcDbEntity
  8
image
 62
     5
100
AcDbVertex
100
AcDb2dVertex
 10
2.845720808247513
 20
6.779348444165791
 30
0.0
 70
     8
  0
VERTEX
  5
3BD
330
3A8
100
AcDbEntity
  8
image
 62
     5
100
AcDbVertex
100
AcDb2dVertex
 10
2.846620783314193
 20
6.771951962932638
 30
0.0
 70
     8
  0
VERTEX
  5
3BE
330
3A8
100
AcDbEntity
  8
image
 62
     5
100
AcDbVertex
100
AcDb2dVertex
 10
2.84739973149816
 20
6.764079285886826
 30
0.0
 70
     8
  0
VERTEX
  5
3BF
330
3A8
100
AcDbEntity
  8
image
 62
     5
100
AcDbVertex
100
AcDb2dVertex
 10
2.848065377963923
 20
6.755660914552481
 30
0.0
 70
     8
  0
VERTEX
  5
3C0
330
3A8
100
AcDbEntity
  8
image
 62
     5
100
AcDbVertex
100
AcDb2dVertex
 10
2.848625447875988
 20
6.746627350453723
 30
0.0
 70
     8
  0
VERTEX
  5
3C1
330
3A8
100
AcDbEntity
  8
image
 62
     5
100
AcDbVertex
100
AcDb2dVertex
 10
2.849087666398869
 20
6.736909095114682
 30
0.0
 70
     8
  0
VERTEX
  5
3C2
330
3A8
100
AcDbEntity
  8
image
 62
     5
100
AcDbVertex
100
AcDb2dVertex
 10
2.849459758697065
 20
6.726436650059478
 30
0.0
 70
     8
  0
VERTEX
  5
3C3
330
3A8
100
AcDbEntity
  8
image
 62
     5
100
AcDbVertex
100
AcDb2dVertex
 10
2.849747304084999
 20
6.715164111955354
 30
0.0
 70
     8
  0
VERTEX
  5
3C4
330
3A8
100
AcDbEntity
  8
image
 62
     5
100
AcDbVertex
100
AcDb2dVertex
 10
2.849947298476733
 20
6.703139958042016
 30
0.0
 70
     8
  0
VERTEX
  5
3C5
330
3A8
100
AcDbEntity
  8
image
 62
     5
100
AcDbVertex
100
AcDb2dVertex
 10
2.850054591936238
 20
6.690436260702294
 30
0.0
 70
     8
  0
VERTEX
  5
3C6
330
3A8
100
AcDbEntity
  8
image
 62
     5
100
AcDbVertex
100
AcDb2dVertex
 10
2.850064034527486
 20
6.677125092319014
 30
0.0
 70
     8
  0
VERTEX
  5
3C7
330
3A8
100
AcDbEntity
  8
image
 62
     5
100
AcDbVertex
100
AcDb2dVertex
 10
2.849970476314451
 20
6.663278525275001
 30
0.0
 70
     8
  0
VERTEX
  5
3C8
330
3A8
100
AcDbEntity
  8
image
 62
     5
100
AcDbVertex
100
AcDb2dVertex
 10
2.849768767361103
 20
6.64896863195308
 30
0.0
 70
     8
  0
VERTEX
  5
3C9
330
3A8
100
AcDbEntity
  8
image
 62
     5
100
AcDbVertex
100
AcDb2dVertex
 10
2.849453757731417
 20
6.634267484736084
 30
0.0
 70
     8
  0
VERTEX
  5
3CA
330
3A8
100
AcDbEntity
  8
image
 62
     5
100
AcDbVertex
100
AcDb2dVertex
 10
2.849020297489362
 20
6.619247156006832
 30
0.0
 70
     8
  0
VERTEX
  5
3CB
330
3A8
100
AcDbEntity
  8
image
 62
     5
100
AcDbVertex
100
AcDb2dVertex
 10
2.84844821548782
 20
6.603981005335999
 30
0.0
 70
     8
  0
VERTEX
  5
3CC
330
3A8
100
AcDbEntity
  8
image
 62
     5
100
AcDbVertex
100
AcDb2dVertex
 10
2.847657255735313
 20
6.588547541045636
 30
0.0
 70
     8
  0
VERTEX
  5
3CD
330
3A8
100
AcDbEntity
  8
image
 62
     5
100
AcDbVertex
100
AcDb2dVertex
 10
2.846552141029262
 20
6.57302655864564
 30
0.0
 70
     8
  0
VERTEX
  5
3CE
330
3A8
100
AcDbEntity
  8
image
 62
     5
100
AcDbVertex
100
AcDb2dVertex
 10
2.845037594167097
 20
6.557497853645905
 30
0.0
 70
     8
  0
VERTEX
  5
3CF
330
3A8
100
AcDbEntity
  8
image
 62
     5
100
AcDbVertex
100
AcDb2dVertex
 10
2.843018337946244
 20
6.542041221556329
 30
0.0
 70
     8
  0
VERTEX
  5
3D0
330
3A8
100
AcDbEntity
  8
image
 62
     5
100
AcDbVertex
100
AcDb2dVertex
 10
2.840399095164132
 20
6.526736457886808
 30
0.0
 70
     8
  0
VERTEX
  5
3D1
330
3A8
100
AcDbEntity
  8
image
 62
     5
100
AcDbVertex
100
AcDb2dVertex
 10
2.837084588618184
 20
6.511663358147236
 30
0.0
 70
     8
  0
VERTEX
  5
3D2
330
3A8
100
AcDbEntity
  8
image
 62
     5
100
AcDbVertex
100
AcDb2dVertex
 10
2.83297954110583
 20
6.496901717847513
 30
0.0
 70
     8
  0
VERTEX
  5
3D3
330
3A8
100
AcDbEntity
  8
image
 62
     5
100
AcDbVertex
100
AcDb2dVertex
 10
2.828033523478648
 20
6.482515693386402
 30
0.0
 70
     8
  0
VERTEX
  5
3D4
330
3A8
100
AcDbEntity
  8
image
 62
     5
100
AcDbVertex
100
AcDb2dVertex
 10
2.82237549880482
 20
6.468506884718153
 30
0.0
 70
     8
  0
VERTEX
  5
3D5
330
3A8
100
AcDbEntity
  8
image
 62
     5
100
AcDbVertex
100
AcDb2dVertex
 10
2.816179278206684
 20
6.454861252685881
 30
0.0
 70
     8
  0
VERTEX
  5
3D6
330
3A8
100
AcDbEntity
  8
image
 62
     5
100
AcDbVertex
100
AcDb2dVertex
 10
2.809618672806573
 20
6.441564758132708
 30
0.0
 70
     8
  0
VERTEX
  5
3D7
330
3A8
100
AcDbEntity
  8
image
 62
     5
100
AcDbVertex
100
AcDb2dVertex
 10
2.802867493726823
 20
6.428603361901749
 30
0.0
 70
     8
  0
VERTEX
  5
3D8
330
3A8
100
AcDbEntity
  8
image
 62
     5
100
AcDbVertex
100
AcDb2dVertex
 10
2.796099552089771
 20
6.415963024836122
 30
0.0
 70
     8
  0
VERTEX
  5
3D9
330
3A8
100
AcDbEntity
  8
image
 62
     5
100
AcDbVertex
100
AcDb2dVertex
 10
2.789488659017749
 20
6.403629707778944
 30
0.0
 70
     8
  0
VERTEX
  5
3DA
330
3A8
100
AcDbEntity
  8
image
 62
     5
100
AcDbVertex
100
AcDb2dVertex
 10
2.783208625633095
 20
6.391589371573337
 30
0.0
 70
     8
  0
VERTEX
  5
3DB
330
3A8
100
AcDbEntity
  8
image
 62
     5
100
AcDbVertex
100
AcDb2dVertex
 10
2.777345892673489
 20
6.37981451154009
 30
0.0
 70
     8
  0
VERTEX
  5
3DC
330
3A8
100
AcDbEntity
  8
image
 62
     5
100
AcDbVertex
100
AcDb2dVertex
 10
2.771637419337986
 20
6.368223760910706
 30
0.0
 70
     8
  0
VERTEX
  5
3DD
330
3A8
100
AcDbEntity
  8
image
 62
     5
100
AcDbVertex
100
AcDb2dVertex
 10
2.765732794440991
 20
6.356722287394361
 30
0.0
 70
     8
  0
VERTEX
  5
3DE
330
3A8
100
AcDbEntity
  8
image
 62
     5
100
AcDbVertex
100
AcDb2dVertex
 10
2.759281606796903
 20
6.34521525870023
 30
0.0
 70
     8
  0
VERTEX
  5
3DF
330
3A8
100
AcDbEntity
  8
image
 62
     5
100
AcDbVertex
100
AcDb2dVertex
 10
2.751933445220126
 20
6.33360784253749
 30
0.0
 70
     8
  0
VERTEX
  5
3E0
330
3A8
100
AcDbEntity
  8
image
 62
     5
100
AcDbVertex
100
AcDb2dVertex
 10
2.743337898525062
 20
6.321805206615318
 30
0.0
 70
     8
  0
VERTEX
  5
3E1
330
3A8
100
AcDbEntity
  8
image
 62
     5
100
AcDbVertex
100
AcDb2dVertex
 10
2.733144555526109
 20
6.309712518642891
 30
0.0
 70
     8
  0
VERTEX
  5
3E2
330
3A8
100
AcDbEntity
  8
image
 62
     5
100
AcDbVertex
100
AcDb2dVertex
 10
2.721003005037676
 20
6.297234946329384
 30
0.0
 70
     8
  0
VERTEX
  5
3E3
330
3A8
100
AcDbEntity
  8
image
 62
     5
100
AcDbVertex
100
AcDb2dVertex
 10
2.706527604438678
 20
6.28435422248801
 30
0.0
 70
     8
  0
VERTEX
  5
3E4
330
3A8
100
AcDbEntity
  8
image
 62
     5
100
AcDbVertex
100
AcDb2dVertex
 10
2.689191785366123
 20
6.27135834034815
 30
0.0
 70
     8
  0
VERTEX
  5
3E5
330
3A8
100
AcDbEntity
  8
image
 62
     5
100
AcDbVertex
100
AcDb2dVertex
 10
2.668433748021531
 20
6.258611858243221
 30
0.0
 70
     8
  0
VERTEX
  5
3E6
330
3A8
100
AcDbEntity
  8
image
 62
     5
100
AcDbVertex
100
AcDb2dVertex
 10
2.643691692606427
 20
6.246479334506637
 30
0.0
 70
     8
  0
VERTEX
  5
3E7
330
3A8
100
AcDbEntity
  8
image
 62
     5
100
AcDbVertex
100
AcDb2dVertex
 10
2.614403819322337
 20
6.235325327471817
 30
0.0
 70
     8
  0
VERTEX
  5
3E8
330
3A8
100
AcDbEntity
  8
image
 62
     5
100
AcDbVertex
100
AcDb2dVertex
 10
2.58000832837078
 20
6.225514395472178
 30
0.0
 70
     8
  0
VERTEX
  5
3E9
330
3A8
100
AcDbEntity
  8
image
 62
     5
100
AcDbVertex
100
AcDb2dVertex
 10
2.539943419953283
 20
6.217411096841135
 30
0.0
 70
     8
  0
VERTEX
  5
3EA
330
3A8
100
AcDbEntity
  8
image
 62
     5
100
AcDbVertex
100
AcDb2dVertex
 10
2.493647294271365
 20
6.211379989912104
 30
0.0
 70
     8
  0
VERTEX
  5
3EB
330
3A8
100
AcDbEntity
  8
image
 62
     5
100
AcDbVertex
100
AcDb2dVertex
 10
2.777825470329602
 20
6.85515197994474
 30
0.0
 70
    16
  0
VERTEX
  5
3EC
330
3A8
100
AcDbEntity
  8
image
 62
     5
100
AcDbVertex
100
AcDb2dVertex
 10
2.8305624155577
 20
6.83933708565943
 30
0.0
 70
    16
  0
VERTEX
  5
3ED
330
3A8
100
AcDbEntity
  8
image
 62
     5
100
AcDbVertex
100
AcDb2dVertex
 10
2.845065035487831
 20
6.795846283871282
 30
0.0
 70
    16
  0
VERTEX
  5
3EE
330
3A8
100
AcDbEntity
  8
image
 62
     5
100
AcDbVertex
100
AcDb2dVertex
 10
2.850338703338911
 20
6.735222657441219
 30
0.0
 70
    16
  0
VERTEX
  5
3EF
330
3A8
100
AcDbEntity
  8
image
 62
     5
100
AcDbVertex
100
AcDb2dVertex
 10
2.850338703338911
 20
6.621882986720714
 30
0.0
 70
    16
  0
VERTEX
  5
3F0
330
3A8
100
AcDbEntity
  8
image
 62
     5
100
AcDbVertex
100
AcDb2dVertex
 10
2.842428268241617
 20
6.49272833171692
 30
0.0
 70
    16
  0
VERTEX
  5
3F1
330
3A8
100
AcDbEntity
  8
image
 62
     5
100
AcDbVertex
100
AcDb2dVertex
 10
2.777825470329602
 20
6.388613993496685
 30
0.0
 70
    16
  0
VERTEX
  5
3F2
330
3A8
100
AcDbEntity
  8
image
 62
     5
100
AcDbVertex
100
AcDb2dVertex
 10
2.74552160423855
 20
6.302351923736357
 30
0.0
 70
    16
  0
VERTEX
  5
3F3
330
3A8
100
AcDbEntity
  8
image
 62
     5
100
AcDbVertex
100
AcDb2dVertex
 10
2.62591129670768
 20
6.224375967601573
 30
0.0
 70
    16
  0
VERTEX
  5
3F4
330
3A8
100
AcDbEntity
  8
image
 62
     5
100
AcDbVertex
100
AcDb2dVertex
 10
2.493647294271367
 20
6.211379989912104
 30
0.0
 70
    16
  0
SEQEND
  5
3F5
330
3A8
100
AcDbEntity
  8
image
 62
     5
  0
POLYLINE
  5
3F6
330
2
100
AcDbEntity
  8
image
 62
     5
100
AcDb2dPolyline
 66
     1
 10
0.0
 20
0.0
 30
0.0
 70
     4
 40
0.0128125
 41
0.0128125
  0
VERTEX
  5
3F7
330
3F6
100
AcDbEntity
  8
image
 62
     5
100
AcDbVertex
100
AcDb2dVertex
 10
2.727697034215909
 20
6.838131574603321
 30
0.0
 70
    16
  0
VERTEX
  5
3F8
330
3F6
100
AcDbEntity
  8
image
 62
     5
100
AcDbVertex
100
AcDb2dVertex
 10
2.727697034215909
 20
6.838131574603321
 30
0.0
 70
     8
  0
VERTEX
  5
3F9
330
3F6
100
AcDbEntity
  8
image
 62
     5
100
AcDbVertex
100
AcDb2dVertex
 10
2.746360025585634
 20
6.836508447465591
 30
0.0
 70
     8
  0
VERTEX
  5
3FA
330
3F6
100
AcDbEntity
  8
image
 62
     5
100
AcDbVertex
100
AcDb2dVertex
 10
2.761992434939372
 20
6.833779983650109
 30
0.0
 70
     8
  0
VERTEX
  5
3FB
330
3F6
100
AcDbEntity
  8
image
 62
     5
100
AcDbVertex
100
AcDb2dVertex
 10
2.774903600528354
 20
6.830065845785738
 30
0.0
 70
     8
  0
VERTEX
  5
3FC
330
3F6
100
AcDbEntity
  8
image
 62
     5
100
AcDbVertex
100
AcDb2dVertex
 10
2.785402860603799
 20
6.825485696501339
 30
0.0
 70
     8
  0
VERTEX
  5
3FD
330
3F6
100
AcDbEntity
  8
image
 62
     5
100
AcDbVertex
100
AcDb2dVertex
 10
2.793799553416935
 20
6.820159198425781
 30
0.0
 70
     8
  0
VERTEX
  5
3FE
330
3F6
100
AcDbEntity
  8
image
 62
     5
100
AcDbVertex
100
AcDb2dVertex
 10
2.800403017218986
 20
6.814206014187927
 30
0.0
 70
     8
  0
VERTEX
  5
3FF
330
3F6
100
AcDbEntity
  8
image
 62
     5
100
AcDbVertex
100
AcDb2dVertex
 10
2.805522590261176
 20
6.807745806416643
 30
0.0
 70
     8
  0
VERTEX
  5
400
330
3F6
100
AcDbEntity
  8
image
 62
     5
100
AcDbVertex
100
AcDb2dVertex
 10
2.80946761079473
 20
6.80089823774079
 30
0.0
 70
     8
  0
VERTEX
  5
401
330
3F6
100
AcDbEntity
  8
image
 62
     5
100
AcDbVertex
100
AcDb2dVertex
 10
2.812507019194272
 20
6.793749727810053
 30
0.0
 70
     8
  0
VERTEX
  5
402
330
3F6
100
AcDbEntity
  8
image
 62
     5
100
AcDbVertex
100
AcDb2dVertex
 10
2.81474816432803
 20
6.786253724357385
 30
0.0
 70
     8
  0
VERTEX
  5
403
330
3F6
100
AcDbEntity
  8
image
 62
     5
100
AcDbVertex
100
AcDb2dVertex
 10
2.816257997187619
 20
6.778330432136553
 30
0.0
 70
     8
  0
VERTEX
  5
404
330
3F6
100
AcDbEntity
  8
image
 62
     5
100
AcDbVertex
100
AcDb2dVertex
 10
2.817103468764672
 20
6.769900055901326
 30
0.0
 70
     8
  0
VERTEX
  5
405
330
3F6
100
AcDbEntity
  8
image
 62
     5
100
AcDbVertex
100
AcDb2dVertex
 10
2.817351530050808
 20
6.760882800405478
 30
0.0
 70
     8
  0
VERTEX
  5
406
330
3F6
100
AcDbEntity
  8
image
 62
     5
100
AcDbVertex
100
AcDb2dVertex
 10
2.817069132037651
 20
6.751198870402775
 30
0.0
 70
     8
  0
VERTEX
  5
407
330
3F6
100
AcDbEntity
  8
image
 62
     5
100
AcDbVertex
100
AcDb2dVertex
 10
2.816323225716825
 20
6.740768470646989
 30
0.0
 70
     8
  0
VERTEX
  5
408
330
3F6
100
AcDbEntity
  8
image
 62
     5
100
AcDbVertex
100
AcDb2dVertex
 10
2.815180762079954
 20
6.729511805891888
 30
0.0
 70
     8
  0
VERTEX
  5
409
330
3F6
100
AcDbEntity
  8
image
 62
     5
100
AcDbVertex
100
AcDb2dVertex
 10
2.81370482962323
 20
6.717385546404056
 30
0.0
 70
     8
  0
VERTEX
  5
40A
330
3F6
100
AcDbEntity
  8
image
 62
     5
100
AcDbVertex
100
AcDb2dVertex
 10
2.811943066861116
 20
6.704492224501318
 30
0.0
 70
     8
  0
VERTEX
  5
40B
330
3F6
100
AcDbEntity
  8
image
 62
     5
100
AcDbVertex
100
AcDb2dVertex
 10
2.809939249812648
 20
6.690970838014313
 30
0.0
 70
     8
  0
VERTEX
  5
40C
330
3F6
100
AcDbEntity
  8
image
 62
     5
100
AcDbVertex
100
AcDb2dVertex
 10
2.807737154496855
 20
6.676960384773678
 30
0.0
 70
     8
  0
VERTEX
  5
40D
330
3F6
100
AcDbEntity
  8
image
 62
     5
100
AcDbVertex
100
AcDb2dVertex
 10
2.805380556932773
 20
6.662599862610054
 30
0.0
 70
     8
  0
VERTEX
  5
40E
330
3F6
100
AcDbEntity
  8
image
 62
     5
100
AcDbVertex
100
AcDb2dVertex
 10
2.802913233139431
 20
6.648028269354079
 30
0.0
 70
     8
  0
VERTEX
  5
40F
330
3F6
100
AcDbEntity
  8
image
 62
     5
100
AcDbVertex
100
AcDb2dVertex
 10
2.800378959135866
 20
6.63338460283639
 30
0.0
 70
     8
  0
VERTEX
  5
410
330
3F6
100
AcDbEntity
  8
image
 62
     5
100
AcDbVertex
100
AcDb2dVertex
 10
2.797821510941105
 20
6.618807860887627
 30
0.0
 70
     8
  0
VERTEX
  5
411
330
3F6
100
AcDbEntity
  8
image
 62
     5
100
AcDbVertex
100
AcDb2dVertex
 10
2.795244929296231
 20
6.604407269029562
 30
0.0
 70
     8
  0
VERTEX
  5
412
330
3F6
100
AcDbEntity
  8
image
 62
     5
100
AcDbVertex
100
AcDb2dVertex
 10
2.792494313830491
 20
6.590172963548508
 30
0.0
 70
     8
  0
VERTEX
  5
413
330
3F6
100
AcDbEntity
  8
image
 62
     5
100
AcDbVertex
100
AcDb2dVertex
 10
2.789375028895184
 20
6.57606530842191
 30
0.0
 70
     8
  0
VERTEX
  5
414
330
3F6
100
AcDbEntity
  8
image
 62
     5
100
AcDbVertex
100
AcDb2dVertex
 10
2.785692438841607
 20
6.562044667627215
 30
0.0
 70
     8
  0
VERTEX
  5
415
330
3F6
100
AcDbEntity
  8
image
 62
     5
100
AcDbVertex
100
AcDb2dVertex
 10
2.781251908021054
 20
6.548071405141869
 30
0.0
 70
     8
  0
VERTEX
  5
416
330
3F6
100
AcDbEntity
  8
image
 62
     5
100
AcDbVertex
100
AcDb2dVertex
 10
2.775858800784824
 20
6.534105884943317
 30
0.0
 70
     8
  0
VERTEX
  5
417
330
3F6
100
AcDbEntity
  8
image
 62
     5
100
AcDbVertex
100
AcDb2dVertex
 10
2.76931848148421
 20
6.520108471009008
 30
0.0
 70
     8
  0
VERTEX
  5
418
330
3F6
100
AcDbEntity
  8
image
 62
     5
100
AcDbVertex
100
AcDb2dVertex
 10
2.761436314470511
 20
6.506039527316384
 30
0.0
 70
     8
  0
VERTEX
  5
419
330
3F6
100
AcDbEntity
  8
image
 62
     5
100
AcDbVertex
100
AcDb2dVertex
 10
2.752048614805957
 20
6.491891879632285
 30
0.0
 70
     8
  0
VERTEX
  5
41A
330
3F6
100
AcDbEntity
  8
image
 62
     5
100
AcDbVertex
100
AcDb2dVertex
 10
2.741115500396528
 20
6.477788200881092
 30
0.0
 70
     8
  0
VERTEX
  5
41B
330
3F6
100
AcDbEntity
  8
image
 62
     5
100
AcDbVertex
100
AcDb2dVertex
 10
2.728628039859136
 20
6.463883625776585
 30
0.0
 70
     8
  0
VERTEX
  5
41C
330
3F6
100
AcDbEntity
  8
image
 62
     5
100
AcDbVertex
100
AcDb2dVertex
 10
2.714577301810694
 20
6.450333289032537
 30
0.0
 70
     8
  0
VERTEX
  5
41D
330
3F6
100
AcDbEntity
  8
image
 62
     5
100
AcDbVertex
100
AcDb2dVertex
 10
2.698954354868114
 20
6.437292325362723
 30
0.0
 70
     8
  0
VERTEX
  5
41E
330
3F6
100
AcDbEntity
  8
image
 62
     5
100
AcDbVertex
100
AcDb2dVertex
 10
2.681750267648311
 20
6.424915869480918
 30
0.0
 70
     8
  0
VERTEX
  5
41F
330
3F6
100
AcDbEntity
  8
image
 62
     5
100
AcDbVertex
100
AcDb2dVertex
 10
2.662956108768197
 20
6.4133590561009
 30
0.0
 70
     8
  0
VERTEX
  5
420
330
3F6
100
AcDbEntity
  8
image
 62
     5
100
AcDbVertex
100
AcDb2dVertex
 10
2.642562946844687
 20
6.402777019936443
 30
0.0
 70
     8
  0
VERTEX
  5
421
330
3F6
100
AcDbEntity
  8
image
 62
     5
100
AcDbVertex
100
AcDb2dVertex
 10
2.620574830606482
 20
6.393279730530672
 30
0.0
 70
     8
  0
VERTEX
  5
422
330
3F6
100
AcDbEntity
  8
image
 62
     5
100
AcDbVertex
100
AcDb2dVertex
 10
2.597047729229453
 20
6.384796496744104
 30
0.0
 70
     8
  0
VERTEX
  5
423
330
3F6
100
AcDbEntity
  8
image
 62
     5
100
AcDbVertex
100
AcDb2dVertex
 10
2.572050592001257
 20
6.37721146226661
 30
0.0
 70
     8
  0
VERTEX
  5
424
330
3F6
100
AcDbEntity
  8
image
 62
     5
100
AcDbVertex
100
AcDb2dVertex
 10
2.545652368209555
 20
6.370408770788061
 30
0.0
 70
     8
  0
VERTEX
  5
425
330
3F6
100
AcDbEntity
  8
image
 62
     5
100
AcDbVertex
100
AcDb2dVertex
 10
2.517922007142002
 20
6.364272565998324
 30
0.0
 70
     8
  0
VERTEX
  5
426
330
3F6
100
AcDbEntity
  8
image
 62
     5
100
AcDbVertex
100
AcDb2dVertex
 10
2.48892845808626
 20
6.358686991587267
 30
0.0
 70
     8
  0
VERTEX
  5
427
330
3F6
100
AcDbEntity
  8
image
 62
     5
100
AcDbVertex
100
AcDb2dVertex
 10
2.458740670329985
 20
6.353536191244763
 30
0.0
 70
     8
  0
VERTEX
  5
428
330
3F6
100
AcDbEntity
  8
image
 62
     5
100
AcDbVertex
100
AcDb2dVertex
 10
2.427427593160839
 20
6.348704308660676
 30
0.0
 70
     8
  0
VERTEX
  5
429
330
3F6
100
AcDbEntity
  8
image
 62
     5
100
AcDbVertex
100
AcDb2dVertex
 10
2.395046728981121
 20
6.344075336678662
 30
0.0
 70
     8
  0
VERTEX
  5
42A
330
3F6
100
AcDbEntity
  8
image
 62
     5
100
AcDbVertex
100
AcDb2dVertex
 10
2.361609792651705
 20
6.339532664757508
 30
0.0
 70
     8
  0
VERTEX
  5
42B
330
3F6
100
AcDbEntity
  8
image
 62
     5
100
AcDbVertex
100
AcDb2dVertex
 10
2.327117052148103
 20
6.334959531509782
 30
0.0
 70
     8
  0
VERTEX
  5
42C
330
3F6
100
AcDbEntity
  8
image
 62
     5
100
AcDbVertex
100
AcDb2dVertex
 10
2.291568775445833
 20
6.330239175548055
 30
0.0
 70
     8
  0
VERTEX
  5
42D
330
3F6
100
AcDbEntity
  8
image
 62
     5
100
AcDbVertex
100
AcDb2dVertex
 10
2.254965230520408
 20
6.3252548354849
 30
0.0
 70
     8
  0
VERTEX
  5
42E
330
3F6
100
AcDbEntity
  8
image
 62
     5
100
AcDbVertex
100
AcDb2dVertex
 10
2.217306685347343
 20
6.319889749932881
 30
0.0
 70
     8
  0
VERTEX
  5
42F
330
3F6
100
AcDbEntity
  8
image
 62
     5
100
AcDbVertex
100
AcDb2dVertex
 10
2.178593407902154
 20
6.314027157504576
 30
0.0
 70
     8
  0
VERTEX
  5
430
330
3F6
100
AcDbEntity
  8
image
 62
     5
100
AcDbVertex
100
AcDb2dVertex
 10
2.138825666160354
 20
6.307550296812549
 30
0.0
 70
     8
  0
VERTEX
  5
431
330
3F6
100
AcDbEntity
  8
image
 62
     5
100
AcDbVertex
100
AcDb2dVertex
 10
2.781780754557573
 20
6.835383384587596
 30
0.0
 70
    16
  0
VERTEX
  5
432
330
3F6
100
AcDbEntity
  8
image
 62
     5
100
AcDbVertex
100
AcDb2dVertex
 10
2.818696562873782
 20
6.803753686014949
 30
0.0
 70
    16
  0
VERTEX
  5
433
330
3F6
100
AcDbEntity
  8
image
 62
     5
100
AcDbVertex
100
AcDb2dVertex
 10
2.818696562873782
 20
6.739176448511027
 30
0.0
 70
    16
  0
VERTEX
  5
434
330
3F6
100
AcDbEntity
  8
image
 62
     5
100
AcDbVertex
100
AcDb2dVertex
 10
2.797601758110813
 20
6.616611355292276
 30
0.0
 70
    16
  0
VERTEX
  5
435
330
3F6
100
AcDbEntity
  8
image
 62
     5
100
AcDbVertex
100
AcDb2dVertex
 10
2.777825470329602
 20
6.507225295645628
 30
0.0
 70
    16
  0
VERTEX
  5
436
330
3F6
100
AcDbEntity
  8
image
 62
     5
100
AcDbVertex
100
AcDb2dVertex
 10
2.65971424739385
 20
6.390724626023526
 30
0.0
 70
    16
  0
VERTEX
  5
437
330
3F6
100
AcDbEntity
  8
image
 62
     5
100
AcDbVertex
100
AcDb2dVertex
 10
2.438695221163122
 20
6.34653831987893
 30
0.0
 70
    16
  0
VERTEX
  5
438
330
3F6
100
AcDbEntity
  8
image
 62
     5
100
AcDbVertex
100
AcDb2dVertex
 10
2.246278691666844
 20
6.325744737576185
 30
0.0
 70
    16
  0
VERTEX
  5
439
330
3F6
100
AcDbEntity
  8
image
 62
     5
100
AcDbVertex
100
AcDb2dVertex
 10
2.138825666160354
 20
6.307550296812549
 30
0.0
 70
    16
  0
SEQEND
  5
43A
330
3F6
100
AcDbEntity
  8
image
 62
     5
  0
POLYLINE
  5
43B
330
2
100
AcDbEntity
  8
image
 62
     5
100
AcDb2dPolyline
 66
     1
 10
0.0
 20
0.0
 30
0.0
 70
     4
 40
0.0128125
 41
0.0128125
  0
VERTEX
  5
43C
330
43B
100
AcDbEntity
  8
image
 62
     5
100
AcDbVertex
100
AcDb2dVertex
 10
1.852533940825802
 20
6.300748879792638
 30
0.0
 70
    16
  0
VERTEX
  5
43D
330
43B
100
AcDbEntity
  8
image
 62
     5
100
AcDbVertex
100
AcDb2dVertex
 10
1.852533940825802
 20
6.300748879792638
 30
0.0
 70
     8
  0
VERTEX
  5
43E
330
43B
100
AcDbEntity
  8
image
 62
     5
100
AcDbVertex
100
AcDb2dVertex
 10
1.840352675180419
 20
6.298700330957276
 30
0.0
 70
     8
  0
VERTEX
  5
43F
330
43B
100
AcDbEntity
  8
image
 62
     5
100
AcDbVertex
100
AcDb2dVertex
 10
1.829419728033645
 20
6.296535527764098
 30
0.0
 70
     8
  0
VERTEX
  5
440
330
43B
100
AcDbEntity
  8
image
 62
     5
100
AcDbVertex
100
AcDb2dVertex
 10
1.819680620553317
 20
6.294138215855283
 30
0.0
 70
     8
  0
VERTEX
  5
441
330
43B
100
AcDbEntity
  8
image
 62
     5
100
AcDbVertex
100
AcDb2dVertex
 10
1.811080873907263
 20
6.291392140873012
 30
0.0
 70
     8
  0
VERTEX
  5
442
330
43B
100
AcDbEntity
  8
image
 62
     5
100
AcDbVertex
100
AcDb2dVertex
 10
1.803566009263315
 20
6.288181048459465
 30
0.0
 70
     8
  0
VERTEX
  5
443
330
43B
100
AcDbEntity
  8
image
 62
     5
100
AcDbVertex
100
AcDb2dVertex
 10
1.797081547789305
 20
6.284388684256827
 30
0.0
 70
     8
  0
VERTEX
  5
444
330
43B
100
AcDbEntity
  8
image
 62
     5
100
AcDbVertex
100
AcDb2dVertex
 10
1.791573010653065
 20
6.279898793907279
 30
0.0
 70
     8
  0
VERTEX
  5
445
330
43B
100
AcDbEntity
  8
image
 62
     5
100
AcDbVertex
100
AcDb2dVertex
 10
1.786985919022427
 20
6.274595123053001
 30
0.0
 70
     8
  0
VERTEX
  5
446
330
43B
100
AcDbEntity
  8
image
 62
     5
100
AcDbVertex
100
AcDb2dVertex
 10
1.783265622721931
 20
6.268385196576714
 30
0.0
 70
     8
  0
VERTEX
  5
447
330
43B
100
AcDbEntity
  8
image
 62
     5
100
AcDbVertex
100
AcDb2dVertex
 10
1.780356786202943
 20
6.261271656323294
 30
0.0
 70
     8
  0
VERTEX
  5
448
330
43B
100
AcDbEntity
  8
image
 62
     5
100
AcDbVertex
100
AcDb2dVertex
 10
1.77820390257354
 20
6.253280923378152
 30
0.0
 70
     8
  0
VERTEX
  5
449
330
43B
100
AcDbEntity
  8
image
 62
     5
100
AcDbVertex
100
AcDb2dVertex
 10
1.776751464941796
 20
6.244439418826707
 30
0.0
 70
     8
  0
VERTEX
  5
44A
330
43B
100
AcDbEntity
  8
image
 62
     5
100
AcDbVertex
100
AcDb2dVertex
 10
1.775943966415788
 20
6.23477356375437
 30
0.0
 70
     8
  0
VERTEX
  5
44B
330
43B
100
AcDbEntity
  8
image
 62
     5
100
AcDbVertex
100
AcDb2dVertex
 10
1.775725900103589
 20
6.224309779246557
 30
0.0
 70
     8
  0
VERTEX
  5
44C
330
43B
100
AcDbEntity
  8
image
 62
     5
100
AcDbVertex
100
AcDb2dVertex
 10
1.776041759113278
 20
6.213074486388681
 30
0.0
 70
     8
  0
VERTEX
  5
44D
330
43B
100
AcDbEntity
  8
image
 62
     5
100
AcDbVertex
100
AcDb2dVertex
 10
1.776836036552928
 20
6.201094106266158
 30
0.0
 70
     8
  0
VERTEX
  5
44E
330
43B
100
AcDbEntity
  8
image
 62
     5
100
AcDbVertex
100
AcDb2dVertex
 10
1.778071287292899
 20
6.188382730065949
 30
0.0
 70
     8
  0
VERTEX
  5
44F
330
43B
100
AcDbEntity
  8
image
 62
     5
100
AcDbVertex
100
AcDb2dVertex
 10
1.779782313252699
 20
6.174905129381206
 30
0.0
 70
     8
  0
VERTEX
  5
450
330
43B
100
AcDbEntity
  8
image
 62
     5
100
AcDbVertex
100
AcDb2dVertex
 10
1.78202197811411
 20
6.160613745906627
 30
0.0
 70
     8
  0
VERTEX
  5
451
330
43B
100
AcDbEntity
  8
image
 62
     5
100
AcDbVertex
100
AcDb2dVertex
 10
1.784843145558927
 20
6.145461021336915
 30
0.0
 70
     8
  0
VERTEX
  5
452
330
43B
100
AcDbEntity
  8
image
 62
     5
100
AcDbVertex
100
AcDb2dVertex
 10
1.788298679268931
 20
6.129399397366769
 30
0.0
 70
     8
  0
VERTEX
  5
453
330
43B
100
AcDbEntity
  8
image
 62
     5
100
AcDbVertex
100
AcDb2dVertex
 10
1.792441442925918
 20
6.112381315690886
 30
0.0
 70
     8
  0
VERTEX
  5
454
330
43B
100
AcDbEntity
  8
image
 62
     5
100
AcDbVertex
100
AcDb2dVertex
 10
1.797324300211672
 20
6.094359218003969
 30
0.0
 70
     8
  0
VERTEX
  5
455
330
43B
100
AcDbEntity
  8
image
 62
     5
100
AcDbVertex
100
AcDb2dVertex
 10
1.803000114807982
 20
6.075285546000715
 30
0.0
 70
     8
  0
VERTEX
  5
456
330
43B
100
AcDbEntity
  8
image
 62
     5
100
AcDbVertex
100
AcDb2dVertex
 10
1.809512058712961
 20
6.055129474876403
 30
0.0
 70
     8
  0
VERTEX
  5
457
330
43B
100
AcDbEntity
  8
image
 62
     5
100
AcDbVertex
100
AcDb2dVertex
 10
1.816864537190014
 20
6.033927113828614
 30
0.0
 70
     8
  0
VERTEX
  5
458
330
43B
100
AcDbEntity
  8
image
 62
     5
100
AcDbVertex
100
AcDb2dVertex
 10
1.825052263818868
 20
6.01173130555551
 30
0.0
 70
     8
  0
VERTEX
  5
459
330
43B
100
AcDbEntity
  8
image
 62
     5
100
AcDbVertex
100
AcDb2dVertex
 10
1.83406995217925
 20
5.988594892755251
 30
0.0
 70
     8
  0
VERTEX
  5
45A
330
43B
100
AcDbEntity
  8
image
 62
     5
100
AcDbVertex
100
AcDb2dVertex
 10
1.843912315850889
 20
5.964570718126
 30
0.0
 70
     8
  0
VERTEX
  5
45B
330
43B
100
AcDbEntity
  8
image
 62
     5
100
AcDbVertex
100
AcDb2dVertex
 10
1.854574068413512
 20
5.939711624365913
 30
0.0
 70
     8
  0
VERTEX
  5
45C
330
43B
100
AcDbEntity
  8
image
 62
     5
100
AcDbVertex
100
AcDb2dVertex
 10
1.866049923446851
 20
5.914070454173154
 30
0.0
 70
     8
  0
VERTEX
  5
45D
330
43B
100
AcDbEntity
  8
image
 62
     5
100
AcDbVertex
100
AcDb2dVertex
 10
1.878334594530628
 20
5.887700050245881
 30
0.0
 70
     8
  0
VERTEX
  5
45E
330
43B
100
AcDbEntity
  8
image
 62
     5
100
AcDbVertex
100
AcDb2dVertex
 10
1.891412222447442
 20
5.86058632095769
 30
0.0
 70
     8
  0
VERTEX
  5
45F
330
43B
100
AcDbEntity
  8
image
 62
     5
100
AcDbVertex
100
AcDb2dVertex
 10
1.905224656791354
 20
5.832447437383915
 30
0.0
 70
     8
  0
VERTEX
  5
460
330
43B
100
AcDbEntity
  8
image
 62
     5
100
AcDbVertex
100
AcDb2dVertex
 10
1.919703174359291
 20
5.80293463627532
 30
0.0
 70
     8
  0
VERTEX
  5
461
330
43B
100
AcDbEntity
  8
image
 62
     5
100
AcDbVertex
100
AcDb2dVertex
 10
1.934779051948185
 20
5.771699154382675
 30
0.0
 70
     8
  0
VERTEX
  5
462
330
43B
100
AcDbEntity
  8
image
 62
     5
100
AcDbVertex
100
AcDb2dVertex
 10
1.950383566354965
 20
5.738392228456746
 30
0.0
 70
     8
  0
VERTEX
  5
463
330
43B
100
AcDbEntity
  8
image
 62
     5
100
AcDbVertex
100
AcDb2dVertex
 10
1.966447994376558
 20
5.702665095248301
 30
0.0
 70
     8
  0
VERTEX
  5
464
330
43B
100
AcDbEntity
  8
image
 62
     5
100
AcDbVertex
100
AcDb2dVertex
 10
1.982903612809895
 20
5.664168991508107
 30
0.0
 70
     8
  0
VERTEX
  5
465
330
43B
100
AcDbEntity
  8
image
 62
     5
100
AcDbVertex
100
AcDb2dVertex
 10
1.999681698451905
 20
5.62255515398693
 30
0.0
 70
     8
  0
VERTEX
  5
466
330
43B
100
AcDbEntity
  8
image
 62
     5
100
AcDbVertex
100
AcDb2dVertex
 10
2.016681931172147
 20
5.577686695675797
 30
0.0
 70
     8
  0
VERTEX
  5
467
330
43B
100
AcDbEntity
  8
image
 62
     5
100
AcDbVertex
100
AcDb2dVertex
 10
2.033677603130715
 20
5.530274234526761
 30
0.0
 70
     8
  0
VERTEX
  5
468
330
43B
100
AcDbEntity
  8
image
 62
     5
100
AcDbVertex
100
AcDb2dVertex
 10
2.050410409560331
 20
5.481240264732135
 30
0.0
 70
     8
  0
VERTEX
  5
469
330
43B
100
AcDbEntity
  8
image
 62
     5
100
AcDbVertex
100
AcDb2dVertex
 10
2.066622045693717
 20
5.431507280484228
 30
0.0
 70
     8
  0
VERTEX
  5
46A
330
43B
100
AcDbEntity
  8
image
 62
     5
100
AcDbVertex
100
AcDb2dVertex
 10
2.082054206763597
 20
5.381997775975355
 30
0.0
 70
     8
  0
VERTEX
  5
46B
330
43B
100
AcDbEntity
  8
image
 62
     5
100
AcDbVertex
100
AcDb2dVertex
 10
2.09644858800269
 20
5.333634245397827
 30
0.0
 70
     8
  0
VERTEX
  5
46C
330
43B
100
AcDbEntity
  8
image
 62
     5
100
AcDbVertex
100
AcDb2dVertex
 10
2.109546884643725
 20
5.287339182943954
 30
0.0
 70
     8
  0
VERTEX
  5
46D
330
43B
100
AcDbEntity
  8
image
 62
     5
100
AcDbVertex
100
AcDb2dVertex
 10
2.121090791919421
 20
5.24403508280605
 30
0.0
 70
     8
  0
VERTEX
  5
46E
330
43B
100
AcDbEntity
  8
image
 62
     5
100
AcDbVertex
100
AcDb2dVertex
 10
2.130897412694306
 20
5.204370784540556
 30
0.0
 70
     8
  0
VERTEX
  5
46F
330
43B
100
AcDbEntity
  8
image
 62
     5
100
AcDbVertex
100
AcDb2dVertex
 10
2.139085480360126
 20
5.167900509160432
 30
0.0
 70
     8
  0
VERTEX
  5
470
330
43B
100
AcDbEntity
  8
image
 62
     5
100
AcDbVertex
100
AcDb2dVertex
 10
2.145849135940432
 20
5.133904823042769
 30
0.0
 70
     8
  0
VERTEX
  5
471
330
43B
100
AcDbEntity
  8
image
 62
     5
100
AcDbVertex
100
AcDb2dVertex
 10
2.151382520458776
 20
5.101664292564658
 30
0.0
 70
     8
  0
VERTEX
  5
472
330
43B
100
AcDbEntity
  8
image
 62
     5
100
AcDbVertex
100
AcDb2dVertex
 10
2.155879774938711
 20
5.070459484103187
 30
0.0
 70
     8
  0
VERTEX
  5
473
330
43B
100
AcDbEntity
  8
image
 62
     5
100
AcDbVertex
100
AcDb2dVertex
 10
2.159535040403785
 20
5.03957096403545
 30
0.0
 70
     8
  0
VERTEX
  5
474
330
43B
100
AcDbEntity
  8
image
 62
     5
100
AcDbVertex
100
AcDb2dVertex
 10
2.162542457877549
 20
5.008279298738536
 30
0.0
 70
     8
  0
VERTEX
  5
475
330
43B
100
AcDbEntity
  8
image
 62
     5
100
AcDbVertex
100
AcDb2dVertex
 10
2.165096168383557
 20
4.975865054589534
 30
0.0
 70
     8
  0
VERTEX
  5
476
330
43B
100
AcDbEntity
  8
image
 62
     5
100
AcDbVertex
100
AcDb2dVertex
 10
2.167393319896424
 20
4.941789977425534
 30
0.0
 70
     8
  0
VERTEX
  5
477
330
43B
100
AcDbEntity
  8
image
 62
     5
100
AcDbVertex
100
AcDb2dVertex
 10
2.16964308819503
 20
4.906240530923616
 30
0.0
 70
     8
  0
VERTEX
  5
478
330
43B
100
AcDbEntity
  8
image
 62
     5
100
AcDbVertex
100
AcDb2dVertex
 10
2.172057656009322
 20
4.86958435822086
 30
0.0
 70
     8
  0
VERTEX
  5
479
330
43B
100
AcDbEntity
  8
image
 62
     5
100
AcDbVertex
100
AcDb2dVertex
 10
2.174849206069243
 20
4.832189102454345
 30
0.0
 70
     8
  0
VERTEX
  5
47A
330
43B
100
AcDbEntity
  8
image
 62
     5
100
AcDbVertex
100
AcDb2dVertex
 10
2.178229921104742
 20
4.79442240676115
 30
0.0
 70
     8
  0
VERTEX
  5
47B
330
43B
100
AcDbEntity
  8
image
 62
     5
100
AcDbVertex
100
AcDb2dVertex
 10
2.182411983845764
 20
4.756651914278353
 30
0.0
 70
     8
  0
VERTEX
  5
47C
330
43B
100
AcDbEntity
  8
image
 62
     5
100
AcDbVertex
100
AcDb2dVertex
 10
2.187607577022252
 20
4.719245268143034
 30
0.0
 70
     8
  0
VERTEX
  5
47D
330
43B
100
AcDbEntity
  8
image
 62
     5
100
AcDbVertex
100
AcDb2dVertex
 10
2.194028883364156
 20
4.682570111492273
 30
0.0
 70
     8
  0
VERTEX
  5
47E
330
43B
100
AcDbEntity
  8
image
 62
     5
100
AcDbVertex
100
AcDb2dVertex
 10
2.201875188925606
 20
4.646949106887953
 30
0.0
 70
     8
  0
VERTEX
  5
47F
330
43B
100
AcDbEntity
  8
image
 62
     5
100
AcDbVertex
100
AcDb2dVertex
 10
2.21129419305749
 20
4.612524994591187
 30
0.0
 70
     8
  0
VERTEX
  5
480
330
43B
100
AcDbEntity
  8
image
 62
     5
100
AcDbVertex
100
AcDb2dVertex
 10
2.222420698434882
 20
4.579395534287892
 30
0.0
 70
     8
  0
VERTEX
  5
481
330
43B
100
AcDbEntity
  8
image
 62
     5
100
AcDbVertex
100
AcDb2dVertex
 10
2.235389507732854
 20
4.547658485663983
 30
0.0
 70
     8
  0
VERTEX
  5
482
330
43B
100
AcDbEntity
  8
image
 62
     5
100
AcDbVertex
100
AcDb2dVertex
 10
2.250335423626477
 20
4.51741160840538
 30
0.0
 70
     8
  0
VERTEX
  5
483
330
43B
100
AcDbEntity
  8
image
 62
     5
100
AcDbVertex
100
AcDb2dVertex
 10
2.267393248790829
 20
4.488752662197997
 30
0.0
 70
     8
  0
VERTEX
  5
484
330
43B
100
AcDbEntity
  8
image
 62
     5
100
AcDbVertex
100
AcDb2dVertex
 10
2.286697785900983
 20
4.461779406727754
 30
0.0
 70
     8
  0
VERTEX
  5
485
330
43B
100
AcDbEntity
  8
image
 62
     5
100
AcDbVertex
100
AcDb2dVertex
 10
2.308383837632009
 20
4.436589601680568
 30
0.0
 70
     8
  0
VERTEX
  5
486
330
43B
100
AcDbEntity
  8
image
 62
     5
100
AcDbVertex
100
AcDb2dVertex
 10
2.332980272225938
 20
4.413425372020626
 30
0.0
 70
     8
  0
VERTEX
  5
487
330
43B
100
AcDbEntity
  8
image
 62
     5
100
AcDbVertex
100
AcDb2dVertex
 10
2.362592220192617
 20
4.3931063038252
 30
0.0
 70
     8
  0
VERTEX
  5
488
330
43B
100
AcDbEntity
  8
image
 62
     5
100
AcDbVertex
100
AcDb2dVertex
 10
2.399718877608851
 20
4.376596348449838
 30
0.0
 70
     8
  0
VERTEX
  5
489
330
43B
100
AcDbEntity
  8
image
 62
     5
100
AcDbVertex
100
AcDb2dVertex
 10
2.446859440551442
 20
4.364859457250082
 30
0.0
 70
     8
  0
VERTEX
  5
48A
330
43B
100
AcDbEntity
  8
image
 62
     5
100
AcDbVertex
100
AcDb2dVertex
 10
2.506513105097196
 20
4.358859581581477
 30
0.0
 70
     8
  0
VERTEX
  5
48B
330
43B
100
AcDbEntity
  8
image
 62
     5
100
AcDbVertex
100
AcDb2dVertex
 10
2.581179067322914
 20
4.359560672799569
 30
0.0
 70
     8
  0
VERTEX
  5
48C
330
43B
100
AcDbEntity
  8
image
 62
     5
100
AcDbVertex
100
AcDb2dVertex
 10
2.6733565233054
 20
4.3679266822599
 30
0.0
 70
     8
  0
VERTEX
  5
48D
330
43B
100
AcDbEntity
  8
image
 62
     5
100
AcDbVertex
100
AcDb2dVertex
 10
2.78554466912146
 20
4.384921561318016
 30
0.0
 70
     8
  0
VERTEX
  5
48E
330
43B
100
AcDbEntity
  8
image
 62
     5
100
AcDbVertex
100
AcDb2dVertex
 10
1.818337715478037
 20
6.295337751501818
 30
0.0
 70
    16
  0
VERTEX
  5
48F
330
43B
100
AcDbEntity
  8
image
 62
     5
100
AcDbVertex
100
AcDb2dVertex
 10
1.777738274505804
 20
6.284515494920179
 30
0.0
 70
    16
  0
VERTEX
  5
490
330
43B
100
AcDbEntity
  8
image
 62
     5
100
AcDbVertex
100
AcDb2dVertex
 10
1.772324980147198
 20
6.208759878844651
 30
0.0
 70
    16
  0
VERTEX
  5
491
330
43B
100
AcDbEntity
  8
image
 62
     5
100
AcDbVertex
100
AcDb2dVertex
 10
1.793978024222967
 20
6.087009627298166
 30
0.0
 70
    16
  0
VERTEX
  5
492
330
43B
100
AcDbEntity
  8
image
 62
     5
100
AcDbVertex
100
AcDb2dVertex
 10
1.86976361180883
 20
5.894914887966973
 30
0.0
 70
    16
  0
VERTEX
  5
493
330
43B
100
AcDbEntity
  8
image
 62
     5
100
AcDbVertex
100
AcDb2dVertex
 10
1.996975095725485
 20
5.659531122309221
 30
0.0
 70
    16
  0
VERTEX
  5
494
330
43B
100
AcDbEntity
  8
image
 62
     5
100
AcDbVertex
100
AcDb2dVertex
 10
2.140426196000653
 20
5.202291546717729
 30
0.0
 70
    16
  0
VERTEX
  5
495
330
43B
100
AcDbEntity
  8
image
 62
     5
100
AcDbVertex
100
AcDb2dVertex
 10
2.167864871788426
 20
4.995513187656163
 30
0.0
 70
    16
  0
VERTEX
  5
496
330
43B
100
AcDbEntity
  8
image
 62
     5
100
AcDbVertex
100
AcDb2dVertex
 10
2.178691327146985
 20
4.670846030194821
 30
0.0
 70
    16
  0
VERTEX
  5
497
330
43B
100
AcDbEntity
  8
image
 62
     5
100
AcDbVertex
100
AcDb2dVertex
 10
2.281543119808571
 20
4.416523360518186
 30
0.0
 70
    16
  0
VERTEX
  5
498
330
43B
100
AcDbEntity
  8
image
 62
     5
100
AcDbVertex
100
AcDb2dVertex
 10
2.457473852876715
 20
4.327239878716621
 30
0.0
 70
    16
  0
VERTEX
  5
499
330
43B
100
AcDbEntity
  8
image
 62
     5
100
AcDbVertex
100
AcDb2dVertex
 10
2.78554466912146
 20
4.384921561318016
 30
0.0
 70
    16
  0
SEQEND
  5
49A
330
43B
100
AcDbEntity
  8
image
 62
     5
  0
POLYLINE
  5
49B
330
2
100
AcDbEntity
  8
image
 62
     5
100
AcDb2dPolyline
 66
     1
 10
0.0
 20
0.0
 30
0.0
 70
     4
 40
0.0128125
 41
0.0128125
 75
     6
  0
VERTEX
  5
49C
330
49B
100
AcDbEntity
  8
image
 62
     5
100
AcDbVertex
100
AcDb2dVertex
 10
2.207355568936815
 20
6.209946052164784
 30
0.0
 70
    16
  0
VERTEX
  5
49D
330
49B
100
AcDbEntity
  8
image
 62
     5
100
AcDbVertex
100
AcDb2dVertex
 10
2.207355568936815
 20
6.209946052164784
 30
0.0
 70
     8
  0
VERTEX
  5
49E
330
49B
100
AcDbEntity
  8
image
 62
     5
100
AcDbVertex
100
AcDb2dVertex
 10
2.189451379013693
 20
6.208892860829155
 30
0.0
 70
     8
  0
VERTEX
  5
49F
330
49B
100
AcDbEntity
  8
image
 62
     5
100
AcDbVertex
100
AcDb2dVertex
 10
2.175291479616412
 20
6.20705314422537
 30
0.0
 70
     8
  0
VERTEX
  5
4A0
330
49B
100
AcDbEntity
  8
image
 62
     5
100
AcDbVertex
100
AcDb2dVertex
 10
2.16436616616713
 20
6.204454024878146
 30
0.0
 70
     8
  0
VERTEX
  5
4A1
330
49B
100
AcDbEntity
  8
image
 62
     5
100
AcDbVertex
100
AcDb2dVertex
 10
2.156165734088004
 20
6.201122625312197
 30
0.0
 70
     8
  0
VERTEX
  5
4A2
330
49B
100
AcDbEntity
  8
image
 62
     5
100
AcDbVertex
100
AcDb2dVertex
 10
2.150180478801191
 20
6.197086068052239
 30
0.0
 70
     8
  0
VERTEX
  5
4A3
330
49B
100
AcDbEntity
  8
image
 62
     5
100
AcDbVertex
100
AcDb2dVertex
 10
2.145900695728848
 20
6.192371475622986
 30
0.0
 70
     8
  0
VERTEX
  5
4A4
330
49B
100
AcDbEntity
  8
image
 62
     5
100
AcDbVertex
100
AcDb2dVertex
 10
2.142816680293133
 20
6.187005970549154
 30
0.0
 70
     8
  0
VERTEX
  5
4A5
330
49B
100
AcDbEntity
  8
image
 62
     5
100
AcDbVertex
100
AcDb2dVertex
 10
2.1404187279162
 20
6.181016675355461
 30
0.0
 70
     8
  0
VERTEX
  5
4A6
330
49B
100
AcDbEntity
  8
image
 62
     5
100
AcDbVertex
100
AcDb2dVertex
 10
2.138269931868364
 20
6.17438777026101
 30
0.0
 70
     8
  0
VERTEX
  5
4A7
330
49B
100
AcDbEntity
  8
image
 62
     5
100
AcDbVertex
100
AcDb2dVertex
 10
2.136224576812544
 20
6.16693166626247
 30
0.0
 70
     8
  0
VERTEX
  5
4A8
330
49B
100
AcDbEntity
  8
image
 62
     5
100
AcDbVertex
100
AcDb2dVertex
 10
2.134209745259823
 20
6.158417832050897
 30
0.0
 70
     8
  0
VERTEX
  5
4A9
330
49B
100
AcDbEntity
  8
image
 62
     5
100
AcDbVertex
100
AcDb2dVertex
 10
2.132152519721273
 20
6.148615736317352
 30
0.0
 70
     8
  0
VERTEX
  5
4AA
330
49B
100
AcDbEntity
  8
image
 62
     5
100
AcDbVertex
100
AcDb2dVertex
 10
2.129979982707977
 20
6.137294847752893
 30
0.0
 70
     8
  0
VERTEX
  5
4AB
330
49B
100
AcDbEntity
  8
image
 62
     5
100
AcDbVertex
100
AcDb2dVertex
 10
2.127619216731011
 20
6.124224635048577
 30
0.0
 70
     8
  0
VERTEX
  5
4AC
330
49B
100
AcDbEntity
  8
image
 62
     5
100
AcDbVertex
100
AcDb2dVertex
 10
2.12499730430145
 20
6.109174566895464
 30
0.0
 70
     8
  0
VERTEX
  5
4AD
330
49B
100
AcDbEntity
  8
image
 62
     5
100
AcDbVertex
100
AcDb2dVertex
 10
2.122041327930375
 20
6.09191411198461
 30
0.0
 70
     8
  0
VERTEX
  5
4AE
330
49B
100
AcDbEntity
  8
image
 62
     5
100
AcDbVertex
100
AcDb2dVertex
 10
2.118708611113046
 20
6.072321224286709
 30
0.0
 70
     8
  0
VERTEX
  5
4AF
330
49B
100
AcDbEntity
  8
image
 62
     5
100
AcDbVertex
100
AcDb2dVertex
 10
2.115077441281458
 20
6.050707798890988
 30
0.0
 70
     8
  0
VERTEX
  5
4B0
330
49B
100
AcDbEntity
  8
image
 62
     5
100
AcDbVertex
100
AcDb2dVertex
 10
2.11125634685179
 20
6.027494216166308
 30
0.0
 70
     8
  0
VERTEX
  5
4B1
330
49B
100
AcDbEntity
  8
image
 62
     5
100
AcDbVertex
100
AcDb2dVertex
 10
2.107353856240221
 20
6.003100856481533
 30
0.0
 70
     8
  0
VERTEX
  5
4B2
330
49B
100
AcDbEntity
  8
image
 62
     5
100
AcDbVertex
100
AcDb2dVertex
 10
2.10347849786293
 20
5.977948100205523
 30
0.0
 70
     8
  0
VERTEX
  5
4B3
330
49B
100
AcDbEntity
  8
image
 62
     5
100
AcDbVertex
100
AcDb2dVertex
 10
2.099738800136096
 20
5.95245632770714
 30
0.0
 70
     8
  0
VERTEX
  5
4B4
330
49B
100
AcDbEntity
  8
image
 62
     5
100
AcDbVertex
100
AcDb2dVertex
 10
2.096243291475897
 20
5.927045919355246
 30
0.0
 70
     8
  0
VERTEX
  5
4B5
330
49B
100
AcDbEntity
  8
image
 62
     5
100
AcDbVertex
100
AcDb2dVertex
 10
2.093100500298511
 20
5.902137255518703
 30
0.0
 70
     8
  0
VERTEX
  5
4B6
330
49B
100
AcDbEntity
  8
image
 62
     5
100
AcDbVertex
100
AcDb2dVertex
 10
2.090407038825587
 20
5.878067094589808
 30
0.0
 70
     8
  0
VERTEX
  5
4B7
330
49B
100
AcDbEntity
  8
image
 62
     5
100
AcDbVertex
100
AcDb2dVertex
 10
2.088211854500638
 20
5.854837707054602
 30
0.0
 70
     8
  0
VERTEX
  5
4B8
330
49B
100
AcDbEntity
  8
image
 62
     5
100
AcDbVertex
100
AcDb2dVertex
 10
2.086551978572646
 20
5.832367741422559
 30
0.0
 70
     8
  0
VERTEX
  5
4B9
330
49B
100
AcDbEntity
  8
image
 62
     5
100
AcDbVertex
100
AcDb2dVertex
 10
2.085464442290593
 20
5.81057584620316
 30
0.0
 70
     8
  0
VERTEX
  5
4BA
330
49B
100
AcDbEntity
  8
image
 62
     5
100
AcDbVertex
100
AcDb2dVertex
 10
2.084986276903462
 20
5.78938066990588
 30
0.0
 70
     8
  0
VERTEX
  5
4BB
330
49B
100
AcDbEntity
  8
image
 62
     5
100
AcDbVertex
100
AcDb2dVertex
 10
2.085154513660235
 20
5.768700861040192
 30
0.0
 70
     8
  0
VERTEX
  5
4BC
330
49B
100
AcDbEntity
  8
image
 62
     5
100
AcDbVertex
100
AcDb2dVertex
 10
2.086006183809894
 20
5.748455068115577
 30
0.0
 70
     8
  0
VERTEX
  5
4BD
330
49B
100
AcDbEntity
  8
image
 62
     5
100
AcDbVertex
100
AcDb2dVertex
 10
2.087578318601421
 20
5.72856193964151
 30
0.0
 70
     8
  0
VERTEX
  5
4BE
330
49B
100
AcDbEntity
  8
image
 62
     5
100
AcDbVertex
100
AcDb2dVertex
 10
2.089892509547071
 20
5.708931450484668
 30
0.0
 70
     8
  0
VERTEX
  5
4BF
330
49B
100
AcDbEntity
  8
image
 62
     5
100
AcDbVertex
100
AcDb2dVertex
 10
2.092908589212193
 20
5.689438880940529
 30
0.0
 70
     8
  0
VERTEX
  5
4C0
330
49B
100
AcDbEntity
  8
image
 62
     5
100
AcDbVertex
100
AcDb2dVertex
 10
2.096570950425409
 20
5.66995083766177
 30
0.0
 70
     8
  0
VERTEX
  5
4C1
330
49B
100
AcDbEntity
  8
image
 62
     5
100
AcDbVertex
100
AcDb2dVertex
 10
2.100823986015337
 20
5.650333927301072
 30
0.0
 70
     8
  0
VERTEX
  5
4C2
330
49B
100
AcDbEntity
  8
image
 62
     5
100
AcDbVertex
100
AcDb2dVertex
 10
2.1056120888106
 20
5.63045475651111
 30
0.0
 70
     8
  0
VERTEX
  5
4C3
330
49B
100
AcDbEntity
  8
image
 62
     5
100
AcDbVertex
100
AcDb2dVertex
 10
2.110879651639818
 20
5.610179931944564
 30
0.0
 70
     8
  0
VERTEX
  5
4C4
330
49B
100
AcDbEntity
  8
image
 62
     5
100
AcDbVertex
100
AcDb2dVertex
 10
2.116571067331614
 20
5.58937606025411
 30
0.0
 70
     8
  0
VERTEX
  5
4C5
330
49B
100
AcDbEntity
  8
image
 62
     5
100
AcDbVertex
100
AcDb2dVertex
 10
2.122630728714607
 20
5.567909748092431
 30
0.0
 70
     8
  0
VERTEX
  5
4C6
330
49B
100
AcDbEntity
  8
image
 62
     5
100
AcDbVertex
100
AcDb2dVertex
 10
2.128997503957476
 20
5.545653521500545
 30
0.0
 70
     8
  0
VERTEX
  5
4C7
330
49B
100
AcDbEntity
  8
image
 62
     5
100
AcDbVertex
100
AcDb2dVertex
 10
2.135588162589112
 20
5.522503584072847
 30
0.0
 70
     8
  0
VERTEX
  5
4C8
330
49B
100
AcDbEntity
  8
image
 62
     5
100
AcDbVertex
100
AcDb2dVertex
 10
2.142313949478467
 20
5.498362058792075
 30
0.0
 70
     8
  0
VERTEX
  5
4C9
330
49B
100
AcDbEntity
  8
image
 62
     5
100
AcDbVertex
100
AcDb2dVertex
 10
2.149086109494486
 20
5.473131068640966
 30
0.0
 70
     8
  0
VERTEX
  5
4CA
330
49B
100
AcDbEntity
  8
image
 62
     5
100
AcDbVertex
100
AcDb2dVertex
 10
2.155815887506122
 20
5.446712736602258
 30
0.0
 70
     8
  0
VERTEX
  5
4CB
330
49B
100
AcDbEntity
  8
image
 62
     5
100
AcDbVertex
100
AcDb2dVertex
 10
2.162414528382321
 20
5.419009185658687
 30
0.0
 70
     8
  0
VERTEX
  5
4CC
330
49B
100
AcDbEntity
  8
image
 62
     5
100
AcDbVertex
100
AcDb2dVertex
 10
2.168793276992033
 20
5.389922538792992
 30
0.0
 70
     8
  0
VERTEX
  5
4CD
330
49B
100
AcDbEntity
  8
image
 62
     5
100
AcDbVertex
100
AcDb2dVertex
 10
2.174863378204211
 20
5.359354918987913
 30
0.0
 70
     8
  0
VERTEX
  5
4CE
330
49B
100
AcDbEntity
  8
image
 62
     5
100
AcDbVertex
100
AcDb2dVertex
 10
2.18056409874409
 20
5.327215486733908
 30
0.0
 70
     8
  0
VERTEX
  5
4CF
330
49B
100
AcDbEntity
  8
image
 62
     5
100
AcDbVertex
100
AcDb2dVertex
 10
2.185946792762095
 20
5.293441552552343
 30
0.0
 70
     8
  0
VERTEX
  5
4D0
330
49B
100
AcDbEntity
  8
image
 62
     5
100
AcDbVertex
100
AcDb2dVertex
 10
2.191090836264935
 20
5.257977464472308
 30
0.0
 70
     8
  0
VERTEX
  5
4D1
330
49B
100
AcDbEntity
  8
image
 62
     5
100
AcDbVertex
100
AcDb2dVertex
 10
2.196075605259323
 20
5.220767570522891
 30
0.0
 70
     8
  0
VERTEX
  5
4D2
330
49B
100
AcDbEntity
  8
image
 62
     5
100
AcDbVertex
100
AcDb2dVertex
 10
2.200980475751974
 20
5.181756218733182
 30
0.0
 70
     8
  0
VERTEX
  5
4D3
330
49B
100
AcDbEntity
  8
image
 62
     5
100
AcDbVertex
100
AcDb2dVertex
 10
2.205884823749597
 20
5.140887757132272
 30
0.0
 70
     8
  0
VERTEX
  5
4D4
330
49B
100
AcDbEntity
  8
image
 62
     5
100
AcDbVertex
100
AcDb2dVertex
 10
2.210868025258905
 20
5.098106533749248
 30
0.0
 70
     8
  0
VERTEX
  5
4D5
330
49B
100
AcDbEntity
  8
image
 62
     5
100
AcDbVertex
100
AcDb2dVertex
 10
2.216009456286611
 20
5.0533568966132
 30
0.0
 70
     8
  0
VERTEX
  5
4D6
330
49B
100
AcDbEntity
  8
image
 62
     5
100
AcDbVertex
100
AcDb2dVertex
 10
2.221392659863159
 20
5.006709095970204
 30
0.0
 70
     8
  0
VERTEX
  5
4D7
330
49B
100
AcDbEntity
  8
image
 62
     5
100
AcDbVertex
100
AcDb2dVertex
 10
2.227117847113916
 20
4.958736990934283
 30
0.0
 70
     8
  0
VERTEX
  5
4D8
330
49B
100
AcDbEntity
  8
image
 62
     5
100
AcDbVertex
100
AcDb2dVertex
 10
2.233289396187988
 20
4.910140342836452
 30
0.0
 70
     8
  0
VERTEX
  5
4D9
330
49B
100
AcDbEntity
  8
image
 62
     5
100
AcDbVertex
100
AcDb2dVertex
 10
2.24001168523447
 20
4.86161891300772
 30
0.0
 70
     8
  0
VERTEX
  5
4DA
330
49B
100
AcDbEntity
  8
image
 62
     5
100
AcDbVertex
100
AcDb2dVertex
 10
2.247389092402467
 20
4.813872462779098
 30
0.0
 70
     8
  0
VERTEX
  5
4DB
330
49B
100
AcDbEntity
  8
image
 62
     5
100
AcDbVertex
100
AcDb2dVertex
 10
2.255525995841077
 20
4.767600753481598
 30
0.0
 70
     8
  0
VERTEX
  5
4DC
330
49B
100
AcDbEntity
  8
image
 62
     5
100
AcDbVertex
100
AcDb2dVertex
 10
2.264526773699403
 20
4.723503546446231
 30
0.0
 70
     8
  0
VERTEX
  5
4DD
330
49B
100
AcDbEntity
  8
image
 62
     5
100
AcDbVertex
100
AcDb2dVertex
 10
2.274495804126544
 20
4.682280603004008
 30
0.0
 70
     8
  0
VERTEX
  5
4DE
330
49B
100
AcDbEntity
  8
image
 62
     5
100
AcDbVertex
100
AcDb2dVertex
 10
2.285552347089911
 20
4.644476587198083
 30
0.0
 70
     8
  0
VERTEX
  5
4DF
330
49B
100
AcDbEntity
  8
image
 62
     5
100
AcDbVertex
100
AcDb2dVertex
 10
2.297875189830145
 20
4.610015773920169
 30
0.0
 70
     8
  0
VERTEX
  5
4E0
330
49B
100
AcDbEntity
  8
image
 62
     5
100
AcDbVertex
100
AcDb2dVertex
 10
2.311658001406197
 20
4.578667340774122
 30
0.0
 70
     8
  0
VERTEX
  5
4E1
330
49B
100
AcDbEntity
  8
image
 62
     5
100
AcDbVertex
100
AcDb2dVertex
 10
2.327094450877016
 20
4.550200465363797
 30
0.0
 70
     8
  0
VERTEX
  5
4E2
330
49B
100
AcDbEntity
  8
image
 62
     5
100
AcDbVertex
100
AcDb2dVertex
 10
2.344378207301556
 20
4.52438432529305
 30
0.0
 70
     8
  0
VERTEX
  5
4E3
330
49B
100
AcDbEntity
  8
image
 62
     5
100
AcDbVertex
100
AcDb2dVertex
 10
2.363702939738764
 20
4.500988098165738
 30
0.0
 70
     8
  0
VERTEX
  5
4E4
330
49B
100
AcDbEntity
  8
image
 62
     5
100
AcDbVertex
100
AcDb2dVertex
 10
2.385262317247594
 20
4.479780961585714
 30
0.0
 70
     8
  0
VERTEX
  5
4E5
330
49B
100
AcDbEntity
  8
image
 62
     5
100
AcDbVertex
100
AcDb2dVertex
 10
2.409250008886992
 20
4.460532093156835
 30
0.0
 70
     8
  0
VERTEX
  5
4E6
330
49B
100
AcDbEntity
  8
image
 62
     5
100
AcDbVertex
100
AcDb2dVertex
 10
2.436003694519321
 20
4.443080165501879
 30
0.0
 70
     8
  0
VERTEX
  5
4E7
330
49B
100
AcDbEntity
  8
image
 62
     5
100
AcDbVertex
100
AcDb2dVertex
 10
2.466437097220566
 20
4.427541831319313
 30
0.0
 70
     8
  0
VERTEX
  5
4E8
330
49B
100
AcDbEntity
  8
image
 62
     5
100
AcDbVertex
100
AcDb2dVertex
 10
2.501607950870125
 20
4.41410323832653
 30
0.0
 70
     8
  0
VERTEX
  5
4E9
330
49B
100
AcDbEntity
  8
image
 62
     5
100
AcDbVertex
100
AcDb2dVertex
 10
2.542573989347392
 20
4.402950534240919
 30
0.0
 70
     8
  0
VERTEX
  5
4EA
330
49B
100
AcDbEntity
  8
image
 62
     5
100
AcDbVertex
100
AcDb2dVertex
 10
2.590392946531762
 20
4.394269866779872
 30
0.0
 70
     8
  0
VERTEX
  5
4EB
330
49B
100
AcDbEntity
  8
image
 62
     5
100
AcDbVertex
100
AcDb2dVertex
 10
2.646122556302634
 20
4.388247383660778
 30
0.0
 70
     8
  0
VERTEX
  5
4EC
330
49B
100
AcDbEntity
  8
image
 62
     5
100
AcDbVertex
100
AcDb2dVertex
 10
2.7108205525394
 20
4.385069232601029
 30
0.0
 70
     8
  0
VERTEX
  5
4ED
330
49B
100
AcDbEntity
  8
image
 62
     5
100
AcDbVertex
100
AcDb2dVertex
 10
2.78554466912146
 20
4.384921561318018
 30
0.0
 70
     8
  0
VERTEX
  5
4EE
330
49B
100
AcDbEntity
  8
image
 62
     5
100
AcDbVertex
100
AcDb2dVertex
 10
2.154165604371504
 20
6.208210351204837
 30
0.0
 70
    16
  0
VERTEX
  5
4EF
330
49B
100
AcDbEntity
  8
image
 62
     5
100
AcDbVertex
100
AcDb2dVertex
 10
2.138537570786162
 20
6.187381129703704
 30
0.0
 70
    16
  0
VERTEX
  5
4F0
330
49B
100
AcDbEntity
  8
image
 62
     5
100
AcDbVertex
100
AcDb2dVertex
 10
2.126382463188376
 20
6.117950571362546
 30
0.0
 70
    16
  0
VERTEX
  5
4F1
330
49B
100
AcDbEntity
  8
image
 62
     5
100
AcDbVertex
100
AcDb2dVertex
 10
2.088180544042586
 20
5.892301256753772
 30
0.0
 70
    16
  0
VERTEX
  5
4F2
330
49B
100
AcDbEntity
  8
image
 62
     5
100
AcDbVertex
100
AcDb2dVertex
 10
2.079498362432351
 20
5.725667934734582
 30
0.0
 70
    16
  0
VERTEX
  5
4F3
330
49B
100
AcDbEntity
  8
image
 62
     5
100
AcDbVertex
100
AcDb2dVertex
 10
2.119295917836536
 20
5.576398642156959
 30
0.0
 70
    16
  0
VERTEX
  5
4F4
330
49B
100
AcDbEntity
  8
image
 62
     5
100
AcDbVertex
100
AcDb2dVertex
 10
2.179102338509155
 20
5.37619598519217
 30
0.0
 70
    16
  0
VERTEX
  5
4F5
330
49B
100
AcDbEntity
  8
image
 62
     5
100
AcDbVertex
100
AcDb2dVertex
 10
2.213474997352102
 20
5.074946931001836
 30
0.0
 70
    16
  0
VERTEX
  5
4F6
330
49B
100
AcDbEntity
  8
image
 62
     5
100
AcDbVertex
100
AcDb2dVertex
 10
2.2630544098021
 20
4.644157670479678
 30
0.0
 70
    16
  0
VERTEX
  5
4F7
330
49B
100
AcDbEntity
  8
image
 62
     5
100
AcDbVertex
100
AcDb2dVertex
 10
2.381282188198767
 20
4.442106005103498
 30
0.0
 70
    16
  0
VERTEX
  5
4F8
330
49B
100
AcDbEntity
  8
image
 62
     5
100
AcDbVertex
100
AcDb2dVertex
 10
2.571971989882785
 20
4.381109247066055
 30
0.0
 70
    16
  0
VERTEX
  5
4F9
330
49B
100
AcDbEntity
  8
image
 62
     5
100
AcDbVertex
100
AcDb2dVertex
 10
2.78554466912146
 20
4.384921561318016
 30
0.0
 70
    16
  0
SEQEND
  5
4FA
330
49B
100
AcDbEntity
  8
image
 62
     5
  0
LWPOLYLINE
  5
4FB
330
2
100
AcDbEntity
  8
image
100
AcDbPolyline
 90
        2
 70
     0
 43
0.025625
 10
2.78554466912146
 20
4.384921561318016
 10
4.22863406361732
 20
4.380801241440086
  0
MTEXT
  5
4FC
102
{ACAD_XDICTIONARY
360
748
102
}
330
2
100
AcDbEntity
  8
text_bubbles
100
AcDbMText
 10
0.9398851498350921
 20
3.471865785135019
 30
0.0
 40
0.125
 41
5.693102208223731
 71
     1
 72
     5
  1
NOTES:\P\pi-0.375,l0.375;1. MAXIMUM LENGTH OF SECONDARY WIRE PATH (14 AWG) FROM FIELD DECODER TO SOLENOID IS 450 FEET.\P\P2. PLACE 3 FEET OF EXTRA WIRE IN EVERY VALVE BOX FOR EASIER SERVICING.
  7
ROMANS
 73
     1
 44
1.0
  0
LEADER
  5
500
330
2
100
AcDbEntity
  8
text_bubbles
100
AcDbLeader
  3
STANDARD
 76
     2
 10
2.424335787278652
 20
6.998381529142983
 30
0.0
 10
1.989403610068519
 20
8.244042370170403
 30
0.0
1001
ACAD
1000
DSTYLE
1002
{
1070
   147
1040
0.09
1070
    77
1070
     0
1002
}
  0
LEADER
  5
504
330
2
100
AcDbEntity
  8
text_bubbles
100
AcDbLeader
  3
STANDARD
 76
     2
 10
2.866106219453971
 20
6.833055062561583
 30
0.0
 10
2.341656324855906
 20
8.244042370170403
 30
0.0
1001
ACAD
1000
DSTYLE
1002
{
1070
   147
1040
0.09
1070
    77
1070
     0
1002
}
  0
LEADER
  5
505
330
2
100
AcDbEntity
  8
text_bubbles
100
AcDbLeader
  3
STANDARD
 76
     2
 10
3.174528600949683
 20
6.612594486764935
 30
0.0
 10
2.661111428823041
 20
8.244042370170403
 30
0.0
1001
ACAD
1000
DSTYLE
1002
{
1070
   147
1040
0.09
1070
    77
1070
     0
1002
}
  0
LEADER
  5
506
330
2
100
AcDbEntity
  8
text_bubbles
100
AcDbLeader
  3
STANDARD
 76
     2
 10
3.568022057486664
 20
6.643874342038167
 30
0.0
 10
3.020749895825264
 20
8.244042370170403
 30
0.0
1001
ACAD
1000
DSTYLE
1002
{
1070
   147
1040
0.09
1070
    77
1070
     0
1002
}
  0
LEADER
  5
507
330
2
100
AcDbEntity
  8
text_bubbles
100
AcDbLeader
  3
STANDARD
 76
     2
 10
4.218408943186855
 20
6.534842316586351
 30
0.0
 10
3.520126453757905
 20
8.244042370170403
 30
0.0
1001
ACAD
1000
DSTYLE
1002
{
1070
   147
1040
0.09
1070
    77
1070
     0
1002
}
  0
LEADER
  5
508
330
2
100
AcDbEntity
  8
text_bubbles
100
AcDbLeader
  3
STANDARD
 76
     2
 10
5.347641898396444
 20
7.718237263507196
 30
0.0
 10
5.168122501106722
 20
8.223450333785947
 30
0.0
1001
ACAD
1000
DSTYLE
1002
{
1070
   147
1040
0.09
1070
    77
1070
     0
1002
}
  0
LEADER
  5
509
330
2
100
AcDbEntity
  8
text_bubbles
100
AcDbLeader
  3
STANDARD
 76
     2
 10
5.961268862239006
 20
7.718237263507196
 30
0.0
 10
5.781749464949284
 20
8.223450333785947
 30
0.0
1001
ACAD
1000
DSTYLE
1002
{
1070
   147
1040
0.09
1070
    77
1070
     0
1002
}
  0
LEADER
  5
50A
330
2
100
AcDbEntity
  8
text_bubbles
100
AcDbLeader
  3
STANDARD
 76
     2
 10
6.018625414384643
 20
4.423514504218313
 30
0.0
 10
6.117928343832796
 20
4.010605310805353
 30
0.0
1001
ACAD
1000
DSTYLE
1002
{
1070
   147
1040
0.09
1070
    77
1070
     0
1002
}
  0
LEADER
  5
50B
330
2
100
AcDbEntity
  8
text_bubbles
100
AcDbLeader
  3
STANDARD
 76
     2
 10
5.165769731354505
 20
5.277036710711437
 30
0.0
 10
5.587271797176152
 20
4.005251689999879
 30
0.0
1001
ACAD
1000
DSTYLE
1002
{
1070
   147
1040
0.09
1070
    77
1070
     0
1002
}
  0
LEADER
  5
50C
330
2
100
AcDbEntity
  8
text_bubbles
100
AcDbLeader
  3
STANDARD
 76
     2
 10
4.986405777666318
 20
4.69567677842479
 30
0.0
 10
5.197504120350241
 20
4.010957935162839
 30
0.0
1001
ACAD
1000
DSTYLE
1002
{
1070
   147
1040
0.09
1070
    77
1070
     0
1002
}
  0
LEADER
  5
50D
330
2
100
AcDbEntity
  8
text_bubbles
100
AcDbLeader
  3
STANDARD
 76
     2
 10
3.088449917618
 20
4.37991105433606
 30
0.0
 10
3.196495016601718
 20
4.010636440886399
 30
0.0
1001
ACAD
1000
DSTYLE
1002
{
1070
   147
1040
0.09
1070
    77
1070
     0
1002
}
  0
LEADER
  5
50E
330
2
100
AcDbEntity
  8
text_bubbles
100
AcDbLeader
  3
STANDARD
 76
     2
 10
3.209316381122517
 20
5.277036710711437
 30
0.0
 10
3.635379425779196
 20
4.010636440886399
 30
0.0
1001
ACAD
1000
DSTYLE
1002
{
1070
   147
1040
0.09
1070
    77
1070
     0
1002
}
  0
LEADER
  5
50F
330
2
100
AcDbEntity
  8
text_bubbles
100
AcDbLeader
  3
STANDARD
 76
     2
 10
2.388109218909426
 20
4.37991105433606
 30
0.0
 10
2.496154317893145
 20
4.010636440886399
 30
0.0
1001
ACAD
1000
DSTYLE
1002
{
1070
   147
1040
0.09
1070
    77
1070
     0
1002
}
  0
LEADER
  5
510
330
2
100
AcDbEntity
  8
text_bubbles
100
AcDbLeader
  3
STANDARD
 76
     2
 10
1.844486730970017
 20
4.37991105433606
 30
0.0
 10
1.952531829953736
 20
4.010636440886399
 30
0.0
1001
ACAD
1000
DSTYLE
1002
{
1070
   147
1040
0.09
1070
    77
1070
     0
1002
}
  0
LEADER
  5
511
330
2
100
AcDbEntity
  8
text_bubbles
100
AcDbLeader
  3
STANDARD
 76
     2
 10
2.247081127611877
 20
6.324131614011239
 30
0.0
 10
1.570812428682891
 20
8.244042370170403
 30
0.0
1001
ACAD
1000
DSTYLE
1002
{
1070
   147
1040
0.09
1070
    77
1070
     0
1002
}
  0
INSERT
  5
512
330
2
100
AcDbEntity
  8
text_bubbles
100
AcDbBlockReference
 66
     1
  2
bubble
 10
7.996304023676877
 20
9.795311338097661
 30
0.0
  0
ATTRIB
  5
518
330
512
100
AcDbEntity
  8
text_bubbles
100
AcDbText
 10
7.945708785581639
 20
9.732811338097661
 30
0.0
 40
0.125
  1
1
  7
ROMANS
 72
     4
 11
7.996304023676877
 21
9.795311338097661
 31
0.0
100
AcDbAttribute
  2
XX
 70
     0
  0
SEQEND
  5
519
330
512
100
AcDbEntity
  8
text_bubbles
  0
INSERT
  5
51A
330
2
100
AcDbEntity
  8
text_bubbles
100
AcDbBlockReference
 66
     1
  2
bubble
 10
7.991906369835614
 20
9.340931587629926
 30
0.0
  0
ATTRIB
  5
51B
330
51A
100
AcDbEntity
  8
text_bubbles
100
AcDbText
 10
7.932382560311805
 20
9.278431587629926
 30
0.0
 40
0.125
  1
2
  7
ROMANS
 72
     4
 11
7.991906369835614
 21
9.340931587629926
 31
0.0
100
AcDbAttribute
  2
XX
 70
     0
  0
SEQEND
  5
51C
330
51A
100
AcDbEntity
  8
text_bubbles
  0
INSERT
  5
51D
330
2
100
AcDbEntity
  8
text_bubbles
100
AcDbBlockReference
 66
     1
  2
bubble
 10
7.996304023676877
 20
8.465983015529545
 30
0.0
  0
ATTRIB
  5
51E
330
51D
100
AcDbEntity
  8
text_bubbles
100
AcDbText
 10
7.936780214153068
 20
8.403483015529545
 30
0.0
 40
0.125
  1
3
  7
ROMANS
 72
     4
 11
7.996304023676877
 21
8.465983015529545
 31
0.0
100
AcDbAttribute
  2
XX
 70
     0
  0
SEQEND
  5
51F
330
51D
100
AcDbEntity
  8
text_bubbles
  0
INSERT
  5
520
330
2
100
AcDbEntity
  8
text_bubbles
100
AcDbBlockReference
 66
     1
  2
bubble
 10
7.996304023676877
 20
8.068576983320291
 30
0.0
  0
ATTRIB
  5
521
330
520
100
AcDbEntity
  8
text_bubbles
100
AcDbText
 10
7.933804023676877
 20
8.006076983320291
 30
0.0
 40
0.125
  1
4
  7
ROMANS
 72
     4
 11
7.996304023676877
 21
8.068576983320291
 31
0.0
100
AcDbAttribute
  2
XX
 70
     0
  0
SEQEND
  5
522
330
520
100
AcDbEntity
  8
text_bubbles
  0
INSERT
  5
523
330
2
100
AcDbEntity
  8
text_bubbles
100
AcDbBlockReference
 66
     1
  2
bubble
 10
7.996304023676877
 20
7.391907610865136
 30
0.0
  0
ATTRIB
  5
524
330
523
100
AcDbEntity
  8
text_bubbles
100
AcDbText
 10
7.936780214153068
 20
7.329407610865136
 30
0.0
 40
0.125
  1
5
  7
ROMANS
 72
     4
 11
7.996304023676877
 21
7.391907610865136
 31
0.0
100
AcDbAttribute
  2
XX
 70
     0
  0
SEQEND
  5
525
330
523
100
AcDbEntity
  8
text_bubbles
  0
INSERT
  5
526
330
2
100
AcDbEntity
  8
text_bubbles
100
AcDbBlockReference
 66
     1
  2
bubble
 10
7.996304023676877
 20
6.973124786067407
 30
0.0
  0
ATTRIB
  5
527
330
526
100
AcDbEntity
  8
text_bubbles
100
AcDbText
 10
7.933804023676877
 20
6.910624786067407
 30
0.0
 40
0.125
  1
6
  7
ROMANS
 72
     4
 11
7.996304023676877
 21
6.973124786067407
 31
0.0
100
AcDbAttribute
  2
XX
 70
     0
  0
SEQEND
  5
528
330
526
100
AcDbEntity
  8
text_bubbles
  0
INSERT
  5
529
330
2
100
AcDbEntity
  8
text_bubbles
100
AcDbBlockReference
 66
     1
  2
bubble
 10
7.996304023676877
 20
6.557677026484663
 30
0.0
  0
ATTRIB
  5
52A
330
529
100
AcDbEntity
  8
text_bubbles
100
AcDbText
 10
7.936780214153068
 20
6.495177026484663
 30
0.0
 40
0.125
  1
7
  7
ROMANS
 72
     4
 11
7.996304023676877
 21
6.557677026484663
 31
0.0
100
AcDbAttribute
  2
XX
 70
     0
  0
SEQEND
  5
52B
330
529
100
AcDbEntity
  8
text_bubbles
  0
INSERT
  5
52C
330
2
100
AcDbEntity
  8
text_bubbles
100
AcDbBlockReference
 66
     1
  2
bubble
 10
7.996304023676877
 20
5.933761427835143
 30
0.0
  0
ATTRIB
  5
52D
330
52C
100
AcDbEntity
  8
text_bubbles
100
AcDbText
 10
7.936780214153068
 20
5.871261427835143
 30
0.0
 40
0.125
  1
8
  7
ROMANS
 72
     4
 11
7.996304023676877
 21
5.933761427835143
 31
0.0
100
AcDbAttribute
  2
XX
 70
     0
  0
SEQEND
  5
52E
330
52C
100
AcDbEntity
  8
text_bubbles
  0
INSERT
  5
52F
330
2
100
AcDbEntity
  8
text_bubbles
100
AcDbBlockReference
 66
     1
  2
bubble
 10
7.996304023676877
 20
5.493272988996786
 30
0.0
  0
ATTRIB
  5
530
330
52F
100
AcDbEntity
  8
text_bubbles
100
AcDbText
 10
7.939756404629259
 20
5.430772988996786
 30
0.0
 40
0.125
  1
9
  7
ROMANS
 72
     4
 11
7.996304023676877
 21
5.493272988996786
 31
0.0
100
AcDbAttribute
  2
XX
 70
     0
  0
SEQEND
  5
531
330
52F
100
AcDbEntity
  8
text_bubbles
  0
INSERT
  5
532
330
2
100
AcDbEntity
  8
text_bubbles
100
AcDbBlockReference
 66
     1
  2
bubble
 10
7.996304023676877
 20
5.073419432034452
 30
0.0
  0
ATTRIB
  5
533
330
532
100
AcDbEntity
  8
text_bubbles
100
AcDbText
 10
7.868327833200686
 20
5.010919432034452
 30
0.0
 40
0.125
  1
10
  7
ROMANS
 72
     4
 11
7.996304023676877
 21
5.073419432034452
 31
0.0
100
AcDbAttribute
  2
XX
 70
     0
  0
SEQEND
  5
534
330
532
100
AcDbEntity
  8
text_bubbles
  0
INSERT
  5
535
330
2
100
AcDbEntity
  8
text_bubbles
100
AcDbBlockReference
 66
     1
  2
bubble
 10
7.996304023676877
 20
4.636574807757721
 30
0.0
  0
ATTRIB
  5
536
330
535
100
AcDbEntity
  8
text_bubbles
100
AcDbText
 10
7.88618497605783
 20
4.574074807757721
 30
0.0
 40
0.125
  1
11
  7
ROMANS
 72
     4
 11
7.996304023676877
 21
4.636574807757721
 31
0.0
100
AcDbAttribute
  2
XX
 70
     0
  0
SEQEND
  5
537
330
535
100
AcDbEntity
  8
text_bubbles
  0
INSERT
  5
538
330
2
100
AcDbEntity
  8
text_bubbles
100
AcDbBlockReference
 66
     1
  2
bubble
 10
7.996304023676877
 20
4.009759530685334
 30
0.0
  0
ATTRIB
  5
539
330
538
100
AcDbEntity
  8
text_bubbles
100
AcDbText
 10
7.868327833200686
 20
3.947259530685334
 30
0.0
 40
0.125
  1
12
  7
ROMANS
 72
     4
 11
7.996304023676877
 21
4.009759530685334
 31
0.0
100
AcDbAttribute
  2
XX
 70
     0
  0
SEQEND
  5
53A
330
538
100
AcDbEntity
  8
text_bubbles
  0
INSERT
  5
53B
330
2
100
AcDbEntity
  8
text_bubbles
100
AcDbBlockReference
 66
     1
  2
bubble
 10
7.996304023676877
 20
3.571324412240106
 30
0.0
  0
ATTRIB
  5
53C
330
53B
100
AcDbEntity
  8
text_bubbles
100
AcDbText
 10
7.868327833200686
 20
3.508824412240106
 30
0.0
 40
0.125
  1
13
  7
ROMANS
 72
     4
 11
7.996304023676877
 21
3.571324412240106
 31
0.0
100
AcDbAttribute
  2
XX
 70
     0
  0
SEQEND
  5
53D
330
53B
100
AcDbEntity
  8
text_bubbles
  0
INSERT
  5
53E
330
2
100
AcDbEntity
  8
text_bubbles
100
AcDbBlockReference
 66
     1
  2
bubble
 10
7.996304023676877
 20
2.718813914303539
 30
0.0
  0
ATTRIB
  5
53F
330
53E
100
AcDbEntity
  8
text_bubbles
100
AcDbText
 10
7.865351642724496
 20
2.656313914303539
 30
0.0
 40
0.125
  1
14
  7
ROMANS
 72
     4
 11
7.996304023676877
 21
2.718813914303539
 31
0.0
100
AcDbAttribute
  2
XX
 70
     0
  0
SEQEND
  5
540
330
53E
100
AcDbEntity
  8
text_bubbles
  0
INSERT
  5
541
330
2
100
AcDbEntity
  8
text_bubbles
100
AcDbBlockReference
 66
     1
  2
bubble
 10
1.524336810851503
 20
8.375985544111379
 30
0.0
  0
ATTRIB
  5
542
330
541
100
AcDbEntity
  8
text_bubbles
100
AcDbText
 10
1.473741572756265
 20
8.313485544111379
 30
0.0
 40
0.125
  1
1
  7
ROMANS
 72
     4
 11
1.524336810851503
 21
8.375985544111379
 31
0.0
100
AcDbAttribute
  2
XX
 70
     0
  0
SEQEND
  5
543
330
541
100
AcDbEntity
  8
text_bubbles
  0
INSERT
  5
544
330
2
100
AcDbEntity
  8
text_bubbles
100
AcDbBlockReference
 66
     1
  2
bubble
 10
1.94292799223713
 20
8.375985544111379
 30
0.0
  0
ATTRIB
  5
545
330
544
100
AcDbEntity
  8
text_bubbles
100
AcDbText
 10
1.883404182713321
 20
8.313485544111379
 30
0.0
 40
0.125
  1
2
  7
ROMANS
 72
     4
 11
1.94292799223713
 21
8.375985544111379
 31
0.0
100
AcDbAttribute
  2
XX
 70
     0
  0
SEQEND
  5
546
330
544
100
AcDbEntity
  8
text_bubbles
  0
INSERT
  5
547
330
2
100
AcDbEntity
  8
text_bubbles
100
AcDbBlockReference
 66
     1
  2
bubble
 10
2.295180707024517
 20
8.375985544111379
 30
0.0
  0
ATTRIB
  5
548
330
547
100
AcDbEntity
  8
text_bubbles
100
AcDbText
 10
2.235656897500708
 20
8.313485544111379
 30
0.0
 40
0.125
  1
3
  7
ROMANS
 72
     4
 11
2.295180707024517
 21
8.375985544111379
 31
0.0
100
AcDbAttribute
  2
XX
 70
     0
  0
SEQEND
  5
549
330
547
100
AcDbEntity
  8
text_bubbles
  0
INSERT
  5
54A
330
2
100
AcDbEntity
  8
text_bubbles
100
AcDbBlockReference
 66
     1
  2
bubble
 10
2.614635810991652
 20
8.375985544111379
 30
0.0
  0
ATTRIB
  5
54B
330
54A
100
AcDbEntity
  8
text_bubbles
100
AcDbText
 10
2.552135810991652
 20
8.313485544111379
 30
0.0
 40
0.125
  1
4
  7
ROMANS
 72
     4
 11
2.614635810991652
 21
8.375985544111379
 31
0.0
100
AcDbAttribute
  2
XX
 70
     0
  0
SEQEND
  5
54C
330
54A
100
AcDbEntity
  8
text_bubbles
  0
INSERT
  5
54D
330
2
100
AcDbEntity
  8
text_bubbles
100
AcDbBlockReference
 66
     1
  2
bubble
 10
2.974274277993874
 20
8.375985544111379
 30
0.0
  0
ATTRIB
  5
54E
330
54D
100
AcDbEntity
  8
text_bubbles
100
AcDbText
 10
2.914750468470065
 20
8.313485544111379
 30
0.0
 40
0.125
  1
5
  7
ROMANS
 72
     4
 11
2.974274277993874
 21
8.375985544111379
 31
0.0
100
AcDbAttribute
  2
XX
 70
     0
  0
SEQEND
  5
54F
330
54D
100
AcDbEntity
  8
text_bubbles
  0
INSERT
  5
550
330
2
100
AcDbEntity
  8
text_bubbles
100
AcDbBlockReference
 66
     1
  2
bubble
 10
3.473650835926516
 20
8.375985544111379
 30
0.0
  0
ATTRIB
  5
551
330
550
100
AcDbEntity
  8
text_bubbles
100
AcDbText
 10
3.411150835926516
 20
8.313485544111379
 30
0.0
 40
0.125
  1
6
  7
ROMANS
 72
     4
 11
3.473650835926516
 21
8.375985544111379
 31
0.0
100
AcDbAttribute
  2
XX
 70
     0
  0
SEQEND
  5
552
330
550
100
AcDbEntity
  8
text_bubbles
  0
INSERT
  5
553
330
2
100
AcDbEntity
  8
text_bubbles
100
AcDbBlockReference
 66
     1
  2
bubble
 10
5.121646883275333
 20
8.355393507726926
 30
0.0
  0
ATTRIB
  5
554
330
553
100
AcDbEntity
  8
text_bubbles
100
AcDbText
 10
5.062123073751524
 20
8.292893507726926
 30
0.0
 40
0.125
  1
7
  7
ROMANS
 72
     4
 11
5.121646883275333
 21
8.355393507726926
 31
0.0
100
AcDbAttribute
  2
XX
 70
     0
  0
SEQEND
  5
555
330
553
100
AcDbEntity
  8
text_bubbles
  0
INSERT
  5
556
330
2
100
AcDbEntity
  8
text_bubbles
100
AcDbBlockReference
 66
     1
  2
bubble
 10
5.735273847117896
 20
8.355393507726926
 30
0.0
  0
ATTRIB
  5
557
330
556
100
AcDbEntity
  8
text_bubbles
100
AcDbText
 10
5.675750037594086
 20
8.292893507726926
 30
0.0
 40
0.125
  1
8
  7
ROMANS
 72
     4
 11
5.735273847117896
 21
8.355393507726926
 31
0.0
100
AcDbAttribute
  2
XX
 70
     0
  0
SEQEND
  5
558
330
556
100
AcDbEntity
  8
text_bubbles
  0
INSERT
  5
559
330
2
100
AcDbEntity
  8
text_bubbles
100
AcDbBlockReference
 66
     1
  2
bubble
 10
6.164374849360101
 20
3.878651885966394
 30
0.0
  0
ATTRIB
  5
55A
330
559
100
AcDbEntity
  8
text_bubbles
100
AcDbText
 10
6.107827230312483
 20
3.816151885966394
 30
0.0
 40
0.125
  1
9
  7
ROMANS
 72
     4
 11
6.164374849360101
 21
3.878651885966394
 31
0.0
100
AcDbAttribute
  2
XX
 70
     0
  0
SEQEND
  5
55B
330
559
100
AcDbEntity
  8
text_bubbles
  0
INSERT
  5
55C
330
2
100
AcDbEntity
  8
text_bubbles
100
AcDbBlockReference
 66
     1
  2
bubble
 10
5.633718302703457
 20
3.87329826516092
 30
0.0
  0
ATTRIB
  5
55D
330
55C
100
AcDbEntity
  8
text_bubbles
100
AcDbText
 10
5.505742112227267
 20
3.81079826516092
 30
0.0
 40
0.125
  1
10
  7
ROMANS
 72
     4
 11
5.633718302703457
 21
3.87329826516092
 31
0.0
100
AcDbAttribute
  2
XX
 70
     0
  0
SEQEND
  5
55E
330
55C
100
AcDbEntity
  8
text_bubbles
  0
INSERT
  5
55F
330
2
100
AcDbEntity
  8
text_bubbles
100
AcDbBlockReference
 66
     1
  2
bubble
 10
5.243950625877546
 20
3.87900451032388
 30
0.0
  0
ATTRIB
  5
560
330
55F
100
AcDbEntity
  8
text_bubbles
100
AcDbText
 10
5.133831578258498
 20
3.81650451032388
 30
0.0
 40
0.125
  1
11
  7
ROMANS
 72
     4
 11
5.243950625877546
 21
3.87900451032388
 31
0.0
100
AcDbAttribute
  2
XX
 70
     0
  0
SEQEND
  5
561
330
55F
100
AcDbEntity
  8
text_bubbles
  0
INSERT
  5
562
330
2
100
AcDbEntity
  8
text_bubbles
100
AcDbBlockReference
 66
     1
  2
bubble
 10
3.242941522129022
 20
3.87868301604744
 30
0.0
  0
ATTRIB
  5
563
330
562
100
AcDbEntity
  8
text_bubbles
100
AcDbText
 10
3.114965331652832
 20
3.81618301604744
 30
0.0
 40
0.125
  1
13
  7
ROMANS
 72
     4
 11
3.242941522129022
 21
3.87868301604744
 31
0.0
100
AcDbAttribute
  2
XX
 70
     0
  0
SEQEND
  5
564
330
562
100
AcDbEntity
  8
text_bubbles
  0
INSERT
  5
565
330
2
100
AcDbEntity
  8
text_bubbles
100
AcDbBlockReference
 66
     1
  2
bubble
 10
3.681825931306502
 20
3.87868301604744
 30
0.0
  0
ATTRIB
  5
566
330
565
100
AcDbEntity
  8
text_bubbles
100
AcDbText
 10
3.553849740830311
 20
3.81618301604744
 30
0.0
 40
0.125
  1
12
  7
ROMANS
 72
     4
 11
3.681825931306502
 21
3.87868301604744
 31
0.0
100
AcDbAttribute
  2
XX
 70
     0
  0
SEQEND
  5
567
330
565
100
AcDbEntity
  8
text_bubbles
  0
INSERT
  5
568
330
2
100
AcDbEntity
  8
text_bubbles
100
AcDbBlockReference
 66
     1
  2
bubble
 10
2.54260082342045
 20
3.87868301604744
 30
0.0
  0
ATTRIB
  5
569
330
568
100
AcDbEntity
  8
text_bubbles
100
AcDbText
 10
2.411648442468069
 20
3.81618301604744
 30
0.0
 40
0.125
  1
14
  7
ROMANS
 72
     4
 11
2.54260082342045
 21
3.87868301604744
 31
0.0
100
AcDbAttribute
  2
XX
 70
     0
  0
SEQEND
  5
56A
330
568
100
AcDbEntity
  8
text_bubbles
  0
INSERT
  5
56B
330
2
100
AcDbEntity
  8
text_bubbles
100
AcDbBlockReference
 66
     1
  2
bubble
 10
1.998978335481041
 20
3.87868301604744
 30
0.0
  0
ATTRIB
  5
56C
330
56B
100
AcDbEntity
  8
text_bubbles
100
AcDbText
 10
1.86802595452866
 20
3.81618301604744
 30
0.0
 40
0.125
  1
14
  7
ROMANS
 72
     4
 11
1.998978335481041
 21
3.87868301604744
 31
0.0
100
AcDbAttribute
  2
XX
 70
     0
  0
SEQEND
  5
56D
330
56B
100
AcDbEntity
  8
text_bubbles
  0
LWPOLYLINE
  5
56E
330
2
100
AcDbEntity
  8
image
100
AcDbPolyline
 90
        2
 70
     0
 43
0.025625
 10
1.698875277098512
 20
4.339732568588016
 10
0.5157872166760811
 20
4.350939964496661
  0
POLYLINE
  5
56F
330
2
100
AcDbEntity
  8
image
 62
     5
100
AcDb2dPolyline
 66
     1
 10
0.0
 20
0.0
 30
0.0
 40
0.0128125
 41
0.0128125
  0
VERTEX
  5
570
330
56F
100
AcDbEntity
  8
image
 62
     5
100
AcDbVertex
100
AcDb2dVertex
 10
1.852533940825802
 20
6.311283592841818
 30
0.0
  0
VERTEX
  5
571
330
56F
100
AcDbEntity
  8
image
 62
     5
100
AcDbVertex
100
AcDb2dVertex
 10
1.828002147344871
 20
6.309746311564448
 30
0.0
  0
VERTEX
  5
572
330
56F
100
AcDbEntity
  8
image
 62
     5
100
AcDbVertex
100
AcDb2dVertex
 10
1.808245880660592
 20
6.305285726849692
 30
0.0
  0
VERTEX
  5
573
330
56F
100
AcDbEntity
  8
image
 62
     5
100
AcDbVertex
100
AcDb2dVertex
 10
1.792606504665863
 20
6.298128727373577
 30
0.0
  0
VERTEX
  5
574
330
56F
100
AcDbEntity
  8
image
 62
     5
100
AcDbVertex
100
AcDb2dVertex
 10
1.780425383253591
 20
6.288502201812135
 30
0.0
  0
VERTEX
  5
575
330
56F
100
AcDbEntity
  8
image
 62
     5
100
AcDbVertex
100
AcDb2dVertex
 10
1.771043880316678
 20
6.276633038841391
 30
0.0
  0
VERTEX
  5
576
330
56F
100
AcDbEntity
  8
image
 62
     5
100
AcDbVertex
100
AcDb2dVertex
 10
1.763803359748024
 20
6.26274812713738
 30
0.0
  0
VERTEX
  5
577
330
56F
100
AcDbEntity
  8
image
 62
     5
100
AcDbVertex
100
AcDb2dVertex
 10
1.758045185440536
 20
6.24707435537613
 30
0.0
  0
VERTEX
  5
578
330
56F
100
AcDbEntity
  8
image
 62
     5
100
AcDbVertex
100
AcDb2dVertex
 10
1.753110721287116
 20
6.229838612233669
 30
0.0
  0
VERTEX
  5
579
330
56F
100
AcDbEntity
  8
image
 62
     5
100
AcDbVertex
100
AcDb2dVertex
 10
1.748478929047854
 20
6.211207157749708
 30
0.0
  0
VERTEX
  5
57A
330
56F
100
AcDbEntity
  8
image
 62
     5
100
AcDbVertex
100
AcDb2dVertex
 10
1.74417916195159
 20
6.191103737418692
 30
0.0
  0
VERTEX
  5
57B
330
56F
100
AcDbEntity
  8
image
 62
     5
100
AcDbVertex
100
AcDb2dVertex
 10
1.740378371094355
 20
6.169391468098747
 30
0.0
  0
VERTEX
  5
57C
330
56F
100
AcDbEntity
  8
image
 62
     5
100
AcDbVertex
100
AcDb2dVertex
 10
1.737243507572177
 20
6.145933466647995
 30
0.0
  0
VERTEX
  5
57D
330
56F
100
AcDbEntity
  8
image
 62
     5
100
AcDbVertex
100
AcDb2dVertex
 10
1.734941522481085
 20
6.120592849924562
 30
0.0
  0
VERTEX
  5
57E
330
56F
100
AcDbEntity
  8
image
 62
     5
100
AcDbVertex
100
AcDb2dVertex
 10
1.733639366917106
 20
6.093232734786576
 30
0.0
  0
VERTEX
  5
57F
330
56F
100
AcDbEntity
  8
image
 62
     5
100
AcDbVertex
100
AcDb2dVertex
 10
1.733503991976274
 20
6.063716238092159
 30
0.0
  0
VERTEX
  5
580
330
56F
100
AcDbEntity
  8
image
 62
     5
100
AcDbVertex
100
AcDb2dVertex
 10
1.734702348754613
 20
6.031906476699436
 30
0.0
  0
VERTEX
  5
581
330
56F
100
AcDbEntity
  8
image
 62
     5
100
AcDbVertex
100
AcDb2dVertex
 10
1.737342924232484
 20
5.997760010633331
 30
0.0
  0
VERTEX
  5
582
330
56F
100
AcDbEntity
  8
image
 62
     5
100
AcDbVertex
100
AcDb2dVertex
 10
1.74130034892758
 20
5.961607172585941
 30
0.0
  0
VERTEX
  5
583
330
56F
100
AcDbEntity
  8
image
 62
     5
100
AcDbVertex
100
AcDb2dVertex
 10
1.746390789241921
 20
5.923871738416162
 30
0.0
  0
VERTEX
  5
584
330
56F
100
AcDbEntity
  8
image
 62
     5
100
AcDbVertex
100
AcDb2dVertex
 10
1.752430411577527
 20
5.884977483982887
 30
0.0
  0
VERTEX
  5
585
330
56F
100
AcDbEntity
  8
image
 62
     5
100
AcDbVertex
100
AcDb2dVertex
 10
1.759235382336422
 20
5.845348185145017
 30
0.0
  0
VERTEX
  5
586
330
56F
100
AcDbEntity
  8
image
 62
     5
100
AcDbVertex
100
AcDb2dVertex
 10
1.766621867920626
 20
5.805407617761444
 30
0.0
  0
VERTEX
  5
587
330
56F
100
AcDbEntity
  8
image
 62
     5
100
AcDbVertex
100
AcDb2dVertex
 10
1.774406034732164
 20
5.765579557691062
 30
0.0
  0
VERTEX
  5
588
330
56F
100
AcDbEntity
  8
image
 62
     5
100
AcDbVertex
100
AcDb2dVertex
 10
1.782404049173054
 20
5.726287780792766
 30
0.0
  0
VERTEX
  5
589
330
56F
100
AcDbEntity
  8
image
 62
     5
100
AcDbVertex
100
AcDb2dVertex
 10
1.790457714283165
 20
5.687886683685179
 30
0.0
  0
VERTEX
  5
58A
330
56F
100
AcDbEntity
  8
image
 62
     5
100
AcDbVertex
100
AcDb2dVertex
 10
1.798511379653742
 20
5.650453146025808
 30
0.0
  0
VERTEX
  5
58B
330
56F
100
AcDbEntity
  8
image
 62
     5
100
AcDbVertex
100
AcDb2dVertex
 10
1.806535031513876
 20
5.613994668231891
 30
0.0
  0
VERTEX
  5
58C
330
56F
100
AcDbEntity
  8
image
 62
     5
100
AcDbVertex
100
AcDb2dVertex
 10
1.814498656092656
 20
5.578518750720661
 30
0.0
  0
VERTEX
  5
58D
330
56F
100
AcDbEntity
  8
image
 62
     5
100
AcDbVertex
100
AcDb2dVertex
 10
1.822372239619177
 20
5.544032893909356
 30
0.0
  0
VERTEX
  5
58E
330
56F
100
AcDbEntity
  8
image
 62
     5
100
AcDbVertex
100
AcDb2dVertex
 10
1.830125768322528
 20
5.51054459821521
 30
0.0
  0
VERTEX
  5
58F
330
56F
100
AcDbEntity
  8
image
 62
     5
100
AcDbVertex
100
AcDb2dVertex
 10
1.837729228431797
 20
5.478061364055458
 30
0.0
  0
VERTEX
  5
590
330
56F
100
AcDbEntity
  8
image
 62
     5
100
AcDbVertex
100
AcDb2dVertex
 10
1.845152606176078
 20
5.446590691847335
 30
0.0
  0
VERTEX
  5
591
330
56F
100
AcDbEntity
  8
image
 62
     5
100
AcDbVertex
100
AcDb2dVertex
 10
1.852350186279291
 20
5.416132111093613
 30
0.0
  0
VERTEX
  5
592
330
56F
100
AcDbEntity
  8
image
 62
     5
100
AcDbVertex
100
AcDb2dVertex
 10
1.859213447444659
 20
5.386653267639198
 30
0.0
  0
VERTEX
  5
593
330
56F
100
AcDbEntity
  8
image
 62
     5
100
AcDbVertex
100
AcDb2dVertex
 10
1.865618166870245
 20
5.358113836414538
 30
0.0
  0
VERTEX
  5
594
330
56F
100
AcDbEntity
  8
image
 62
     5
100
AcDbVertex
100
AcDb2dVertex
 10
1.871440121754098
 20
5.330473492350075
 30
0.0
  0
VERTEX
  5
595
330
56F
100
AcDbEntity
  8
image
 62
     5
100
AcDbVertex
100
AcDb2dVertex
 10
1.876555089294276
 20
5.303691910376256
 30
0.0
  0
VERTEX
  5
596
330
56F
100
AcDbEntity
  8
image
 62
     5
100
AcDbVertex
100
AcDb2dVertex
 10
1.880838846688837
 20
5.277728765423524
 30
0.0
  0
VERTEX
  5
597
330
56F
100
AcDbEntity
  8
image
 62
     5
100
AcDbVertex
100
AcDb2dVertex
 10
1.884167171135834
 20
5.252543732422322
 30
0.0
  0
VERTEX
  5
598
330
56F
100
AcDbEntity
  8
image
 62
     5
100
AcDbVertex
100
AcDb2dVertex
 10
1.886415839833324
 20
5.228096486303098
 30
0.0
  0
VERTEX
  5
599
330
56F
100
AcDbEntity
  8
image
 62
     5
100
AcDbVertex
100
AcDb2dVertex
 10
1.887507754377127
 20
5.204276107021642
 30
0.0
  0
VERTEX
  5
59A
330
56F
100
AcDbEntity
  8
image
 62
     5
100
AcDbVertex
100
AcDb2dVertex
 10
1.887554313954121
 20
5.180689294635148
 30
0.0
  0
VERTEX
  5
59B
330
56F
100
AcDbEntity
  8
image
 62
     5
100
AcDbVertex
100
AcDb2dVertex
 10
1.886714042148947
 20
5.156872154226155
 30
0.0
  0
VERTEX
  5
59C
330
56F
100
AcDbEntity
  8
image
 62
     5
100
AcDbVertex
100
AcDb2dVertex
 10
1.885145462546248
 20
5.132360790877203
 30
0.0
  0
VERTEX
  5
59D
330
56F
100
AcDbEntity
  8
image
 62
     5
100
AcDbVertex
100
AcDb2dVertex
 10
1.883007098730661
 20
5.106691309670836
 30
0.0
  0
VERTEX
  5
59E
330
56F
100
AcDbEntity
  8
image
 62
     5
100
AcDbVertex
100
AcDb2dVertex
 10
1.880457474286835
 20
5.07939981568959
 30
0.0
  0
VERTEX
  5
59F
330
56F
100
AcDbEntity
  8
image
 62
     5
100
AcDbVertex
100
AcDb2dVertex
 10
1.877655112799407
 20
5.050022414016009
 30
0.0
  0
VERTEX
  5
5A0
330
56F
100
AcDbEntity
  8
image
 62
     5
100
AcDbVertex
100
AcDb2dVertex
 10
1.87475853785302
 20
5.018095209732631
 30
0.0
  0
VERTEX
  5
5A1
330
56F
100
AcDbEntity
  8
image
 62
     5
100
AcDbVertex
100
AcDb2dVertex
 10
1.871895083517365
 20
4.983309834238293
 30
0.0
  0
VERTEX
  5
5A2
330
56F
100
AcDbEntity
  8
image
 62
     5
100
AcDbVertex
100
AcDb2dVertex
 10
1.869067325802316
 20
4.945980024197013
 30
0.0
  0
VERTEX
  5
5A3
330
56F
100
AcDbEntity
  8
image
 62
     5
100
AcDbVertex
100
AcDb2dVertex
 10
1.866246651202802
 20
4.906575042589103
 30
0.0
  0
VERTEX
  5
5A4
330
56F
100
AcDbEntity
  8
image
 62
     5
100
AcDbVertex
100
AcDb2dVertex
 10
1.863404446213747
 20
4.865564152394876
 30
0.0
  0
VERTEX
  5
5A5
330
56F
100
AcDbEntity
  8
image
 62
     5
100
AcDbVertex
100
AcDb2dVertex
 10
1.860512097330078
 20
4.823416616594644
 30
0.0
  0
VERTEX
  5
5A6
330
56F
100
AcDbEntity
  8
image
 62
     5
100
AcDbVertex
100
AcDb2dVertex
 10
1.85754099104672
 20
4.78060169816872
 30
0.0
  0
VERTEX
  5
5A7
330
56F
100
AcDbEntity
  8
image
 62
     5
100
AcDbVertex
100
AcDb2dVertex
 10
1.854462513858599
 20
4.737588660097418
 30
0.0
  0
VERTEX
  5
5A8
330
56F
100
AcDbEntity
  8
image
 62
     5
100
AcDbVertex
100
AcDb2dVertex
 10
1.85124805226064
 20
4.694846765361048
 30
0.0
  0
VERTEX
  5
5A9
330
56F
100
AcDbEntity
  8
image
 62
     5
100
AcDbVertex
100
AcDb2dVertex
 10
1.847846328418995
 20
4.652835622430515
 30
0.0
  0
VERTEX
  5
5AA
330
56F
100
AcDbEntity
  8
image
 62
     5
100
AcDbVertex
100
AcDb2dVertex
 10
1.844115407184732
 20
4.611976221739084
 30
0.0
  0
VERTEX
  5
5AB
330
56F
100
AcDbEntity
  8
image
 62
     5
100
AcDbVertex
100
AcDb2dVertex
 10
1.839890689080139
 20
4.57267989921061
 30
0.0
  0
VERTEX
  5
5AC
330
56F
100
AcDbEntity
  8
image
 62
     5
100
AcDbVertex
100
AcDb2dVertex
 10
1.835007574627507
 20
4.535357990768947
 30
0.0
  0
VERTEX
  5
5AD
330
56F
100
AcDbEntity
  8
image
 62
     5
100
AcDbVertex
100
AcDb2dVertex
 10
1.829301464349128
 20
4.500421832337954
 30
0.0
  0
VERTEX
  5
5AE
330
56F
100
AcDbEntity
  8
image
 62
     5
100
AcDbVertex
100
AcDb2dVertex
 10
1.822607758767293
 20
4.468282759841481
 30
0.0
  0
VERTEX
  5
5AF
330
56F
100
AcDbEntity
  8
image
 62
     5
100
AcDbVertex
100
AcDb2dVertex
 10
1.814761858404295
 20
4.439352109203388
 30
0.0
  0
VERTEX
  5
5B0
330
56F
100
AcDbEntity
  8
image
 62
     5
100
AcDbVertex
100
AcDb2dVertex
 10
1.805599163782424
 20
4.414041216347529
 30
0.0
  0
VERTEX
  5
5B1
330
56F
100
AcDbEntity
  8
image
 62
     5
100
AcDbVertex
100
AcDb2dVertex
 10
1.794856487241261
 20
4.392635445607331
 30
0.0
  0
VERTEX
  5
5B2
330
56F
100
AcDbEntity
  8
image
 62
     5
100
AcDbVertex
100
AcDb2dVertex
 10
1.781876288389536
 20
4.374916274954518
 30
0.0
  0
VERTEX
  5
5B3
330
56F
100
AcDbEntity
  8
image
 62
     5
100
AcDbVertex
100
AcDb2dVertex
 10
1.765902438653272
 20
4.360539210770385
 30
0.0
  0
VERTEX
  5
5B4
330
56F
100
AcDbEntity
  8
image
 62
     5
100
AcDbVertex
100
AcDb2dVertex
 10
1.746178809458488
 20
4.349159759436228
 30
0.0
  0
VERTEX
  5
5B5
330
56F
100
AcDbEntity
  8
image
 62
     5
100
AcDbVertex
100
AcDb2dVertex
 10
1.721949272231208
 20
4.340433427333342
 30
0.0
  0
VERTEX
  5
5B6
330
56F
100
AcDbEntity
  8
image
 62
     5
100
AcDbVertex
100
AcDb2dVertex
 10
1.692457698397451
 20
4.334015720843022
 30
0.0
  0
VERTEX
  5
5B7
330
56F
100
AcDbEntity
  8
image
 62
     5
100
AcDbVertex
100
AcDb2dVertex
 10
1.692457698397451
 20
4.334015720843022
 30
0.0
  0
SEQEND
  5
5B8
330
56F
100
AcDbEntity
  8
image
 62
     5
  0
POLYLINE
  5
5B9
330
2
100
AcDbEntity
  8
image
 62
     5
100
AcDb2dPolyline
 66
     1
 10
0.0
 20
0.0
 30
0.0
 40
0.0128125
 41
0.0128125
  0
VERTEX
  5
5BA
330
5B9
100
AcDbEntity
  8
image
 62
     5
100
AcDbVertex
100
AcDb2dVertex
 10
2.207355568936815
 20
6.216951674591628
 30
0.0
  0
VERTEX
  5
5BB
330
5B9
100
AcDbEntity
  8
image
 62
     5
100
AcDbVertex
100
AcDb2dVertex
 10
2.185471091992166
 20
6.2161738212085
 30
0.0
  0
VERTEX
  5
5BC
330
5B9
100
AcDbEntity
  8
image
 62
     5
100
AcDbVertex
100
AcDb2dVertex
 10
2.167723116751808
 20
6.21388161723829
 30
0.0
  0
VERTEX
  5
5BD
330
5B9
100
AcDbEntity
  8
image
 62
     5
100
AcDbVertex
100
AcDb2dVertex
 10
2.153620841445267
 20
6.210137096949762
 30
0.0
  0
VERTEX
  5
5BE
330
5B9
100
AcDbEntity
  8
image
 62
     5
100
AcDbVertex
100
AcDb2dVertex
 10
2.142673464302074
 20
6.205002294611682
 30
0.0
  0
VERTEX
  5
5BF
330
5B9
100
AcDbEntity
  8
image
 62
     5
100
AcDbVertex
100
AcDb2dVertex
 10
2.134390183551758
 20
6.198539244492812
 30
0.0
  0
VERTEX
  5
5C0
330
5B9
100
AcDbEntity
  8
image
 62
     5
100
AcDbVertex
100
AcDb2dVertex
 10
2.128280197423842
 20
6.190809980861916
 30
0.0
  0
VERTEX
  5
5C1
330
5B9
100
AcDbEntity
  8
image
 62
     5
100
AcDbVertex
100
AcDb2dVertex
 10
2.123852704147859
 20
6.181876537987758
 30
0.0
  0
VERTEX
  5
5C2
330
5B9
100
AcDbEntity
  8
image
 62
     5
100
AcDbVertex
100
AcDb2dVertex
 10
2.120616901953336
 20
6.1718009501391
 30
0.0
  0
VERTEX
  5
5C3
330
5B9
100
AcDbEntity
  8
image
 62
     5
100
AcDbVertex
100
AcDb2dVertex
 10
2.118139452930469
 20
6.160662280186071
 30
0.0
  0
VERTEX
  5
5C4
330
5B9
100
AcDbEntity
  8
image
 62
     5
100
AcDbVertex
100
AcDb2dVertex
 10
2.116216874612135
 20
6.148607705404237
 30
0.0
  0
VERTEX
  5
5C5
330
5B9
100
AcDbEntity
  8
image
 62
     5
100
AcDbVertex
100
AcDb2dVertex
 10
2.114703148391877
 20
6.135801431670531
 30
0.0
  0
VERTEX
  5
5C6
330
5B9
100
AcDbEntity
  8
image
 62
     5
100
AcDbVertex
100
AcDb2dVertex
 10
2.113452255663238
 20
6.122407664861881
 30
0.0
  0
VERTEX
  5
5C7
330
5B9
100
AcDbEntity
  8
image
 62
     5
100
AcDbVertex
100
AcDb2dVertex
 10
2.112318177819766
 20
6.108590610855221
 30
0.0
  0
VERTEX
  5
5C8
330
5B9
100
AcDbEntity
  8
image
 62
     5
100
AcDbVertex
100
AcDb2dVertex
 10
2.111154896255001
 20
6.094514475527482
 30
0.0
  0
VERTEX
  5
5C9
330
5B9
100
AcDbEntity
  8
image
 62
     5
100
AcDbVertex
100
AcDb2dVertex
 10
2.109816392362489
 20
6.080343464755592
 30
0.0
  0
VERTEX
  5
5CA
330
5B9
100
AcDbEntity
  8
image
 62
     5
100
AcDbVertex
100
AcDb2dVertex
 10
2.108156647535775
 20
6.066241784416482
 30
0.0
  0
VERTEX
  5
5CB
330
5B9
100
AcDbEntity
  8
image
 62
     5
100
AcDbVertex
100
AcDb2dVertex
 10
2.106049112272518
 20
6.052276941194891
 30
0.0
  0
VERTEX
  5
5CC
330
5B9
100
AcDbEntity
  8
image
 62
     5
100
AcDbVertex
100
AcDb2dVertex
 10
2.103445113486849
 20
6.03812964500679
 30
0.0
  0
VERTEX
  5
5CD
330
5B9
100
AcDbEntity
  8
image
 62
     5
100
AcDbVertex
100
AcDb2dVertex
 10
2.100315447197003
 20
6.023383906575958
 30
0.0
  0
VERTEX
  5
5CE
330
5B9
100
AcDbEntity
  8
image
 62
     5
100
AcDbVertex
100
AcDb2dVertex
 10
2.096630909421227
 20
6.007623736626173
 30
0.0
  0
VERTEX
  5
5CF
330
5B9
100
AcDbEntity
  8
image
 62
     5
100
AcDbVertex
100
AcDb2dVertex
 10
2.092362296177764
 20
5.990433145881211
 30
0.0
  0
VERTEX
  5
5D0
330
5B9
100
AcDbEntity
  8
image
 62
     5
100
AcDbVertex
100
AcDb2dVertex
 10
2.087480403484857
 20
5.971396145064853
 30
0.0
  0
VERTEX
  5
5D1
330
5B9
100
AcDbEntity
  8
image
 62
     5
100
AcDbVertex
100
AcDb2dVertex
 10
2.081956027360746
 20
5.950096744900879
 30
0.0
  0
VERTEX
  5
5D2
330
5B9
100
AcDbEntity
  8
image
 62
     5
100
AcDbVertex
100
AcDb2dVertex
 10
2.075759963823678
 20
5.926118956113064
 30
0.0
  0
VERTEX
  5
5D3
330
5B9
100
AcDbEntity
  8
image
 62
     5
100
AcDbVertex
100
AcDb2dVertex
 10
2.068895863176019
 20
5.899221942858615
 30
0.0
  0
VERTEX
  5
5D4
330
5B9
100
AcDbEntity
  8
image
 62
     5
100
AcDbVertex
100
AcDb2dVertex
 10
2.061498792856649
 20
5.869865483028454
 30
0.0
  0
VERTEX
  5
5D5
330
5B9
100
AcDbEntity
  8
image
 62
     5
100
AcDbVertex
100
AcDb2dVertex
 10
2.053736674588577
 20
5.838684507946931
 30
0.0
  0
VERTEX
  5
5D6
330
5B9
100
AcDbEntity
  8
image
 62
     5
100
AcDbVertex
100
AcDb2dVertex
 10
2.04577743009481
 20
5.806313948938393
 30
0.0
  0
VERTEX
  5
5D7
330
5B9
100
AcDbEntity
  8
image
 62
     5
100
AcDbVertex
100
AcDb2dVertex
 10
2.037788981098353
 20
5.773388737327191
 30
0.0
  0
VERTEX
  5
5D8
330
5B9
100
AcDbEntity
  8
image
 62
     5
100
AcDbVertex
100
AcDb2dVertex
 10
2.029939249322213
 20
5.74054380443767
 30
0.0
  0
VERTEX
  5
5D9
330
5B9
100
AcDbEntity
  8
image
 62
     5
100
AcDbVertex
100
AcDb2dVertex
 10
2.022396156489396
 20
5.708414081594184
 30
0.0
  0
VERTEX
  5
5DA
330
5B9
100
AcDbEntity
  8
image
 62
     5
100
AcDbVertex
100
AcDb2dVertex
 10
2.015327624322912
 20
5.677634500121079
 30
0.0
  0
VERTEX
  5
5DB
330
5B9
100
AcDbEntity
  8
image
 62
     5
100
AcDbVertex
100
AcDb2dVertex
 10
2.008854118444402
 20
5.648599155265544
 30
0.0
  0
VERTEX
  5
5DC
330
5B9
100
AcDbEntity
  8
image
 62
     5
100
AcDbVertex
100
AcDb2dVertex
 10
2.002906280070066
 20
5.620738797966109
 30
0.0
  0
VERTEX
  5
5DD
330
5B9
100
AcDbEntity
  8
image
 62
     5
100
AcDbVertex
100
AcDb2dVertex
 10
1.997367294314738
 20
5.593243343084149
 30
0.0
  0
VERTEX
  5
5DE
330
5B9
100
AcDbEntity
  8
image
 62
     5
100
AcDbVertex
100
AcDb2dVertex
 10
1.992120346293255
 20
5.565302705481036
 30
0.0
  0
VERTEX
  5
5DF
330
5B9
100
AcDbEntity
  8
image
 62
     5
100
AcDbVertex
100
AcDb2dVertex
 10
1.987048621120448
 20
5.536106800018141
 30
0.0
  0
VERTEX
  5
5E0
330
5B9
100
AcDbEntity
  8
image
 62
     5
100
AcDbVertex
100
AcDb2dVertex
 10
1.982035303911159
 20
5.504845541556836
 30
0.0
  0
VERTEX
  5
5E1
330
5B9
100
AcDbEntity
  8
image
 62
     5
100
AcDbVertex
100
AcDb2dVertex
 10
1.976963579780218
 20
5.47070884495849
 30
0.0
  0
VERTEX
  5
5E2
330
5B9
100
AcDbEntity
  8
image
 62
     5
100
AcDbVertex
100
AcDb2dVertex
 10
1.971716633842463
 20
5.43288662508448
 30
0.0
  0
VERTEX
  5
5E3
330
5B9
100
AcDbEntity
  8
image
 62
     5
100
AcDbVertex
100
AcDb2dVertex
 10
1.966211722220901
 20
5.390814498359603
 30
0.0
  0
VERTEX
  5
5E4
330
5B9
100
AcDbEntity
  8
image
 62
     5
100
AcDbVertex
100
AcDb2dVertex
 10
1.960502385071233
 20
5.344910887462379
 30
0.0
  0
VERTEX
  5
5E5
330
5B9
100
AcDbEntity
  8
image
 62
     5
100
AcDbVertex
100
AcDb2dVertex
 10
1.954676233557334
 20
5.29583991663476
 30
0.0
  0
VERTEX
  5
5E6
330
5B9
100
AcDbEntity
  8
image
 62
     5
100
AcDbVertex
100
AcDb2dVertex
 10
1.948820878843076
 20
5.244265710118693
 30
0.0
  0
VERTEX
  5
5E7
330
5B9
100
AcDbEntity
  8
image
 62
     5
100
AcDbVertex
100
AcDb2dVertex
 10
1.94302393209233
 20
5.190852392156127
 30
0.0
  0
VERTEX
  5
5E8
330
5B9
100
AcDbEntity
  8
image
 62
     5
100
AcDbVertex
100
AcDb2dVertex
 10
1.937373004468975
 20
5.136264086989015
 30
0.0
  0
VERTEX
  5
5E9
330
5B9
100
AcDbEntity
  8
image
 62
     5
100
AcDbVertex
100
AcDb2dVertex
 10
1.93195570713688
 20
5.081164918859305
 30
0.0
  0
VERTEX
  5
5EA
330
5B9
100
AcDbEntity
  8
image
 62
     5
100
AcDbVertex
100
AcDb2dVertex
 10
1.92685965125992
 20
5.026219012008944
 30
0.0
  0
VERTEX
  5
5EB
330
5B9
100
AcDbEntity
  8
image
 62
     5
100
AcDbVertex
100
AcDb2dVertex
 10
1.922149328378427
 20
4.972018726229585
 30
0.0
  0
VERTEX
  5
5EC
330
5B9
100
AcDbEntity
  8
image
 62
     5
100
AcDbVertex
100
AcDb2dVertex
 10
1.917796751538567
 20
4.918869363511678
 30
0.0
  0
VERTEX
  5
5ED
330
5B9
100
AcDbEntity
  8
image
 62
     5
100
AcDbVertex
100
AcDb2dVertex
 10
1.913750814162963
 20
4.867004461395376
 30
0.0
  0
VERTEX
  5
5EE
330
5B9
100
AcDbEntity
  8
image
 62
     5
100
AcDbVertex
100
AcDb2dVertex
 10
1.909960409674239
 20
4.816657557420832
 30
0.0
  0
VERTEX
  5
5EF
330
5B9
100
AcDbEntity
  8
image
 62
     5
100
AcDbVertex
100
AcDb2dVertex
 10
1.90637443149502
 20
4.768062189128199
 30
0.0
  0
VERTEX
  5
5F0
330
5B9
100
AcDbEntity
  8
image
 62
     5
100
AcDbVertex
100
AcDb2dVertex
 10
1.902941773047928
 20
4.721451894057629
 30
0.0
  0
VERTEX
  5
5F1
330
5B9
100
AcDbEntity
  8
image
 62
     5
100
AcDbVertex
100
AcDb2dVertex
 10
1.899611327755589
 20
4.677060209749274
 30
0.0
  0
VERTEX
  5
5F2
330
5B9
100
AcDbEntity
  8
image
 62
     5
100
AcDbVertex
100
AcDb2dVertex
 10
1.896331989040625
 20
4.635120673743288
 30
0.0
  0
VERTEX
  5
5F3
330
5B9
100
AcDbEntity
  8
image
 62
     5
100
AcDbVertex
100
AcDb2dVertex
 10
1.89302344656096
 20
4.595813304578513
 30
0.0
  0
VERTEX
  5
5F4
330
5B9
100
AcDbEntity
  8
image
 62
     5
100
AcDbVertex
100
AcDb2dVertex
 10
1.889488574915706
 20
4.559104044788561
 30
0.0
  0
VERTEX
  5
5F5
330
5B9
100
AcDbEntity
  8
image
 62
     5
100
AcDbVertex
100
AcDb2dVertex
 10
1.885501044939271
 20
4.524905317905739
 30
0.0
  0
VERTEX
  5
5F6
330
5B9
100
AcDbEntity
  8
image
 62
     5
100
AcDbVertex
100
AcDb2dVertex
 10
1.88083452746607
 20
4.493129547462347
 30
0.0
  0
VERTEX
  5
5F7
330
5B9
100
AcDbEntity
  8
image
 62
     5
100
AcDbVertex
100
AcDb2dVertex
 10
1.875262693330515
 20
4.46368915699069
 30
0.0
  0
VERTEX
  5
5F8
330
5B9
100
AcDbEntity
  8
image
 62
     5
100
AcDbVertex
100
AcDb2dVertex
 10
1.868559213367014
 20
4.436496570023071
 30
0.0
  0
VERTEX
  5
5F9
330
5B9
100
AcDbEntity
  8
image
 62
     5
100
AcDbVertex
100
AcDb2dVertex
 10
1.860497758409977
 20
4.411464210091795
 30
0.0
  0
VERTEX
  5
5FA
330
5B9
100
AcDbEntity
  8
image
 62
     5
100
AcDbVertex
100
AcDb2dVertex
 10
1.829257900127888
 20
4.376956687951378
 30
0.0
  0
VERTEX
  5
5FB
330
5B9
100
AcDbEntity
  8
image
 62
     5
100
AcDbVertex
100
AcDb2dVertex
 10
1.799988335273329
 20
4.358344618862401
 30
0.0
  0
VERTEX
  5
5FC
330
5B9
100
AcDbEntity
  8
image
 62
     5
100
AcDbVertex
100
AcDb2dVertex
 10
1.704197022542974
 20
4.334414831874796
 30
0.0
  0
SEQEND
  5
5FD
330
5B9
100
AcDbEntity
  8
image
 62
     5
  0
INSERT
  5
5FE
330
2
100
AcDbEntity
  8
text_bubbles
100
AcDbBlockReference
 66
     1
  2
bubble
 10
1.56269995928401
 20
3.87868301604744
 30
0.0
  0
ATTRIB
  5
5FF
330
5FE
100
AcDbEntity
  8
text_bubbles
100
AcDbText
 10
1.43472376880782
 20
3.81618301604744
 30
0.0
 40
0.125
  1
13
  7
ROMANS
 72
     4
 11
1.56269995928401
 21
3.87868301604744
 31
0.0
100
AcDbAttribute
  2
XX
 70
     0
  0
SEQEND
  5
600
330
5FE
100
AcDbEntity
  8
text_bubbles
  0
LEADER
  5
601
330
2
100
AcDbEntity
  8
text_bubbles
100
AcDbLeader
  3
STANDARD
 76
     2
 10
1.408208354772988
 20
4.356928844885843
 30
0.0
 10
1.516253453756706
 20
4.010636440886399
 30
0.0
1001
ACAD
1000
DSTYLE
1002
{
1070
   147
1040
0.09
1070
    77
1070
     0
1002
}
  0
POLYLINE
  5
602
330
2
100
AcDbEntity
  8
image
 62
     5
100
AcDb2dPolyline
 66
     1
 10
0.0
 20
0.0
 30
0.0
 40
0.0128125
 41
0.0128125
  0
VERTEX
  5
603
330
602
100
AcDbEntity
  8
image
 62
     5
100
AcDbVertex
100
AcDb2dVertex
 10
4.565467600866085
 20
4.438710356077494
 30
0.0
  0
VERTEX
  5
604
330
602
100
AcDbEntity
  8
image
 62
     5
100
AcDbVertex
100
AcDb2dVertex
 10
4.543592912913634
 20
4.427541831319313
 30
0.0
  0
VERTEX
  5
605
330
602
100
AcDbEntity
  8
image
 62
     5
100
AcDbVertex
100
AcDb2dVertex
 10
4.508422059264075
 20
4.41410323832653
 30
0.0
  0
VERTEX
  5
606
330
602
100
AcDbEntity
  8
image
 62
     5
100
AcDbVertex
100
AcDb2dVertex
 10
4.467456020786809
 20
4.402950534240919
 30
0.0
  0
VERTEX
  5
607
330
602
100
AcDbEntity
  8
image
 62
     5
100
AcDbVertex
100
AcDb2dVertex
 10
4.419637063602438
 20
4.394269866779872
 30
0.0
  0
VERTEX
  5
608
330
602
100
AcDbEntity
  8
image
 62
     5
100
AcDbVertex
100
AcDb2dVertex
 10
4.363907453831567
 20
4.388247383660778
 30
0.0
  0
VERTEX
  5
609
330
602
100
AcDbEntity
  8
image
 62
     5
100
AcDbVertex
100
AcDb2dVertex
 10
4.2992094575948
 20
4.385069232601029
 30
0.0
  0
VERTEX
  5
60A
330
602
100
AcDbEntity
  8
image
 62
     5
100
AcDbVertex
100
AcDb2dVertex
 10
4.224485341012741
 20
4.384921561318018
 30
0.0
  0
SEQEND
  5
60B
330
602
100
AcDbEntity
  8
image
 62
     5
  0
POLYLINE
  5
60C
330
2
100
AcDbEntity
  8
image
 62
     5
100
AcDb2dPolyline
 66
     1
 10
0.0
 20
0.0
 30
0.0
 40
0.0128125
 41
0.0128125
  0
VERTEX
  5
60D
330
60C
100
AcDbEntity
  8
image
 62
     5
100
AcDbVertex
100
AcDb2dVertex
 10
4.565467600866085
 20
4.365431364002398
 30
0.0
  0
VERTEX
  5
60E
330
60C
100
AcDbEntity
  8
image
 62
     5
100
AcDbVertex
100
AcDb2dVertex
 10
4.563170569582758
 20
4.364859457250082
 30
0.0
  0
VERTEX
  5
60F
330
60C
100
AcDbEntity
  8
image
 62
     5
100
AcDbVertex
100
AcDb2dVertex
 10
4.503516905037004
 20
4.358859581581477
 30
0.0
  0
VERTEX
  5
610
330
60C
100
AcDbEntity
  8
image
 62
     5
100
AcDbVertex
100
AcDb2dVertex
 10
4.428850942811287
 20
4.359560672799569
 30
0.0
  0
VERTEX
  5
611
330
60C
100
AcDbEntity
  8
image
 62
     5
100
AcDbVertex
100
AcDb2dVertex
 10
4.3366734868288
 20
4.3679266822599
 30
0.0
  0
VERTEX
  5
612
330
60C
100
AcDbEntity
  8
image
 62
     5
100
AcDbVertex
100
AcDb2dVertex
 10
4.224485341012741
 20
4.384921561318016
 30
0.0
  0
SEQEND
  5
613
330
60C
100
AcDbEntity
  8
image
 62
     5
  0
POLYLINE
  5
614
330
2
100
AcDbEntity
  8
image
 62
     5
100
AcDb2dPolyline
 66
     1
 10
0.0
 20
0.0
 30
0.0
 40
0.0128125
 41
0.0128125
  0
VERTEX
  5
615
330
614
100
AcDbEntity
  8
image
 62
     5
100
AcDbVertex
100
AcDb2dVertex
 10
0.1748049568227366
 20
4.331449767181041
 30
0.0
  0
VERTEX
  5
616
330
614
100
AcDbEntity
  8
image
 62
     5
100
AcDbVertex
100
AcDb2dVertex
 10
0.1771019881060631
 20
4.330877860428725
 30
0.0
  0
VERTEX
  5
617
330
614
100
AcDbEntity
  8
image
 62
     5
100
AcDbVertex
100
AcDb2dVertex
 10
0.2367556526518175
 20
4.324877984760121
 30
0.0
  0
VERTEX
  5
618
330
614
100
AcDbEntity
  8
image
 62
     5
100
AcDbVertex
100
AcDb2dVertex
 10
0.3114216148775348
 20
4.325579075978212
 30
0.0
  0
VERTEX
  5
619
330
614
100
AcDbEntity
  8
image
 62
     5
100
AcDbVertex
100
AcDb2dVertex
 10
0.4035990708600217
 20
4.333945085438543
 30
0.0
  0
VERTEX
  5
61A
330
614
100
AcDbEntity
  8
image
 62
     5
100
AcDbVertex
100
AcDb2dVertex
 10
0.5157872166760811
 20
4.350939964496659
 30
0.0
  0
SEQEND
  5
61B
330
614
100
AcDbEntity
  8
image
 62
     5
  0
POLYLINE
  5
61C
330
2
100
AcDbEntity
  8
image
 62
     5
100
AcDb2dPolyline
 66
     1
 10
0.0
 20
0.0
 30
0.0
 40
0.0128125
 41
0.0128125
  0
VERTEX
  5
61D
330
61C
100
AcDbEntity
  8
image
 62
     5
100
AcDbVertex
100
AcDb2dVertex
 10
0.1748049568227366
 20
4.404728759256137
 30
0.0
  0
VERTEX
  5
61E
330
61C
100
AcDbEntity
  8
image
 62
     5
100
AcDbVertex
100
AcDb2dVertex
 10
0.1966796447751875
 20
4.393560234497957
 30
0.0
  0
VERTEX
  5
61F
330
61C
100
AcDbEntity
  8
image
 62
     5
100
AcDbVertex
100
AcDb2dVertex
 10
0.2318504984247465
 20
4.380121641505173
 30
0.0
  0
VERTEX
  5
620
330
61C
100
AcDbEntity
  8
image
 62
     5
100
AcDbVertex
100
AcDb2dVertex
 10
0.2728165369020132
 20
4.368968937419563
 30
0.0
  0
VERTEX
  5
621
330
61C
100
AcDbEntity
  8
image
 62
     5
100
AcDbVertex
100
AcDb2dVertex
 10
0.3206354940863836
 20
4.360288269958515
 30
0.0
  0
VERTEX
  5
622
330
61C
100
AcDbEntity
  8
image
 62
     5
100
AcDbVertex
100
AcDb2dVertex
 10
0.3763651038572551
 20
4.354265786839421
 30
0.0
  0
VERTEX
  5
623
330
61C
100
AcDbEntity
  8
image
 62
     5
100
AcDbVertex
100
AcDb2dVertex
 10
0.4410631000940218
 20
4.351087635779673
 30
0.0
  0
VERTEX
  5
624
330
61C
100
AcDbEntity
  8
image
 62
     5
100
AcDbVertex
100
AcDb2dVertex
 10
0.5157872166760811
 20
4.350939964496661
 30
0.0
  0
SEQEND
  5
625
330
61C
100
AcDbEntity
  8
image
 62
     5
  0
INSERT
  5
626
330
2
100
AcDbEntity
  8
title
100
AcDbBlockReference
 66
     1
  2
titleblock
 10
0.0
 20
0.0
 30
0.0
  0
ATTRIB
  5
639
330
626
100
AcDbEntity
  8
title
100
AcDbText
 10
0.5055556038023421
 20
0.7842270964783673
 30
0.0
 40
0.2
  1
D
  7
L200
 72
     4
 11
0.6064423705144839
 21
0.8842270964783672
 31
0.0
100
AcDbAttribute
  2
D
 70
     0
  0
ATTRIB
  5
63A
330
626
100
AcDbEntity
  8
title
100
AcDbText
 10
1.231442370514484
 20
1.34371230274675
 30
0.0
 40
0.2
  1

  7
L200
100
AcDbAttribute
  2
TITLE1
 70
     0
  0
ATTRIB
  5
63B
330
626
100
AcDbEntity
  8
title
100
AcDbText
 10
1.231442370514484
 20
0.9842270964783674
 30
0.0
 40
0.2
  1
FD-101TURF OR FD-102TURF FIELD DECODER
  7
L200
100
AcDbAttribute
  2
TITLE2
 70
     0
  0
ATTRIB
  5
63C
330
626
100
AcDbEntity
  8
title
100
AcDbText
 10
2.713645751168312
 20
0.5927927664583189
 30
0.0
 40
0.2
  1
CONNECTION TO VALVE
  7
L200
100
AcDbAttribute
  2
TITLE3
 70
     0
  0
ATTRIB
  5
63D
330
626
100
AcDbEntity
  8
title
100
AcDbText
 10
2.713645751168312
 20
0.2692560808167741
 30
0.0
 40
0.2
  1

  7
L200
100
AcDbAttribute
  2
TITLE4
 70
     0
  0
ATTRIB
  5
63E
330
626
100
AcDbEntity
  8
title
 62
     7
100
AcDbText
 10
7.617214829966379
 20
0.9696027915446398
 30
0.0
 40
0.08
  1
11-24-10
  7
L80
 72
     2
 11
8.261024353775903
 21
0.9696027915446398
 31
0.0
100
AcDbAttribute
  2
REVISED
 70
     0
  0
ATTRIB
  5
63F
330
626
100
AcDbEntity
  8
title
 62
     7
100
AcDbText
 10
0.2639423705144838
 20
0.0847116480207214
 30
0.0
 40
0.08
  1
FD101-2 CTOV.DWG
  7
L80
100
AcDbAttribute
  2
DWG-NAME
 70
     0
  0
ATTRIB
  5
640
330
626
100
AcDbEntity
  8
title
 62
     7
100
AcDbText
 10
1.231442370514484
 20
0.7005637793954894
 30
0.0
 40
0.1
  1
N.T.S.
  7
L100
100
AcDbAttribute
  2
SCALE
 70
     0
  0
SEQEND
  5
641
330
626
100
AcDbEntity
  8
title
  0
HATCH
  5
643
330
2
100
AcDbEntity
  8
image
100
AcDbHatch
 10
0.0
 20
0.0
 30
0.0
210
0.0
220
0.0
230
1.0
  2
EARTH
 70
     0
 71
     0
 91
        2
 92
        1
 93
        6
 72
     1
 10
1.0444590396059
 20
7.718237263507192
 11
1.106606158686382
 21
7.4534438354104
 72
     1
 10
1.106606158686382
 20
7.4534438354104
 11
1.392688926471689
 21
7.24695399929202
 72
     1
 10
1.392688926471689
 20
7.24695399929202
 11
1.575464029582228
 21
7.24695399929202
 72
     1
 10
1.575464029582228
 20
7.24695399929202
 11
1.736807664399109
 21
7.168498623064973
 72
     1
 10
1.736807664399109
 20
7.168498623064973
 11
1.736807664399109
 21
7.718237263507192
 72
     1
 10
1.736807664399109
 20
7.718237263507192
 11
1.0444590396059
 21
7.718237263507192
 97
        0
 92
        1
 93
        6
 72
     1
 10
6.334250596358071
 20
7.718237263507192
 11
6.272103477277589
 21
7.4534438354104
 72
     1
 10
6.272103477277589
 20
7.4534438354104
 11
5.986020709492282
 21
7.24695399929202
 72
     1
 10
5.986020709492282
 20
7.24695399929202
 11
5.803245606381743
 21
7.24695399929202
 72
     1
 10
5.803245606381743
 20
7.24695399929202
 11
5.641901971564862
 21
7.168498623064973
 72
     1
 10
5.641901971564862
 20
7.168498623064973
 11
5.641901971564862
 21
7.718237263507192
 72
     1
 10
5.641901971564862
 20
7.718237263507192
 11
6.334250596358071
 21
7.718237263507192
 97
        0
 75
     0
 76
     1
 52
45.0
 41
0.75
 77
     0
 78
     6
 53
45.0
 43
0.0
 44
0.0
 45
0.0
 46
0.2651650429449553
 79
     2
 49
0.1875
 49
-0.1875
 53
45.0
 43
-0.0497184455521791
 44
0.0497184455521791
 45
0.0
 46
0.2651650429449553
 79
     2
 49
0.1875
 49
-0.1875
 53
45.0
 43
-0.0994368911043583
 44
0.0994368911043583
 45
0.0
 46
0.2651650429449553
 79
     2
 49
0.1875
 49
-0.1875
 53
135.0
 43
-0.0994368911043583
 44
0.1325825214724777
 45
-0.2651650429449553
 46
0.0
 79
     2
 49
0.1875
 49
-0.1875
 53
135.0
 43
-0.0497184455521791
 44
0.1823009670246568
 45
-0.2651650429449553
 46
0.0
 79
     2
 49
0.1875
 49
-0.1875
 53
135.0
 43
0.0
 44
0.2320194125768359
 45
-0.2651650429449553
 46
0.0
 79
     2
 49
0.1875
 49
-0.1875
 98
        1
 10
0.0
 20
0.0
  0
MTEXT
  5
644
102
{ACAD_XDICTIONARY
360
74A
102
}
330
2
100
AcDbEntity
  8
text_bubbles
100
AcDbMText
 10
8.266853354486123
 20
9.841379103745863
 30
0.0
 40
0.125
 41
4.380305092296735
 71
     1
 72
     5
  3
\pi-0.25,l0.25;BLUE WIRE FROM FIELD DECODER (1 OF 2) \P\pi0,l0;\PFIELD DECODER: \P\pi-0.25,l0.25;  RAIN BIRD FD-101TURF M13011 DECODER OR FD-102TURF M13004 DECODER \P\pi0,l0;\PWHITE WIRE FROM FIELD DECODER (1 OF 2) \P\PDB SERIES WIRE CONNECTOR: \P\pi
  3
-0.25,l0.25;  RAIN BIRD DBTWC25 (1 OF 4) \P\pi0,l0;\PSOLENOID WIRE (1 OF 2) \P\PRAIN BIRD REMOTE CONTROL VALVE \P\P12-INCH VALVE BOX WITH COVER: \P  RAIN BIRD VB-STD \P\PFINISH GRADE OR TOP OF MULCH \P\PBRICK (1 OF 4) \P\PPVC MAINLINE PIPE \P\P\pi-0.
  3
25,l0.25;3-INCH MINIMUM DEPTH OF 3/4-INCH  WASHED GRAVEL \P\pi0,l0;\PPVC LATERAL PIPE \P\P\pi-0.25,l0.25;TWO-WIRE CABLE TO NEXT DEVICE (FIELD DECODER, SENSOR DECODER, LINE SURGE PROTECTOR OR ESP-LXD CONTROLLER) \P\pi0,l0;\P\pi-0.25,l0.25;COMMUNICATIO
  1
N WIRE TO NEXT DEVICE (FIELD DECODER, SENSOR DECODER, LINE SURGE PROTECTOR OR ESP-LXD CONTROLLER) 
  7
ROMANS
 73
     1
 44
1.0
  0
VIEWPORT
  5
64D
102
{ACAD_XDICTIONARY
360
64E
102
}
330
64B
100
AcDbEntity
 67
     1
  8
0
100
AcDbViewport
 10
5.3020837738758
 20
4.052083229455423
 30
0.0
 40
20.51404627218873
 41
8.992999745766947
 68
     1
 69
     1
 12
5.3020837738758
 22
4.052083229455423
 13
0.0
 23
0.0
 14
0.5
 24
0.5
 15
0.5
 25
0.5
 16
0.0
 26
0.0
 36
1.0
 17
0.0
 27
0.0
 37
0.0
 42
50.0
 43
0.0
 44
0.0
 45
8.992999745766947
 50
0.0
 51
0.0
 72
  1000
 90
   819232
  1

281
     0
 71
     1
 74
     0
110
0.0
120
0.0
130
0.0
111
1.0
121
0.0
131
0.0
112
0.0
122
1.0
132
0.0
 79
     0
146
0.0
170
     0
  0
ENDSEC
  0
SECTION
  2
OBJECTS
  0
DICTIONARY
  5
9
330
0
100
AcDbDictionary
281
     1
  3
ACAD_COLOR
350
67A
  3
ACAD_GROUP
350
667
  3
ACAD_LAYOUT
350
649
  3
ACAD_MATERIAL
350
F
  3
ACAD_MLEADERSTYLE
350
6BE
  3
ACAD_MLINESTYLE
350
668
  3
ACAD_PLOTSETTINGS
350
669
  3
ACAD_PLOTSTYLENAME
350
8
  3
ACAD_SCALELIST
350
651
  3
ACAD_TABLESTYLE
350
67B
  3
ACAD_VISUALSTYLE
350
654
  3
ACDB_RECOMPOSE_DATA
350
687
  3
AcDbVariableDictionary
350
67C
1001
BBSI_PltSel
1000
1
1000

1001
BBSI_Bookmarks
1000
1
1000
1
1000
0
1000
1
1000
0
1000
0
1000
0
1000
0
1000
0
1000
0
1000
0
1001
BBSI_BookmarksEx
1000
0
1000
0
1000

1000
0
1001
BBSI_Plots
1000

1000
ANSI_A_(11.00_x_8.50_Inches)
1000
279.399993896484
1000
215.899993896484
1000
0
1000
1
1000
1
1000
0
1000
0
1000
1
1000
0
1000
1
1000
1.00023961199016
1000
0
1000
1
1000
OKIColorShaded.ctb
1000
0
1000
0
1000
1
1000
1
1000
0
1000
0
1000
0
1000
1.11022302462516E-16
1000
16.49
1000
10.44
1000

1000

  0
DICTIONARY
  5
658
330
657
100
AcDbDictionary
280
     1
281
     1
  3
ACAD_LAYERFILTERS
360
722
  3
ACAD_LAYERSTATES
360
65A
  0
DICTIONARY
  5
3
330
2
100
AcDbDictionary
280
     1
281
     1
  3
ACAD_SORTENTS
360
4
  0
DICTIONARY
  5
70A
330
628
100
AcDbDictionary
280
     1
281
     1
  3
ACAD_SORTENTS
360
70B
  0
DICTIONARY
  5
748
330
4FC
100
AcDbDictionary
280
     1
281
     1
  3
ACAD_MTEXT_2008_RT
360
749
  0
DICTIONARY
  5
74A
330
644
100
AcDbDictionary
280
     1
281
     1
  3
ACAD_MTEXT_2008_RT
360
74B
  0
DICTIONARY
  5
64E
330
64D
100
AcDbDictionary
280
     1
281
     1
  3
ASDK_XREC_ANNOTATION_SCALE_INFO
360
64F
  0
DICTIONARY
  5
67A
102
{ACAD_REACTORS
330
9
102
}
330
9
100
AcDbDictionary
281
     1
  0
DICTIONARY
  5
667
102
{ACAD_REACTORS
330
9
102
}
330
9
100
AcDbDictionary
281
     1
  0
DICTIONARY
  5
649
102
{ACAD_REACTORS
330
9
102
}
330
9
100
AcDbDictionary
281
     1
  3
Layout1
350
656
  3
Model
350
648
  0
DICTIONARY
  5
F
102
{ACAD_REACTORS
330
9
102
}
330
9
100
AcDbDictionary
281
     1
  3
ByBlock
350
672
  3
ByLayer
350
66A
  3
Global
350
E
  0
DICTIONARY
  5
6BE
102
{ACAD_REACTORS
330
9
102
}
330
9
100
AcDbDictionary
281
     1
  3
Standard
350
6BF
  0
DICTIONARY
  5
668
102
{ACAD_REACTORS
330
9
102
}
330
9
100
AcDbDictionary
281
     1
  3
STANDARD
350
689
  0
DICTIONARY
  5
669
102
{ACAD_REACTORS
330
9
102
}
330
9
100
AcDbDictionary
281
     1
  0
ACDBDICTIONARYWDFLT
  5
8
102
{ACAD_REACTORS
330
9
102
}
330
9
100
AcDbDictionary
281
     1
  3
Normal
350
7
100
AcDbDictionaryWithDefault
340
7
  0
DICTIONARY
  5
651
102
{ACAD_REACTORS
330
9
102
}
330
9
100
AcDbDictionary
281
     1
  3
A0
350
650
  3
A1
350
68F
  3
A2
350
690
  3
A3
350
691
  3
A4
350
692
  3
A5
350
693
  3
A6
350
694
  3
A7
350
695
  3
A8
350
696
  3
A9
350
697
  3
B0
350
698
  3
B1
350
699
  3
B2
350
69A
  3
B3
350
69B
  3
B4
350
69C
  3
B5
350
69D
  3
B6
350
69E
  3
B7
350
69F
  3
B8
350
6A0
  3
B9
350
6A1
  3
C0
350
6A2
  3
C1
350
6A3
  3
C2
350
6A4
  3
C3
350
6A5
  3
C4
350
6A6
  3
C5
350
6A7
  3
C6
350
6A8
  3
C7
350
6A9
  3
C8
350
6AA
  3
C9
350
6AB
  3
D0
350
6AC
  3
D1
350
6AD
  3
D2
350
6AE
  0
DICTIONARY
  5
67B
102
{ACAD_REACTORS
330
9
102
}
330
9
100
AcDbDictionary
281
     1
  3
Standard
350
68A
  0
DICTIONARY
  5
654
102
{ACAD_REACTORS
330
9
102
}
330
9
100
AcDbDictionary
281
     1
  3
2dWireframe
350
653
  3
3D Hidden
350
6B6
  3
3dWireframe
350
68E
  3
Basic
350
6B5
  3
Brighten
350
6B9
  3
ColorChange
350
6BD
  3
Conceptual
350
6B7
  3
Dim
350
6B8
  3
Facepattern
350
6BC
  3
Flat
350
6B1
  3
FlatWithEdges
350
6B2
  3
Gouraud
350
6B3
  3
GouraudWithEdges
350
6B4
  3
Linepattern
350
6BB
  3
Realistic
350
68D
  3
Thicken
350
6BA
  0
XRECORD
  5
687
102
{ACAD_REACTORS
330
9
102
}
330
9
100
AcDbXrecord
280
     1
 90
        1
330
4FC
330
644
330
68A
  0
DICTIONARY
  5
67C
102
{ACAD_REACTORS
330
9
102
}
330
9
100
AcDbDictionary
281
     1
  3
CANNOSCALE
350
67D
  3
CMLEADERSTYLE
350
67E
  3
CTABLESTYLE
350
67F
  3
DIMASSOC
350
680
  3
DRAWORDERCTL
350
681
  3
LAYEREVAL
350
73E
  3
LAYERNOTIFY
350
682
  3
LIGHTINGUNITS
350
683
  3
MSLTSCALE
350
684
  3
SORTENTS
350
685
  3
UPDATETHUMBNAIL
350
686
  0
DICTIONARY
  5
722
102
{ACAD_REACTORS
330
658
102
}
330
658
100
AcDbDictionary
281
     1
  3
_0100-
350
725
  3
_0280-
350
724
  3
_Add Alternate
350
727
  3
_Bid Alternate
350
728
  3
_Color 253
350
72A
  3
_Color 8
350
726
  3
_Color 84
350
729
  3
_Contours
350
730
  3
_Demo
350
72B
  3
_Existing
350
72C
  3
_Hardscape
350
72F
  3
_NoXref
350
723
  3
_Row
350
72D
  3
_Utility
350
72E
  0
DICTIONARY
  5
65A
102
{ACAD_REACTORS
330
658
102
}
330
658
100
AcDbDictionary
281
     1
  0
SORTENTSTABLE
  5
4
102
{ACAD_REACTORS
330
3
102
}
330
3
100
AcDbSortentsTable
330
2
  0
SORTENTSTABLE
  5
70B
102
{ACAD_REACTORS
330
70A
102
}
330
70A
100
AcDbSortentsTable
330
628
  0
XRECORD
  5
749
102
{ACAD_REACTORS
330
748
102
}
330
748
100
AcDbXrecord
280
     1
 40
1225361.0
  1
NOTES:\P\pxi-3,l3;1. MAXIMUM LENGTH OF SECONDARY WIRE PATH (14 AWG) FROM FIELD DECODER TO SOLENOID IS 450 FEET.\P\P2. PLACE 3 FEET OF EXTRA WIRE IN EVERY VALVE BOX FOR EASIER SERVICING.
  0
XRECORD
  5
74B
102
{ACAD_REACTORS
330
74A
102
}
330
74A
100
AcDbXrecord
280
     1
 40
24335870.0
  1
\pxi-2,l2;BLUE WIRE FROM FIELD DECODER (1 OF 2) \P\pi0,l0;\PFIELD DECODER: \P\pi-2,l2;  RAIN BIRD FD-101TURF M13011 DECODER OR FD-102TURF M13004 DECODER \P\pi0,l0;\PWHITE WIRE FROM FIELD DECODER (1 OF 2) \P\PDB SERIES WIRE CONNECTOR: \P\pi-2,l2;  RAI
  1
N BIRD DBTWC25 (1 OF 4) \P\pi0,l0;\PSOLENOID WIRE (1 OF 2) \P\PRAIN BIRD REMOTE CONTROL VALVE \P\P12-INCH VALVE BOX WITH COVER: \P  RAIN BIRD VB-STD \P\PFINISH GRADE OR TOP OF MULCH \P\PBRICK (1 OF 4) \P\PPVC MAINLINE PIPE \P\P\pi-2,l2;3-INCH MINIMUM
  1
 DEPTH OF 3/4-INCH  WASHED GRAVEL \P\pi0,l0;\PPVC LATERAL PIPE \P\P\pi-2,l2;TWO-WIRE CABLE TO NEXT DEVICE (FIELD DECODER, SENSOR DECODER, LINE SURGE PROTECTOR OR ESP-LXD CONTROLLER) \P\pi0,l0;\P\pi-2,l2;COMMUNICATION WIRE TO NEXT DEVICE (FIELD DECODE
  1
R, SENSOR DECODER, LINE SURGE PROTECTOR OR ESP-LXD CONTROLLER) 
  0
XRECORD
  5
64F
102
{ACAD_REACTORS
330
64E
102
}
330
64E
100
AcDbXrecord
280
     1
 90
        1
340
650
  0
LAYOUT
  5
656
102
{ACAD_REACTORS
330
649
102
}
330
649
100
AcDbPlotSettings
  1

  2
\\aqua-srv01\OKI C9600
  4
Letter
  6

 40
5.027082920074462
 41
5.027085781097412
 42
5.027069091796875
 43
5.027069091796875
 44
215.8999938964844
 45
279.3999938964844
 46
0.0
 47
0.0
 48
0.0
 49
0.0
140
0.0
141
0.0
142
1.0
143
1.0
 70
   688
 72
     0
 73
     1
 74
     5
  7

 75
    16
147
1.0
 76
     0
 77
     2
 78
   300
148
0.0
149
0.0
100
AcDbLayout
  1
Layout1
 70
     1
 71
     1
 10
0.0
 20
0.0
 11
12.0
 21
9.0
 12
0.0
 22
0.0
 32
0.0
 14
1.000000000000000E+20
 24
1.000000000000000E+20
 34
1.000000000000000E+20
 15
-1.000000000000000E+20
 25
-1.000000000000000E+20
 35
-1.000000000000000E+20
146
0.0
 13
0.0
 23
0.0
 33
0.0
 16
1.0
 26
0.0
 36
0.0
 17
0.0
 27
1.0
 37
0.0
 76
     0
330
64B
331
64D
1001
ACAD_PSEXT
1000
\\aqua-srv01\OKI C9600
1000
OKI C9600(PCL)
1000
Expansion Area
1000

1070
     0
  0
LAYOUT
  5
648
102
{ACAD_REACTORS
330
649
102
}
330
649
100
AcDbPlotSettings
  1

  2
Bluebeam PS9 HighRes.pc3
  4
ANSI_A_(11.00_x_8.50_Inches)
  6

 40
5.842000007629394
 41
5.842000007629394
 42
5.84197998046875
 43
5.841995239257812
 44
279.3999938964844
 45
215.8999938964844
 46
0.0000000000000083
 47
17.36102584985761
 48
0.0
 49
0.0000000000000001
140
16.49
141
10.44
142
1.0
143
1.564516047752492
 70
 11956
 72
     0
 73
     0
 74
     1
  7
okicolorshaded.ctb
 75
     0
147
0.639175290938403
 76
     1
 77
     2
 78
   300
148
0.0
149
0.0
100
AcDbLayout
  1
Model
 70
     1
 71
     0
 10
0.0
 20
0.0
 11
12.0
 21
9.0
 12
0.0
 22
0.0
 32
0.0
 14
0.0
 24
0.0
 34
0.0
 15
0.0
 25
0.0
 35
0.0
146
0.0
 13
0.0
 23
0.0
 33
0.0
 16
1.0
 26
0.0
 36
0.0
 17
0.0
 27
1.0
 37
0.0
 76
     0
330
2
331
663
1001
ACAD_PSEXT
1000
Bluebeam PS9 HighRes.pc3
1000
PostScript Level 2
1000
File
1000

1070
     0
  0
MATERIAL
  5
672
102
{ACAD_XDICTIONARY
360
673
102
}
102
{ACAD_REACTORS
330
F
102
}
330
F
100
AcDbMaterial
  1
ByBlock
 72
     0
 43
0.0208333333333333
 43
0.0
 43
0.0
 43
0.0
 43
0.0
 43
0.0208333333333333
 43
0.0
 43
0.0
 43
0.0
 43
0.0
 43
1.0
 43
0.0
 43
0.0
 43
0.0
 43
0.0
 43
1.0
 77
     0
 47
0.0208333333333333
 47
0.0
 47
0.0
 47
0.0
 47
0.0
 47
0.0208333333333333
 47
0.0
 47
0.0
 47
0.0
 47
0.0
 47
1.0
 47
0.0
 47
0.0
 47
0.0
 47
0.0
 47
1.0
171
     0
 49
0.0208333333333333
 49
0.0
 49
0.0
 49
0.0
 49
0.0
 49
0.0208333333333333
 49
0.0
 49
0.0
 49
0.0
 49
0.0
 49
1.0
 49
0.0
 49
0.0
 49
0.0
 49
0.0
 49
1.0
175
     0
142
0.0208333333333333
142
0.0
142
0.0
142
0.0
142
0.0
142
0.0208333333333333
142
0.0
142
0.0
142
0.0
142
0.0
142
1.0
142
0.0
142
0.0
142
0.0
142
0.0
142
1.0
179
     0
144
0.0208333333333333
144
0.0
144
0.0
144
0.0
144
0.0
144
0.0208333333333333
144
0.0
144
0.0
144
0.0
144
0.0
144
1.0
144
0.0
144
0.0
144
0.0
144
0.0
144
1.0
147
0.0208333333333333
147
0.0
147
0.0
147
0.0
147
0.0
147
0.0208333333333333
147
0.0
147
0.0
147
0.0
147
0.0
147
1.0
147
0.0
147
0.0
147
0.0
147
0.0
147
1.0
  0
MATERIAL
  5
66A
102
{ACAD_XDICTIONARY
360
66B
102
}
102
{ACAD_REACTORS
330
F
102
}
330
F
100
AcDbMaterial
  1
ByLayer
 72
     0
 43
0.0208333333333333
 43
0.0
 43
0.0
 43
0.0
 43
0.0
 43
0.0208333333333333
 43
0.0
 43
0.0
 43
0.0
 43
0.0
 43
1.0
 43
0.0
 43
0.0
 43
0.0
 43
0.0
 43
1.0
 77
     0
 47
0.0208333333333333
 47
0.0
 47
0.0
 47
0.0
 47
0.0
 47
0.0208333333333333
 47
0.0
 47
0.0
 47
0.0
 47
0.0
 47
1.0
 47
0.0
 47
0.0
 47
0.0
 47
0.0
 47
1.0
171
     0
 49
0.0208333333333333
 49
0.0
 49
0.0
 49
0.0
 49
0.0
 49
0.0208333333333333
 49
0.0
 49
0.0
 49
0.0
 49
0.0
 49
1.0
 49
0.0
 49
0.0
 49
0.0
 49
0.0
 49
1.0
175
     0
142
0.0208333333333333
142
0.0
142
0.0
142
0.0
142
0.0
142
0.0208333333333333
142
0.0
142
0.0
142
0.0
142
0.0
142
1.0
142
0.0
142
0.0
142
0.0
142
0.0
142
1.0
179
     0
144
0.0208333333333333
144
0.0
144
0.0
144
0.0
144
0.0
144
0.0208333333333333
144
0.0
144
0.0
144
0.0
144
0.0
144
1.0
144
0.0
144
0.0
144
0.0
144
0.0
144
1.0
147
0.0208333333333333
147
0.0
147
0.0
147
0.0
147
0.0
147
0.0208333333333333
147
0.0
147
0.0
147
0.0
147
0.0
147
1.0
147
0.0
147
0.0
147
0.0
147
0.0
147
1.0
  0
MATERIAL
  5
E
102
{ACAD_XDICTIONARY
360
10
102
}
102
{ACAD_REACTORS
330
F
102
}
330
F
100
AcDbMaterial
  1
Global
 72
     0
 43
0.0208333333333333
 43
0.0
 43
0.0
 43
0.0
 43
0.0
 43
0.0208333333333333
 43
0.0
 43
0.0
 43
0.0
 43
0.0
 43
1.0
 43
0.0
 43
0.0
 43
0.0
 43
0.0
 43
1.0
 77
     0
 47
0.0208333333333333
 47
0.0
 47
0.0
 47
0.0
 47
0.0
 47
0.0208333333333333
 47
0.0
 47
0.0
 47
0.0
 47
0.0
 47
1.0
 47
0.0
 47
0.0
 47
0.0
 47
0.0
 47
1.0
171
     0
 49
0.0208333333333333
 49
0.0
 49
0.0
 49
0.0
 49
0.0
 49
0.0208333333333333
 49
0.0
 49
0.0
 49
0.0
 49
0.0
 49
1.0
 49
0.0
 49
0.0
 49
0.0
 49
0.0
 49
1.0
175
     0
142
0.0208333333333333
142
0.0
142
0.0
142
0.0
142
0.0
142
0.0208333333333333
142
0.0
142
0.0
142
0.0
142
0.0
142
1.0
142
0.0
142
0.0
142
0.0
142
0.0
142
1.0
179
     0
144
0.0208333333333333
144
0.0
144
0.0
144
0.0
144
0.0
144
0.0208333333333333
144
0.0
144
0.0
144
0.0
144
0.0
144
1.0
144
0.0
144
0.0
144
0.0
144
0.0
144
1.0
147
0.0208333333333333
147
0.0
147
0.0
147
0.0
147
0.0
147
0.0208333333333333
147
0.0
147
0.0
147
0.0
147
0.0
147
1.0
147
0.0
147
0.0
147
0.0
147
0.0
147
1.0
  0
MLEADERSTYLE
  5
6BF
102
{ACAD_REACTORS
330
6BE
102
}
330
6BE
100
AcDbMLeaderStyle
170
     2
171
     1
172
     0
 90
        2
 40
0.0
 41
0.0
173
     1
 91
-1056964608
340
65E
 92
       -2
290
     1
 42
0.09
291
     1
 43
0.36
  3
Standard
 44
0.18
300

342
502
174
     1
178
     6
175
     1
176
     0
 93
-1056964608
 45
0.18
292
     0
297
     0
 46
0.18
 94
-1056964608
 47
1.0
 49
1.0
140
1.0
293
     1
141
0.0
294
     1
177
     0
142
1.0
295
     0
296
     0
143
0.125
1001
ACAD_MLEADERVER
1070
     2
  0
MLINESTYLE
  5
689
102
{ACAD_REACTORS
330
668
102
}
330
668
100
AcDbMlineStyle
  2
STANDARD
 70
     0
  3

 62
     0
 51
90.0
 52
90.0
 71
     2
 49
0.5
 62
   256
  6
BYLAYER
 49
-0.5
 62
   256
  6
BYLAYER
  0
ACDBPLACEHOLDER
  5
7
102
{ACAD_REACTORS
330
8
102
}
330
8
  0
SCALE
  5
650
102
{ACAD_REACTORS
330
651
102
}
330
651
100
AcDbScale
 70
     0
300
1:1
140
1.0
141
1.0
290
     1
  0
SCALE
  5
68F
102
{ACAD_REACTORS
330
651
102
}
330
651
100
AcDbScale
 70
     0
300
1:2
140
1.0
141
2.0
290
     0
  0
SCALE
  5
690
102
{ACAD_REACTORS
330
651
102
}
330
651
100
AcDbScale
 70
     0
300
1:4
140
1.0
141
4.0
290
     0
  0
SCALE
  5
691
102
{ACAD_REACTORS
330
651
102
}
330
651
100
AcDbScale
 70
     0
300
1:5
140
1.0
141
5.0
290
     0
  0
SCALE
  5
692
102
{ACAD_REACTORS
330
651
102
}
330
651
100
AcDbScale
 70
     0
300
1:8
140
1.0
141
8.0
290
     0
  0
SCALE
  5
693
102
{ACAD_REACTORS
330
651
102
}
330
651
100
AcDbScale
 70
     0
300
1:10
140
1.0
141
10.0
290
     0
  0
SCALE
  5
694
102
{ACAD_REACTORS
330
651
102
}
330
651
100
AcDbScale
 70
     0
300
1:16
140
1.0
141
16.0
290
     0
  0
SCALE
  5
695
102
{ACAD_REACTORS
330
651
102
}
330
651
100
AcDbScale
 70
     0
300
1:20
140
1.0
141
20.0
290
     0
  0
SCALE
  5
696
102
{ACAD_REACTORS
330
651
102
}
330
651
100
AcDbScale
 70
     0
300
1:30
140
1.0
141
30.0
290
     0
  0
SCALE
  5
697
102
{ACAD_REACTORS
330
651
102
}
330
651
100
AcDbScale
 70
     0
300
1:40
140
1.0
141
40.0
290
     0
  0
SCALE
  5
698
102
{ACAD_REACTORS
330
651
102
}
330
651
100
AcDbScale
 70
     0
300
1:50
140
1.0
141
50.0
290
     0
  0
SCALE
  5
699
102
{ACAD_REACTORS
330
651
102
}
330
651
100
AcDbScale
 70
     0
300
1:100
140
1.0
141
100.0
290
     0
  0
SCALE
  5
69A
102
{ACAD_REACTORS
330
651
102
}
330
651
100
AcDbScale
 70
     0
300
2:1
140
2.0
141
1.0
290
     0
  0
SCALE
  5
69B
102
{ACAD_REACTORS
330
651
102
}
330
651
100
AcDbScale
 70
     0
300
4:1
140
4.0
141
1.0
290
     0
  0
SCALE
  5
69C
102
{ACAD_REACTORS
330
651
102
}
330
651
100
AcDbScale
 70
     0
300
8:1
140
8.0
141
1.0
290
     0
  0
SCALE
  5
69D
102
{ACAD_REACTORS
330
651
102
}
330
651
100
AcDbScale
 70
     0
300
10:1
140
10.0
141
1.0
290
     0
  0
SCALE
  5
69E
102
{ACAD_REACTORS
330
651
102
}
330
651
100
AcDbScale
 70
     0
300
100:1
140
100.0
141
1.0
290
     0
  0
SCALE
  5
69F
102
{ACAD_REACTORS
330
651
102
}
330
651
100
AcDbScale
 70
     0
300
1/128" = 1'-0"
140
0.0078125
141
12.0
290
     0
  0
SCALE
  5
6A0
102
{ACAD_REACTORS
330
651
102
}
330
651
100
AcDbScale
 70
     0
300
1/64" = 1'-0"
140
0.015625
141
12.0
290
     0
  0
SCALE
  5
6A1
102
{ACAD_REACTORS
330
651
102
}
330
651
100
AcDbScale
 70
     0
300
1/32" = 1'-0"
140
0.03125
141
12.0
290
     0
  0
SCALE
  5
6A2
102
{ACAD_REACTORS
330
651
102
}
330
651
100
AcDbScale
 70
     0
300
1/16" = 1'-0"
140
0.0625
141
12.0
290
     0
  0
SCALE
  5
6A3
102
{ACAD_REACTORS
330
651
102
}
330
651
100
AcDbScale
 70
     0
300
3/32" = 1'-0"
140
0.09375
141
12.0
290
     0
  0
SCALE
  5
6A4
102
{ACAD_REACTORS
330
651
102
}
330
651
100
AcDbScale
 70
     0
300
1/8" = 1'-0"
140
0.125
141
12.0
290
     0
  0
SCALE
  5
6A5
102
{ACAD_REACTORS
330
651
102
}
330
651
100
AcDbScale
 70
     0
300
3/16" = 1'-0"
140
0.1875
141
12.0
290
     0
  0
SCALE
  5
6A6
102
{ACAD_REACTORS
330
651
102
}
330
651
100
AcDbScale
 70
     0
300
1/4" = 1'-0"
140
0.25
141
12.0
290
     0
  0
SCALE
  5
6A7
102
{ACAD_REACTORS
330
651
102
}
330
651
100
AcDbScale
 70
     0
300
3/8" = 1'-0"
140
0.375
141
12.0
290
     0
  0
SCALE
  5
6A8
102
{ACAD_REACTORS
330
651
102
}
330
651
100
AcDbScale
 70
     0
300
1/2" = 1'-0"
140
0.5
141
12.0
290
     0
  0
SCALE
  5
6A9
102
{ACAD_REACTORS
330
651
102
}
330
651
100
AcDbScale
 70
     0
300
3/4" = 1'-0"
140
0.75
141
12.0
290
     0
  0
SCALE
  5
6AA
102
{ACAD_REACTORS
330
651
102
}
330
651
100
AcDbScale
 70
     0
300
1" = 1'-0"
140
1.0
141
12.0
290
     0
  0
SCALE
  5
6AB
102
{ACAD_REACTORS
330
651
102
}
330
651
100
AcDbScale
 70
     0
300
1-1/2" = 1'-0"
140
1.5
141
12.0
290
     0
  0
SCALE
  5
6AC
102
{ACAD_REACTORS
330
651
102
}
330
651
100
AcDbScale
 70
     0
300
3" = 1'-0"
140
3.0
141
12.0
290
     0
  0
SCALE
  5
6AD
102
{ACAD_REACTORS
330
651
102
}
330
651
100
AcDbScale
 70
     0
300
6" = 1'-0"
140
6.0
141
12.0
290
     0
  0
SCALE
  5
6AE
102
{ACAD_REACTORS
330
651
102
}
330
651
100
AcDbScale
 70
     0
300
1'-0" = 1'-0"
140
12.0
141
12.0
290
     0
  0
TABLESTYLE
  5
68A
102
{ACAD_XDICTIONARY
360
68B
102
}
102
{ACAD_REACTORS
330
67B
102
}
330
67B
100
AcDbTableStyle
  3
Standard
 70
     0
 71
     0
 40
0.06
 41
0.06
280
     0
281
     0
  7
STANDARD
140
0.18
170
     2
 62
     0
 63
     7
283
     0
274
    -2
284
     1
 64
     0
275
    -2
285
     1
 65
     0
276
    -2
286
     1
 66
     0
277
    -2
287
     1
 67
     0
278
    -2
288
     1
 68
     0
279
    -2
289
     1
 69
     0
  7
STANDARD
140
0.25
170
     5
 62
     0
 63
     7
283
     0
274
    -2
284
     1
 64
     0
275
    -2
285
     1
 65
     0
276
    -2
286
     1
 66
     0
277
    -2
287
     1
 67
     0
278
    -2
288
     1
 68
     0
279
    -2
289
     1
 69
     0
  7
STANDARD
140
0.18
170
     5
 62
     0
 63
     7
283
     0
274
    -2
284
     1
 64
     0
275
    -2
285
     1
 65
     0
276
    -2
286
     1
 66
     0
277
    -2
287
     1
 67
     0
278
    -2
288
     1
 68
     0
279
    -2
289
     1
 69
     0
  0
VISUALSTYLE
  5
653
102
{ACAD_REACTORS
330
654
102
}
330
654
100
AcDbVisualStyle
  2
2dWireframe
 70
     4
 71
     0
 72
     2
 73
     0
 90
        0
 40
-0.6
 41
-30.0
 62
     5
 63
     7
421
 16777215
 74
     1
 91
        4
 64
     7
 65
   257
 75
     1
175
     1
 42
1.0
 92
        0
 66
   257
 43
1.0
 76
     1
 77
     6
 78
     2
 67
     7
 79
     5
170
     0
171
     0
290
     0
174
     0
 93
        1
 44
0.0
173
     0
291
     0
 45
0.0
1001
ACAD
1000
AcDbSavedByObjectVersion
1070
     0
  0
VISUALSTYLE
  5
6B6
102
{ACAD_REACTORS
330
654
102
}
330
654
100
AcDbVisualStyle
  2
3D Hidden
 70
     6
 71
     1
 72
     2
 73
     2
 90
        0
 40
-0.6
 41
-30.0
 62
     5
 63
     7
421
 16777215
 74
     2
 91
        2
 64
     7
 65
   257
 75
     2
175
     1
 42
40.0
 92
        0
 66
   257
 43
1.0
 76
     1
 77
     6
 78
     2
 67
     7
 79
     3
170
     0
171
     0
290
     0
174
     0
 93
        1
 44
0.0
173
     0
291
     0
 45
0.0
1001
ACAD
1000
AcDbSavedByObjectVersion
1070
     0
  0
VISUALSTYLE
  5
68E
102
{ACAD_REACTORS
330
654
102
}
330
654
100
AcDbVisualStyle
  2
3dWireframe
 70
     5
 71
     0
 72
     2
 73
     0
 90
        0
 40
-0.6
 41
-30.0
 62
     5
 63
     7
421
 16777215
 74
     1
 91
        4
 64
     7
 65
   257
 75
     1
175
     1
 42
1.0
 92
        0
 66
   257
 43
1.0
 76
     1
 77
     6
 78
     2
 67
     7
 79
     5
170
     0
171
     0
290
     0
174
     0
 93
        1
 44
0.0
173
     0
291
     0
 45
0.0
1001
ACAD
1000
AcDbSavedByObjectVersion
1070
     0
  0
VISUALSTYLE
  5
6B5
102
{ACAD_REACTORS
330
654
102
}
330
654
100
AcDbVisualStyle
  2
Basic
 70
     7
 71
     1
 72
     0
 73
     1
 90
        0
 40
-0.6
 41
-30.0
 62
     5
 63
     7
421
 16777215
 74
     0
 91
        4
 64
     7
 65
   257
 75
     1
175
     1
 42
1.0
 92
        8
 66
     7
 43
1.0
 76
     1
 77
     6
 78
     2
 67
     7
 79
     5
170
     0
171
     0
290
     0
174
     0
 93
        1
 44
0.0
173
     0
291
     1
 45
0.0
1001
ACAD
1000
AcDbSavedByObjectVersion
1070
     0
  0
VISUALSTYLE
  5
6B9
102
{ACAD_REACTORS
330
654
102
}
330
654
100
AcDbVisualStyle
  2
Brighten
 70
    12
 71
     2
 72
     2
 73
     0
 90
        0
 40
-0.6
 41
-30.0
 62
     5
 63
     7
421
 16777215
 74
     1
 91
        4
 64
     7
 65
   257
 75
     1
175
     1
 42
1.0
 92
        8
 66
     7
 43
1.0
 76
     1
 77
     6
 78
     2
 67
     7
 79
     5
170
     0
171
     0
290
     0
174
     0
 93
        1
 44
50.0
173
     0
291
     1
 45
0.0
1001
ACAD
1000
AcDbSavedByObjectVersion
1070
     0
  0
VISUALSTYLE
  5
6BD
102
{ACAD_REACTORS
330
654
102
}
330
654
100
AcDbVisualStyle
  2
ColorChange
 70
    16
 71
     2
 72
     2
 73
     3
 90
        0
 40
-0.6
 41
-30.0
 62
     5
 63
     8
421
  8421504
 74
     1
 91
        4
 64
     7
 65
   257
 75
     1
175
     1
 42
1.0
 92
        8
 66
     8
424
  8421504
 43
1.0
 76
     1
 77
     6
 78
     2
 67
     7
 79
     5
170
     0
171
     0
290
     0
174
     0
 93
        1
 44
0.0
173
     0
291
     1
 45
0.0
1001
ACAD
1000
AcDbSavedByObjectVersion
1070
     0
  0
VISUALSTYLE
  5
6B7
102
{ACAD_REACTORS
330
654
102
}
330
654
100
AcDbVisualStyle
  2
Conceptual
 70
     9
 71
     3
 72
     2
 73
     0
 90
        0
 40
-0.6
 41
-30.0
 62
     5
 63
     7
421
 16777215
 74
     2
 91
        2
 64
     7
 65
   257
 75
     1
175
     1
 42
40.0
 92
        8
 66
     7
 43
1.0
 76
     1
 77
     6
 78
     2
 67
     7
 79
     3
170
     0
171
     0
290
     0
174
     0
 93
        1
 44
0.0
173
     0
291
     0
 45
0.0
1001
ACAD
1000
AcDbSavedByObjectVersion
1070
     0
  0
VISUALSTYLE
  5
6B8
102
{ACAD_REACTORS
330
654
102
}
330
654
100
AcDbVisualStyle
  2
Dim
 70
    11
 71
     2
 72
     2
 73
     0
 90
        0
 40
-0.6
 41
-30.0
 62
     5
 63
     7
421
 16777215
 74
     1
 91
        4
 64
     7
 65
   257
 75
     1
175
     1
 42
1.0
 92
        8
 66
     7
 43
1.0
 76
     1
 77
     6
 78
     2
 67
     7
 79
     5
170
     0
171
     0
290
     0
174
     0
 93
        1
 44
-50.0
173
     0
291
     1
 45
0.0
1001
ACAD
1000
AcDbSavedByObjectVersion
1070
     0
  0
VISUALSTYLE
  5
6BC
102
{ACAD_REACTORS
330
654
102
}
330
654
100
AcDbVisualStyle
  2
Facepattern
 70
    15
 71
     2
 72
     2
 73
     0
 90
        0
 40
-0.6
 41
-30.0
 62
     5
 63
     7
421
 16777215
 74
     1
 91
        4
 64
     7
 65
   257
 75
     1
175
     1
 42
1.0
 92
        8
 66
     7
 43
1.0
 76
     1
 77
     6
 78
     2
 67
     7
 79
     5
170
     0
171
     0
290
     0
174
     0
 93
        1
 44
0.0
173
     0
291
     1
 45
0.0
1001
ACAD
1000
AcDbSavedByObjectVersion
1070
     0
  0
VISUALSTYLE
  5
6B1
102
{ACAD_REACTORS
330
654
102
}
330
654
100
AcDbVisualStyle
  2
Flat
 70
     0
 71
     2
 72
     1
 73
     1
 90
        2
 40
-0.6
 41
30.0
 62
     5
 63
     7
421
 16777215
 74
     0
 91
        4
 64
     7
 65
   257
 75
     1
175
     1
 42
1.0
 92
        8
 66
     7
 43
1.0
 76
     1
 77
     6
 78
     2
 67
     7
 79
     5
170
     0
171
     0
290
     0
174
     0
 93
       13
 44
0.0
173
     0
291
     1
 45
0.0
1001
ACAD
1000
AcDbSavedByObjectVersion
1070
     0
  0
VISUALSTYLE
  5
6B2
102
{ACAD_REACTORS
330
654
102
}
330
654
100
AcDbVisualStyle
  2
FlatWithEdges
 70
     1
 71
     2
 72
     1
 73
     1
 90
        2
 40
-0.6
 41
30.0
 62
     5
 63
     7
421
 16777215
 74
     1
 91
        4
 64
     7
 65
   257
 75
     1
175
     1
 42
1.0
 92
        0
 66
   257
 43
1.0
 76
     1
 77
     6
 78
     2
 67
     7
 79
     5
170
     0
171
     0
290
     0
174
     0
 93
       13
 44
0.0
173
     0
291
     1
 45
0.0
1001
ACAD
1000
AcDbSavedByObjectVersion
1070
     0
  0
VISUALSTYLE
  5
6B3
102
{ACAD_REACTORS
330
654
102
}
330
654
100
AcDbVisualStyle
  2
Gouraud
 70
     2
 71
     2
 72
     2
 73
     1
 90
        2
 40
-0.6
 41
30.0
 62
     5
 63
     7
421
 16777215
 74
     0
 91
        4
 64
     7
 65
   257
 75
     1
175
     1
 42
1.0
 92
        0
 66
     7
 43
1.0
 76
     1
 77
     6
 78
     2
 67
     7
 79
     5
170
     0
171
     0
290
     0
174
     0
 93
       13
 44
0.0
173
     0
291
     1
 45
0.0
1001
ACAD
1000
AcDbSavedByObjectVersion
1070
     0
  0
VISUALSTYLE
  5
6B4
102
{ACAD_REACTORS
330
654
102
}
330
654
100
AcDbVisualStyle
  2
GouraudWithEdges
 70
     3
 71
     2
 72
     2
 73
     1
 90
        2
 40
-0.6
 41
30.0
 62
     5
 63
     7
421
 16777215
 74
     1
 91
        4
 64
     7
 65
   257
 75
     1
175
     1
 42
1.0
 92
        0
 66
   257
 43
1.0
 76
     1
 77
     6
 78
     2
 67
     7
 79
     5
170
     0
171
     0
290
     0
174
     0
 93
       13
 44
0.0
173
     0
291
     1
 45
0.0
1001
ACAD
1000
AcDbSavedByObjectVersion
1070
     0
  0
VISUALSTYLE
  5
6BB
102
{ACAD_REACTORS
330
654
102
}
330
654
100
AcDbVisualStyle
  2
Linepattern
 70
    14
 71
     2
 72
     2
 73
     0
 90
        0
 40
-0.6
 41
-30.0
 62
     5
 63
     7
421
 16777215
 74
     1
 91
        4
 64
     7
 65
   257
 75
     7
175
     7
 42
1.0
 92
        8
 66
     7
 43
1.0
 76
     1
 77
     6
 78
     2
 67
     7
 79
     5
170
     0
171
     0
290
     0
174
     0
 93
        1
 44
0.0
173
     0
291
     1
 45
0.0
1001
ACAD
1000
AcDbSavedByObjectVersion
1070
     0
  0
VISUALSTYLE
  5
68D
102
{ACAD_REACTORS
330
654
102
}
330
654
100
AcDbVisualStyle
  2
Realistic
 70
     8
 71
     2
 72
     2
 73
     0
 90
        0
 40
-0.6
 41
-30.0
 62
     5
 63
     7
421
 16777215
 74
     1
 91
        0
 64
     7
 65
   257
 75
     1
175
     1
 42
1.0
 92
        8
 66
     8
424
  7895160
 43
1.0
 76
     1
 77
     6
 78
     2
 67
     7
 79
     5
170
     0
171
     0
290
     0
174
     0
 93
       13
 44
0.0
173
     0
291
     0
 45
0.0
1001
ACAD
1000
AcDbSavedByObjectVersion
1070
     0
  0
VISUALSTYLE
  5
6BA
102
{ACAD_REACTORS
330
654
102
}
330
654
100
AcDbVisualStyle
  2
Thicken
 70
    13
 71
     2
 72
     2
 73
     0
 90
        0
 40
-0.6
 41
-30.0
 62
     5
 63
     7
421
 16777215
 74
     1
 91
        4
 64
     7
 65
   257
 75
     1
175
     1
 42
1.0
 92
       12
 66
     7
 43
1.0
 76
     1
 77
     6
 78
     2
 67
     7
 79
     5
170
     0
171
     0
290
     0
174
     0
 93
        1
 44
0.0
173
     0
291
     1
 45
0.0
1001
ACAD
1000
AcDbSavedByObjectVersion
1070
     0
  0
DICTIONARYVAR
  5
67D
102
{ACAD_REACTORS
330
67C
102
}
330
67C
100
DictionaryVariables
280
     0
  1
1:1
  0
DICTIONARYVAR
  5
67E
102
{ACAD_REACTORS
330
67C
102
}
330
67C
100
DictionaryVariables
280
     0
  1
STANDARD
  0
DICTIONARYVAR
  5
67F
102
{ACAD_REACTORS
330
67C
102
}
330
67C
100
DictionaryVariables
280
     0
  1
STANDARD
  0
DICTIONARYVAR
  5
680
102
{ACAD_REACTORS
330
67C
102
}
330
67C
100
DictionaryVariables
280
     0
  1
1
  0
DICTIONARYVAR
  5
681
102
{ACAD_REACTORS
330
67C
102
}
330
67C
100
DictionaryVariables
280
     0
  1
3
  0
DICTIONARYVAR
  5
73E
102
{ACAD_REACTORS
330
67C
102
}
330
67C
100
DictionaryVariables
280
     0
  1
0
  0
DICTIONARYVAR
  5
682
102
{ACAD_REACTORS
330
67C
102
}
330
67C
100
DictionaryVariables
280
     0
  1
15
  0
DICTIONARYVAR
  5
683
102
{ACAD_REACTORS
330
67C
102
}
330
67C
100
DictionaryVariables
280
     0
  1
0
  0
DICTIONARYVAR
  5
684
102
{ACAD_REACTORS
330
67C
102
}
330
67C
100
DictionaryVariables
280
     0
  1
0
  0
DICTIONARYVAR
  5
685
102
{ACAD_REACTORS
330
67C
102
}
330
67C
100
DictionaryVariables
280
     0
  1
1
  0
DICTIONARYVAR
  5
686
102
{ACAD_REACTORS
330
67C
102
}
330
67C
100
DictionaryVariables
280
     0
  1
0
  0
XRECORD
  5
725
102
{ACAD_REACTORS
330
722
102
}
330
722
100
AcDbXrecord
280
     1
  1
_0100-
  1
*0100-*
  1
*
  1
*
 70
     0
  1
*
  1
*
  0
XRECORD
  5
724
102
{ACAD_REACTORS
330
722
102
}
330
722
100
AcDbXrecord
280
     1
  1
_0280-
  1
*0280-*
  1
*
  1
*
 70
     0
  1
*
  1
*
  0
XRECORD
  5
727
102
{ACAD_REACTORS
330
722
102
}
330
722
100
AcDbXrecord
280
     1
  1
_Add Alternate
  1
*add*alt*
  1
*
  1
*
 70
     0
  1
*
  1
*
  0
XRECORD
  5
728
102
{ACAD_REACTORS
330
722
102
}
330
722
100
AcDbXrecord
280
     1
  1
_Bid Alternate
  1
*bid*alt*
  1
*
  1
*
 70
     0
  1
*
  1
*
  0
XRECORD
  5
72A
102
{ACAD_REACTORS
330
722
102
}
330
722
100
AcDbXrecord
280
     1
  1
_Color 253
  1
*
  1
253
  1
*
 70
     0
  1
*
  1
*
  0
XRECORD
  5
726
102
{ACAD_REACTORS
330
722
102
}
330
722
100
AcDbXrecord
280
     1
  1
_Color 8
  1
*
  1
8
  1
*
 70
     0
  1
*
  1
*
  0
XRECORD
  5
729
102
{ACAD_REACTORS
330
722
102
}
330
722
100
AcDbXrecord
280
     1
  1
_Color 84
  1
*
  1
84
  1
*
 70
     0
  1
*
  1
*
  0
XRECORD
  5
730
102
{ACAD_REACTORS
330
722
102
}
330
722
100
AcDbXrecord
280
     1
  1
_Contours
  1
*contour*,*cont-*,*cp cont*,*p-cont*
  1
*
  1
*
 70
     0
  1
*
  1
*
  0
XRECORD
  5
72B
102
{ACAD_REACTORS
330
722
102
}
330
722
100
AcDbXrecord
280
     1
  1
_Demo
  1
*demo*
  1
*
  1
*
 70
     0
  1
*
  1
*
  0
XRECORD
  5
72C
102
{ACAD_REACTORS
330
722
102
}
330
722
100
AcDbXrecord
280
     1
  1
_Existing
  1
*exist*,*ex*
  1
*
  1
*
 70
     0
  1
*
  1
*
  0
XRECORD
  5
72F
102
{ACAD_REACTORS
330
722
102
}
330
722
100
AcDbXrecord
280
     1
  1
_Hardscape
  1
*sidewalk*,*sw*,*curb*,*walk*,*-lip*,*tbc*
  1
*
  1
*
 70
     0
  1
*
  1
*
  0
XRECORD
  5
723
102
{ACAD_REACTORS
330
722
102
}
330
722
100
AcDbXrecord
280
     1
  1
_NoXref
  1
~*|*
  1
*
  1
*
 70
     0
  1
*
  1
*
  0
XRECORD
  5
72D
102
{ACAD_REACTORS
330
722
102
}
330
722
100
AcDbXrecord
280
     1
  1
_Row
  1
*row*
  1
*
  1
*
 70
     0
  1
*
  1
*
  0
XRECORD
  5
72E
102
{ACAD_REACTORS
330
722
102
}
330
722
100
AcDbXrecord
280
     1
  1
_Utility
  1
*ut-*,*utility*,*wat*
  1
*
  1
*
 70
     0
  1
*
  1
*
  0
DICTIONARY
  5
673
330
672
100
AcDbDictionary
280
     1
281
     1
  3
ACAD_XREC_ROUNDTRIP
360
74F
  3
BUMPTILE
360
674
  3
DIFFUSETILE
360
675
  3
OPACITYTILE
360
676
  3
REFLECTIONTILE
360
677
  3
REFRACTIONTILE
360
678
  3
SPECULARTILE
360
679
  0
DICTIONARY
  5
66B
330
66A
100
AcDbDictionary
280
     1
281
     1
  3
ACAD_XREC_ROUNDTRIP
360
74E
  3
BUMPTILE
360
66C
  3
DIFFUSETILE
360
66D
  3
OPACITYTILE
360
66E
  3
REFLECTIONTILE
360
66F
  3
REFRACTIONTILE
360
670
  3
SPECULARTILE
360
671
  0
DICTIONARY
  5
10
330
E
100
AcDbDictionary
280
     1
281
     1
  3
ACAD_XREC_ROUNDTRIP
360
74D
  3
BUMPTILE
360
11
  3
DIFFUSETILE
360
12
  3
OPACITYTILE
360
13
  3
REFLECTIONTILE
360
14
  3
REFRACTIONTILE
360
15
  3
SPECULARTILE
360
16
  0
DICTIONARY
  5
68B
330
68A
100
AcDbDictionary
280
     1
281
     1
  3
ACAD_ROUNDTRIP_2008_TABLESTYLE_CELLSTYLEMAP
360
74C
  3
ACAD_XREC_ROUNDTRIP
360
750
  0
XRECORD
  5
74F
102
{ACAD_REACTORS
330
673
102
}
330
673
100
AcDbXrecord
280
     1
102
MATERIAL
148
0.0
149
0.0
149
0.0
 93
        0
 94
      127
282
     0
 72
     0
 77
     0
171
     0
175
     0
179
     0
273
     0
  0
XRECORD
  5
674
102
{ACAD_REACTORS
330
673
102
}
330
673
100
AcDbXrecord
280
     1
270
     1
271
     1
  0
XRECORD
  5
675
102
{ACAD_REACTORS
330
673
102
}
330
673
100
AcDbXrecord
280
     1
270
     1
271
     1
  0
XRECORD
  5
676
102
{ACAD_REACTORS
330
673
102
}
330
673
100
AcDbXrecord
280
     1
270
     1
271
     1
  0
XRECORD
  5
677
102
{ACAD_REACTORS
330
673
102
}
330
673
100
AcDbXrecord
280
     1
270
     1
271
     1
  0
XRECORD
  5
678
102
{ACAD_REACTORS
330
673
102
}
330
673
100
AcDbXrecord
280
     1
270
     1
271
     1
  0
XRECORD
  5
679
102
{ACAD_REACTORS
330
673
102
}
330
673
100
AcDbXrecord
280
     1
270
     1
271
     1
  0
XRECORD
  5
74E
102
{ACAD_REACTORS
330
66B
102
}
330
66B
100
AcDbXrecord
280
     1
102
MATERIAL
148
0.0
149
0.0
149
0.0
 93
        0
 94
      127
282
     0
 72
     0
 77
     0
171
     0
175
     0
179
     0
273
     0
  0
XRECORD
  5
66C
102
{ACAD_REACTORS
330
66B
102
}
330
66B
100
AcDbXrecord
280
     1
270
     1
271
     1
  0
XRECORD
  5
66D
102
{ACAD_REACTORS
330
66B
102
}
330
66B
100
AcDbXrecord
280
     1
270
     1
271
     1
  0
XRECORD
  5
66E
102
{ACAD_REACTORS
330
66B
102
}
330
66B
100
AcDbXrecord
280
     1
270
     1
271
     1
  0
XRECORD
  5
66F
102
{ACAD_REACTORS
330
66B
102
}
330
66B
100
AcDbXrecord
280
     1
270
     1
271
     1
  0
XRECORD
  5
670
102
{ACAD_REACTORS
330
66B
102
}
330
66B
100
AcDbXrecord
280
     1
270
     1
271
     1
  0
XRECORD
  5
671
102
{ACAD_REACTORS
330
66B
102
}
330
66B
100
AcDbXrecord
280
     1
270
     1
271
     1
  0
XRECORD
  5
74D
102
{ACAD_REACTORS
330
10
102
}
330
10
100
AcDbXrecord
280
     1
102
MATERIAL
148
0.0
149
0.0
149
0.0
 93
        0
 94
      127
282
     0
 72
     0
 77
     0
171
     0
175
     0
179
     0
273
     0
  0
XRECORD
  5
11
102
{ACAD_REACTORS
330
10
102
}
330
10
100
AcDbXrecord
280
     1
270
     1
271
     1
  0
XRECORD
  5
12
102
{ACAD_REACTORS
330
10
102
}
330
10
100
AcDbXrecord
280
     1
270
     1
271
     1
  0
XRECORD
  5
13
102
{ACAD_REACTORS
330
10
102
}
330
10
100
AcDbXrecord
280
     1
270
     1
271
     1
  0
XRECORD
  5
14
102
{ACAD_REACTORS
330
10
102
}
330
10
100
AcDbXrecord
280
     1
270
     1
271
     1
  0
XRECORD
  5
15
102
{ACAD_REACTORS
330
10
102
}
330
10
100
AcDbXrecord
280
     1
270
     1
271
     1
  0
XRECORD
  5
16
102
{ACAD_REACTORS
330
10
102
}
330
10
100
AcDbXrecord
280
     1
270
     1
271
     1
  0
CELLSTYLEMAP
  5
74C
102
{ACAD_REACTORS
330
68B
102
}
330
68B
100
AcDbCellStyleMap
 90
        3
300
CELLSTYLE
  1
TABLEFORMAT_BEGIN
 90
        5
170
     1
 91
        0
 92
    32768
 62
   257
 93
        1
300
CONTENTFORMAT
  1
CONTENTFORMAT_BEGIN
 90
        0
 91
        0
 92
        4
 93
        0
300

 40
0.0
140
1.0
 94
        5
 62
     0
340
502
144
0.25
309
CONTENTFORMAT_END
171
     0
 94
        6
 95
        1
302
GRIDFORMAT
  1
GRIDFORMAT_BEGIN
 90
        0
 91
        1
 62
     0
 92
       -2
340
0
 93
        0
 40
0.045
309
GRIDFORMAT_END
 95
        2
302
GRIDFORMAT
  1
GRIDFORMAT_BEGIN
 90
        0
 91
        1
 62
     0
 92
       -2
340
0
 93
        0
 40
0.045
309
GRIDFORMAT_END
 95
        4
302
GRIDFORMAT
  1
GRIDFORMAT_BEGIN
 90
        0
 91
        1
 62
     0
 92
       -2
340
0
 93
        0
 40
0.045
309
GRIDFORMAT_END
 95
        8
302
GRIDFORMAT
  1
GRIDFORMAT_BEGIN
 90
        0
 91
        1
 62
     0
 92
       -2
340
0
 93
        0
 40
0.045
309
GRIDFORMAT_END
 95
       16
302
GRIDFORMAT
  1
GRIDFORMAT_BEGIN
 90
        0
 91
        1
 62
     0
 92
       -2
340
0
 93
        0
 40
0.045
309
GRIDFORMAT_END
 95
       32
302
GRIDFORMAT
  1
GRIDFORMAT_BEGIN
 90
        0
 91
        1
 62
     0
 92
       -2
340
0
 93
        0
 40
0.045
309
GRIDFORMAT_END
309
TABLEFORMAT_END
  1
CELLSTYLE_BEGIN
 90
        1
 91
        1
300
_TITLE
309
CELLSTYLE_END
300
CELLSTYLE
  1
TABLEFORMAT_BEGIN
 90
        5
170
     1
 91
        0
 92
        0
 62
   257
 93
        1
300
CONTENTFORMAT
  1
CONTENTFORMAT_BEGIN
 90
        0
 91
        0
 92
        4
 93
        0
300

 40
0.0
140
1.0
 94
        5
 62
     0
340
502
144
0.18
309
CONTENTFORMAT_END
171
     0
 94
        6
 95
        1
302
GRIDFORMAT
  1
GRIDFORMAT_BEGIN
 90
        0
 91
        1
 62
     0
 92
       -2
340
0
 93
        0
 40
0.045
309
GRIDFORMAT_END
 95
        2
302
GRIDFORMAT
  1
GRIDFORMAT_BEGIN
 90
        0
 91
        1
 62
     0
 92
       -2
340
0
 93
        0
 40
0.045
309
GRIDFORMAT_END
 95
        4
302
GRIDFORMAT
  1
GRIDFORMAT_BEGIN
 90
        0
 91
        1
 62
     0
 92
       -2
340
0
 93
        0
 40
0.045
309
GRIDFORMAT_END
 95
        8
302
GRIDFORMAT
  1
GRIDFORMAT_BEGIN
 90
        0
 91
        1
 62
     0
 92
       -2
340
0
 93
        0
 40
0.045
309
GRIDFORMAT_END
 95
       16
302
GRIDFORMAT
  1
GRIDFORMAT_BEGIN
 90
        0
 91
        1
 62
     0
 92
       -2
340
0
 93
        0
 40
0.045
309
GRIDFORMAT_END
 95
       32
302
GRIDFORMAT
  1
GRIDFORMAT_BEGIN
 90
        0
 91
        1
 62
     0
 92
       -2
340
0
 93
        0
 40
0.045
309
GRIDFORMAT_END
309
TABLEFORMAT_END
  1
CELLSTYLE_BEGIN
 90
        2
 91
        1
300
_HEADER
309
CELLSTYLE_END
300
CELLSTYLE
  1
TABLEFORMAT_BEGIN
 90
        5
170
     1
 91
        0
 92
        0
 62
   257
 93
        1
300
CONTENTFORMAT
  1
CONTENTFORMAT_BEGIN
 90
        0
 91
        0
 92
        4
 93
        0
300

 40
0.0
140
1.0
 94
        2
 62
     0
340
502
144
0.18
309
CONTENTFORMAT_END
171
     0
 94
        6
 95
        1
302
GRIDFORMAT
  1
GRIDFORMAT_BEGIN
 90
        0
 91
        1
 62
     0
 92
       -2
340
0
 93
        0
 40
0.045
309
GRIDFORMAT_END
 95
        2
302
GRIDFORMAT
  1
GRIDFORMAT_BEGIN
 90
        0
 91
        1
 62
     0
 92
       -2
340
0
 93
        0
 40
0.045
309
GRIDFORMAT_END
 95
        4
302
GRIDFORMAT
  1
GRIDFORMAT_BEGIN
 90
        0
 91
        1
 62
     0
 92
       -2
340
0
 93
        0
 40
0.045
309
GRIDFORMAT_END
 95
        8
302
GRIDFORMAT
  1
GRIDFORMAT_BEGIN
 90
        0
 91
        1
 62
     0
 92
       -2
340
0
 93
        0
 40
0.045
309
GRIDFORMAT_END
 95
       16
302
GRIDFORMAT
  1
GRIDFORMAT_BEGIN
 90
        0
 91
        1
 62
     0
 92
       -2
340
0
 93
        0
 40
0.045
309
GRIDFORMAT_END
 95
       32
302
GRIDFORMAT
  1
GRIDFORMAT_BEGIN
 90
        0
 91
        1
 62
     0
 92
       -2
340
0
 93
        0
 40
0.045
309
GRIDFORMAT_END
309
TABLEFORMAT_END
  1
CELLSTYLE_BEGIN
 90
        3
 91
        2
300
_DATA
309
CELLSTYLE_END
  0
XRECORD
  5
750
102
{ACAD_REACTORS
330
68B
102
}
330
68B
100
AcDbXrecord
280
     1
102
ACAD_ROUNDTRIP_PRE2007_TABLESTYLE
 90
        4
 91
        0
  1

 92
        4
 93
        0
  2

 94
        4
 95
        0
  3

  0
ENDSEC
  0
EOF
